  0
SECTION
  2
HEADER
  9
$ACADVER
  1
AC1021
  9
$ACADMAINTVER
 70
    25
  9
$DWGCODEPAGE
  3
ANSI_1252
  9
$INSBASE
 10
0.0
 20
0.0
 30
0.0
  9
$EXTMIN
 10
0.0
 20
0.0
 30
0.0
  9
$EXTMAX
 10
3000.0
 20
4500.0
 30
0.0
  9
$LIMMIN
 10
0.0
 20
0.0
  9
$LIMMAX
 10
3000.0
 20
4500.0
  9
$ORTHOMODE
 70
     0
  9
$REGENMODE
 70
     1
  9
$FILLMODE
 70
     1
  9
$QTEXTMODE
 70
     0
  9
$MIRRTEXT
 70
     1
  9
$LTSCALE
 40
1.0
  9
$ATTMODE
 70
     1
  9
$TEXTSIZE
 40
10.0
  9
$TRACEWID
 40
1.0
  9
$TEXTSTYLE
  7
Standard
  9
$CLAYER
  8
0
  9
$CELTYPE
  6
ByLayer
  9
$CECOLOR
 62
   256
  9
$CELTSCALE
 40
1.0
  9
$DISPSILH
 70
     0
  9
$DIMSCALE
 40
1.0
  9
$DIMASZ
 40
2.5
  9
$DIMEXO
 40
0.625
  9
$DIMDLI
 40
3.75
  9
$DIMRND
 40
0.0
  9
$DIMDLE
 40
0.0
  9
$DIMEXE
 40
1.25
  9
$DIMTP
 40
0.0
  9
$DIMTM
 40
0.0
  9
$DIMTXT
 40
2.5
  9
$DIMCEN
 40
2.5
  9
$DIMTSZ
 40
0.0
  9
$DIMTOL
 70
     0
  9
$DIMLIM
 70
     0
  9
$DIMTIH
 70
     0
  9
$DIMTOH
 70
     0
  9
$DIMSE1
 70
     0
  9
$DIMSE2
 70
     0
  9
$DIMTAD
 70
     1
  9
$DIMZIN
 70
     8
  9
$DIMBLK
  1

  9
$DIMASO
 70
     1
  9
$DIMSHO
 70
     1
  9
$DIMPOST
  1

  9
$DIMAPOST
  1

  9
$DIMALT
 70
     0
  9
$DIMALTD
 70
     3
  9
$DIMALTF
 40
0.0393700787
  9
$DIMLFAC
 40
1.0
  9
$DIMTOFL
 70
     1
  9
$DIMTVP
 40
0.0
  9
$DIMTIX
 70
     0
  9
$DIMSOXD
 70
     0
  9
$DIMSAH
 70
     0
  9
$DIMBLK1
  1

  9
$DIMBLK2
  1

  9
$DIMSTYLE
  2
ISO-25
  9
$DIMCLRD
 70
     0
  9
$DIMCLRE
 70
     0
  9
$DIMCLRT
 70
     0
  9
$DIMTFAC
 40
1.0
  9
$DIMGAP
 40
0.625
  9
$DIMJUST
 70
     0
  9
$DIMSD1
 70
     0
  9
$DIMSD2
 70
     0
  9
$DIMTOLJ
 70
     0
  9
$DIMTZIN
 70
     8
  9
$DIMALTZ
 70
     0
  9
$DIMALTTZ
 70
     0
  9
$DIMUPT
 70
     0
  9
$DIMDEC
 70
     2
  9
$DIMTDEC
 70
     2
  9
$DIMALTU
 70
     2
  9
$DIMALTTD
 70
     3
  9
$DIMTXSTY
  7
Standard
  9
$DIMAUNIT
 70
     0
  9
$DIMADEC
 70
     0
  9
$DIMALTRND
 40
0.0
  9
$DIMAZIN
 70
     0
  9
$DIMDSEP
 70
    44
  9
$DIMATFIT
 70
     3
  9
$DIMFRAC
 70
     0
  9
$DIMLDRBLK
  1

  9
$DIMLUNIT
 70
     2
  9
$DIMLWD
 70
    -2
  9
$DIMLWE
 70
    -2
  9
$DIMTMOVE
 70
     0
  9
$DIMFXL
 40
1.0
  9
$DIMFXLON
 70
     0
  9
$DIMJOGANG
 40
0.7853981634
  9
$DIMTFILL
 70
     0
  9
$DIMTFILLCLR
 70
     0
  9
$DIMARCSYM
 70
     0
  9
$DIMLTYPE
  6

  9
$DIMLTEX1
  6

  9
$DIMLTEX2
  6

  9
$LUNITS
 70
     2
  9
$LUPREC
 70
     4
  9
$SKETCHINC
 40
1.0
  9
$FILLETRAD
 40
10.0
  9
$AUNITS
 70
     0
  9
$AUPREC
 70
     0
  9
$MENU
  1
.
  9
$ELEVATION
 40
0.0
  9
$PELEVATION
 40
0.0
  9
$THICKNESS
 40
0.0
  9
$LIMCHECK
 70
     0
  9
$CHAMFERA
 40
0.0
  9
$CHAMFERB
 40
0.0
  9
$CHAMFERC
 40
0.0
  9
$CHAMFERD
 40
0.0
  9
$SKPOLY
 70
     0
  9
$TDCREATE
 40
2458507.559595428
  9
$TDUCREATE
 40
2458507.517928761
  9
$TDUPDATE
 40
2458507.559597778
  9
$TDUUPDATE
 40
2458507.517931111
  9
$TDINDWG
 40
0.0000000116
  9
$TDUSRTIMER
 40
0.0000000116
  9
$USRTIMER
 70
     1
  9
$ANGBASE
 50
0.0
  9
$ANGDIR
 70
     0
  9
$PDMODE
 70
     0
  9
$PDSIZE
 40
0.0
  9
$PLINEWID
 40
0.0
  9
$SPLFRAME
 70
     0
  9
$SPLINETYPE
 70
     6
  9
$SPLINESEGS
 70
     8
  9
$HANDSEED
  5
2B9
  9
$SURFTAB1
 70
     6
  9
$SURFTAB2
 70
     6
  9
$SURFTYPE
 70
     6
  9
$SURFU
 70
     6
  9
$SURFV
 70
     6
  9
$UCSBASE
  2

  9
$UCSNAME
  2

  9
$UCSORG
 10
0.0
 20
0.0
 30
0.0
  9
$UCSXDIR
 10
1.0
 20
0.0
 30
0.0
  9
$UCSYDIR
 10
0.0
 20
1.0
 30
0.0
  9
$UCSORTHOREF
  2

  9
$UCSORTHOVIEW
 70
     0
  9
$UCSORGTOP
 10
0.0
 20
0.0
 30
0.0
  9
$UCSORGBOTTOM
 10
0.0
 20
0.0
 30
0.0
  9
$UCSORGLEFT
 10
0.0
 20
0.0
 30
0.0
  9
$UCSORGRIGHT
 10
0.0
 20
0.0
 30
0.0
  9
$UCSORGFRONT
 10
0.0
 20
0.0
 30
0.0
  9
$UCSORGBACK
 10
0.0
 20
0.0
 30
0.0
  9
$PUCSBASE
  2

  9
$PUCSNAME
  2

  9
$PUCSORG
 10
0.0
 20
0.0
 30
0.0
  9
$PUCSXDIR
 10
1.0
 20
0.0
 30
0.0
  9
$PUCSYDIR
 10
0.0
 20
1.0
 30
0.0
  9
$PUCSORTHOREF
  2

  9
$PUCSORTHOVIEW
 70
     0
  9
$PUCSORGTOP
 10
0.0
 20
0.0
 30
0.0
  9
$PUCSORGBOTTOM
 10
0.0
 20
0.0
 30
0.0
  9
$PUCSORGLEFT
 10
0.0
 20
0.0
 30
0.0
  9
$PUCSORGRIGHT
 10
0.0
 20
0.0
 30
0.0
  9
$PUCSORGFRONT
 10
0.0
 20
0.0
 30
0.0
  9
$PUCSORGBACK
 10
0.0
 20
0.0
 30
0.0
  9
$USERI1
 70
     0
  9
$USERI2
 70
     0
  9
$USERI3
 70
     0
  9
$USERI4
 70
     0
  9
$USERI5
 70
     0
  9
$USERR1
 40
0.0
  9
$USERR2
 40
0.0
  9
$USERR3
 40
0.0
  9
$USERR4
 40
0.0
  9
$USERR5
 40
0.0
  9
$WORLDVIEW
 70
     1
  9
$SHADEDGE
 70
     3
  9
$SHADEDIF
 70
    70
  9
$TILEMODE
 70
     1
  9
$MAXACTVP
 70
    64
  9
$PINSBASE
 10
0.0
 20
0.0
 30
0.0
  9
$PLIMCHECK
 70
     0
  9
$PEXTMIN
 10
0.0
 20
0.0
 30
0.0
  9
$PEXTMAX
 10
3000.0
 20
4500.0
 30
0.0
  9
$PLIMMIN
 10
0.0
 20
0.0
  9
$PLIMMAX
 10
3000.0
 20
4500.0
  9
$UNITMODE
 70
     0
  9
$VISRETAIN
 70
     1
  9
$PLINEGEN
 70
     0
  9
$PSLTSCALE
 70
     1
  9
$TREEDEPTH
 70
  3020
  9
$CMLSTYLE
  2
Standard
  9
$CMLJUST
 70
     0
  9
$CMLSCALE
 40
20.0
  9
$PROXYGRAPHICS
 70
     1
  9
$MEASUREMENT
 70
     1
  9
$CELWEIGHT
370
    -1
  9
$ENDCAPS
280
     0
  9
$JOINSTYLE
280
     0
  9
$LWDISPLAY
290
     0
  9
$INSUNITS
 70
     4
  9
$HYPERLINKBASE
  1

  9
$STYLESHEET
  1

  9
$XEDIT
290
     1
  9
$CEPSNTYPE
380
     0
  9
$PSTYLEMODE
290
     1
  9
$FINGERPRINTGUID
  2
{FE85AF60-1283-40C2-984D-7267E6D1E20D}
  9
$VERSIONGUID
  2
{FAEB1C32-E019-11D5-929B-00C0DF256EC4}
  9
$EXTNAMES
290
     1
  9
$PSVPSCALE
 40
0.0
  9
$OLESTARTUP
290
     0
  9
$SORTENTS
280
   127
  9
$INDEXCTL
280
     0
  9
$HIDETEXT
280
     1
  9
$XCLIPFRAME
290
     0
  9
$HALOGAP
280
     0
  9
$OBSCOLOR
 70
   257
  9
$OBSLTYPE
280
     0
  9
$INTERSECTIONDISPLAY
280
     0
  9
$INTERSECTIONCOLOR
 70
   257
  9
$DIMASSOC
280
     2
  9
$PROJECTNAME
  1

  9
$CAMERADISPLAY
290
     0
  9
$LENSLENGTH
 40
50.0
  9
$CAMERAHEIGHT
 40
0.0
  9
$STEPSPERSEC
 40
2.0
  9
$STEPSIZE
 40
6.0
  9
$3DDWFPREC
 40
2.0
  9
$PSOLWIDTH
 40
5.0
  9
$PSOLHEIGHT
 40
80.0
  9
$LOFTANG1
 40
1.5707963268
  9
$LOFTANG2
 40
1.5707963268
  9
$LOFTMAG1
 40
0.0
  9
$LOFTMAG2
 40
0.0
  9
$LOFTPARAM
 70
     7
  9
$LOFTNORMALS
280
     1
  9
$LATITUDE
 40
37.795
  9
$LONGITUDE
 40
-122.394
  9
$NORTHDIRECTION
 40
0.0
  9
$TIMEZONE
 70
 -8000
  9
$LIGHTGLYPHDISPLAY
280
     1
  9
$TILEMODELIGHTSYNCH
280
     1
  9
$CMATERIAL
347
44
  9
$SOLIDHIST
280
     0
  9
$SHOWHIST
280
     1
  9
$DWFFRAME
280
     2
  9
$DGNFRAME
280
     2
  9
$REALWORLDSCALE
290
     1
  9
$INTERFERECOLOR
 62
   256
  9
$CSHADOW
280
     0
  9
$SHADOWPLANELOCATION
 40
0.0
  0
ENDSEC
  0
SECTION
  2
CLASSES
  0
CLASS
  1
ACDBDICTIONARYWDFLT
  2
AcDbDictionaryWithDefault
  3
ObjectDBX Classes
 90
        0
 91
        4
280
     0
281
     0
  0
CLASS
  1
VISUALSTYLE
  2
AcDbVisualStyle
  3
ObjectDBX Classes
 90
     4095
 91
        4
280
     0
281
     0
  0
CLASS
  1
MATERIAL
  2
AcDbMaterial
  3
ObjectDBX Classes
 90
     1153
 91
        4
280
     0
281
     0
  0
CLASS
  1
SCALE
  2
AcDbScale
  3
ObjectDBX Classes
 90
     1153
 91
        4
280
     0
281
     0
  0
CLASS
  1
TABLESTYLE
  2
AcDbTableStyle
  3
ObjectDBX Classes
 90
     4095
 91
        4
280
     0
281
     0
  0
CLASS
  1
MLEADERSTYLE
  2
AcDbMLeaderStyle
  3
ACDB_MLEADERSTYLE_CLASS
 90
     4095
 91
        4
280
     0
281
     0
  0
CLASS
  1
SUN
  2
AcDbSun
  3
SCENEOE
 90
     1153
 91
        4
280
     0
281
     0
  0
CLASS
  1
DICTIONARYVAR
  2
AcDbDictionaryVar
  3
ObjectDBX Classes
 90
        0
 91
        4
280
     0
281
     0
  0
CLASS
  1
CELLSTYLEMAP
  2
AcDbCellStyleMap
  3
ObjectDBX Classes
 90
     1152
 91
        4
280
     0
281
     0
  0
ENDSEC
  0
SECTION
  2
TABLES
  0
TABLE
  2
VPORT
  5
8
330
0
100
AcDbSymbolTable
 70
     1
  0
VPORT
  5
29
330
8
100
AcDbSymbolTableRecord
100
AcDbViewportTableRecord
  2
*Active
 70
     0
 10
0.0
 20
0.0
 11
1.0
 21
1.0
 12
344.1869158879
 22
148.5
 13
0.0
 23
0.0
 14
10.0
 24
10.0
 15
10.0
 25
10.0
 16
0.0
 26
0.0
 36
1.0
 17
0.0
 27
0.0
 37
0.0
 40
297.0
 41
1.9729729729
 42
50.0
 43
0.0
 44
0.0
 50
0.0
 51
0.0
 71
     0
 72
   100
 73
     1
 74
     3
 75
     0
 76
     0
 77
     0
 78
     0
281
     0
 65
     1
110
0.0
120
0.0
130
0.0
111
1.0
121
0.0
131
0.0
112
0.0
122
1.0
132
0.0
 79
     0
146
0.0
348
2F
 60
     3
 61
     5
292
     1
282
     1
141
0.0
142
0.0
 63
   250
361
6D
  0
ENDTAB
  0
TABLE
  2
LTYPE
  5
5
330
0
100
AcDbSymbolTable
 70
     1
  0
LTYPE
  5
14
330
5
100
AcDbSymbolTableRecord
100
AcDbLinetypeTableRecord
  2
ByBlock
 70
     0
  3

 72
    65
 73
     0
 40
0.0
  0
LTYPE
  5
15
330
5
100
AcDbSymbolTableRecord
100
AcDbLinetypeTableRecord
  2
ByLayer
 70
     0
  3

 72
    65
 73
     0
 40
0.0
  0
LTYPE
  5
16
330
5
100
AcDbSymbolTableRecord
100
AcDbLinetypeTableRecord
  2
Continuous
 70
     0
  3
Solid line
 72
    65
 73
     0
 40
0.0
  0
ENDTAB
  0
TABLE
  2
LAYER
  5
2
330
0
100
AcDbSymbolTable
 70
     5
  0
LAYER
  5
10
330
2
100
AcDbSymbolTableRecord
100
AcDbLayerTableRecord
  2
0
 70
     0
 62
     7
  6
Continuous
370
    -3
390
F
347
46
  0
LAYER
  5
6E
330
2
100
AcDbSymbolTableRecord
100
AcDbLayerTableRecord
  2
Default
 70
     0
 62
     7
  6
Continuous
370
    -3
390
F
347
46
  0
LAYER
  5
99
330
2
100
AcDbSymbolTableRecord
100
AcDbLayerTableRecord
  2
DV1_Default
 70
     0
 62
     7
  6
Continuous
370
    -3
390
F
347
46
  0
LAYER
  5
163
330
2
100
AcDbSymbolTableRecord
100
AcDbLayerTableRecord
  2
DV2_Default
 70
     0
 62
     7
  6
Continuous
370
    -3
390
F
347
46
  0
LAYER
  5
233
330
2
100
AcDbSymbolTableRecord
100
AcDbLayerTableRecord
  2
DV3_Default
 70
     0
 62
     7
  6
Continuous
370
    -3
390
F
347
46
  0
ENDTAB
  0
TABLE
  2
STYLE
  5
3
330
0
100
AcDbSymbolTable
 70
     1
  0
STYLE
  5
11
330
3
100
AcDbSymbolTableRecord
100
AcDbTextStyleTableRecord
  2
Standard
 70
     0
 40
0.0
 41
1.0
 50
0.0
 71
     0
 42
10.0
  3
txt
  4

  0
ENDTAB
  0
TABLE
  2
VIEW
  5
6
330
0
100
AcDbSymbolTable
 70
     0
  0
ENDTAB
  0
TABLE
  2
UCS
  5
7
330
0
100
AcDbSymbolTable
 70
     0
  0
ENDTAB
  0
TABLE
  2
APPID
  5
9
330
0
100
AcDbSymbolTable
 70
     2
  0
APPID
  5
12
330
9
100
AcDbSymbolTableRecord
100
AcDbRegAppTableRecord
  2
ACAD
 70
     0
  0
APPID
  5
2AF
330
9
100
AcDbSymbolTableRecord
100
AcDbRegAppTableRecord
  2
ACAD_MLEADERVER
 70
     0
  0
ENDTAB
  0
TABLE
  2
DIMSTYLE
  5
A
330
0
100
AcDbSymbolTable
 70
     1
100
AcDbDimStyleTable
  0
DIMSTYLE
105
27
330
A
100
AcDbSymbolTableRecord
100
AcDbDimStyleTableRecord
  2
ISO-25
 70
     0
 41
2.5
 42
0.625
 43
3.75
 44
1.25
 73
     0
 74
     0
 77
     1
 78
     8
140
2.5
141
2.5
143
0.0393700787
147
0.625
171
     3
172
     1
178
     0
271
     2
272
     2
274
     3
278
    44
283
     0
284
     8
340
11
  0
ENDTAB
  0
TABLE
  2
BLOCK_RECORD
  5
1
330
0
100
AcDbSymbolTable
 70
    10
  0
BLOCK_RECORD
  5
1F
330
1
100
AcDbSymbolTableRecord
100
AcDbBlockTableRecord
  2
*Model_Space
340
22
 70
     0
280
     1
281
     0
  0
BLOCK_RECORD
  5
1B
330
1
100
AcDbSymbolTableRecord
100
AcDbBlockTableRecord
  2
*Paper_Space
340
1E
 70
     0
280
     1
281
     0
  0
BLOCK_RECORD
  5
6F
330
1
100
AcDbSymbolTableRecord
100
AcDbBlockTableRecord
  2
SEANNOT_GROUP
340
0
102
{BLKREFS
331
70
102
}
 70
     0
280
     1
281
     0
  0
BLOCK_RECORD
  5
75
330
1
100
AcDbSymbolTableRecord
100
AcDbBlockTableRecord
  2
SEANNOT_GROUP1
340
0
102
{BLKREFS
331
76
102
}
 70
     0
280
     1
281
     0
  0
BLOCK_RECORD
  5
7B
330
1
100
AcDbSymbolTableRecord
100
AcDbBlockTableRecord
  2
SEANNOT_GROUP2
340
0
102
{BLKREFS
331
7C
102
}
 70
     0
280
     1
281
     0
  0
BLOCK_RECORD
  5
81
330
1
100
AcDbSymbolTableRecord
100
AcDbBlockTableRecord
  2
SEANNOT_GROUP3
340
0
102
{BLKREFS
331
82
102
}
 70
     0
280
     1
281
     0
  0
BLOCK_RECORD
  5
8B
330
1
100
AcDbSymbolTableRecord
100
AcDbBlockTableRecord
  2
SEANNOT_GROUP4
340
0
102
{BLKREFS
331
8C
102
}
 70
     0
280
     1
281
     0
  0
BLOCK_RECORD
  5
91
330
1
100
AcDbSymbolTableRecord
100
AcDbBlockTableRecord
  2
SEANNOT_GROUP5
340
0
102
{BLKREFS
331
92
102
}
 70
     0
280
     1
281
     0
  0
BLOCK_RECORD
  5
97
330
1
100
AcDbSymbolTableRecord
100
AcDbBlockTableRecord
  2
SE
340
0
102
{BLKREFS
331
98
102
}
 70
     0
280
     1
281
     0
  0
BLOCK_RECORD
  5
161
330
1
100
AcDbSymbolTableRecord
100
AcDbBlockTableRecord
  2
SE1
340
0
102
{BLKREFS
331
162
102
}
 70
     0
280
     1
281
     0
  0
BLOCK_RECORD
  5
231
330
1
100
AcDbSymbolTableRecord
100
AcDbBlockTableRecord
  2
SE2
340
0
102
{BLKREFS
331
232
102
}
 70
     0
280
     1
281
     0
  0
ENDTAB
  0
ENDSEC
  0
SECTION
  2
BLOCKS
  0
BLOCK
  5
20
330
1F
100
AcDbEntity
  8
0
100
AcDbBlockBegin
  2
*Model_Space
 70
     0
 10
0.0
 20
0.0
 30
0.0
  3
*Model_Space
  1

  0
ENDBLK
  5
21
330
1F
100
AcDbEntity
  8
0
100
AcDbBlockEnd
  0
BLOCK
  5
1C
330
1B
100
AcDbEntity
 67
     1
  8
0
100
AcDbBlockBegin
  2
*Paper_Space
 70
     0
 10
0.0
 20
0.0
 30
0.0
  3
*Paper_Space
  1

  0
ENDBLK
  5
1D
330
1B
100
AcDbEntity
 67
     1
  8
0
100
AcDbBlockEnd
  0
BLOCK
  5
73
330
6F
100
AcDbEntity
  8
0
100
AcDbBlockBegin
  2
SEANNOT_GROUP
 70
     0
 10
0.0
 20
0.0
 30
0.0
  3
SEANNOT_GROUP
  1

  0
LINE
  5
71
330
6F
100
AcDbEntity
  8
Default
 62
   136
100
AcDbLine
 10
69.399999553
 20
450.957777948
 30
0.0
 11
29.400000447
 21
450.957777948
 31
0.0
  0
LINE
  5
72
330
6F
100
AcDbEntity
  8
Default
 62
   136
100
AcDbLine
 10
49.4
 20
470.957777501
 30
0.0
 11
49.4
 21
430.9577783951
 31
0.0
  0
ENDBLK
  5
74
330
6F
100
AcDbEntity
  8
0
100
AcDbBlockEnd
  0
BLOCK
  5
79
330
75
100
AcDbEntity
  8
0
100
AcDbBlockBegin
  2
SEANNOT_GROUP1
 70
     0
 10
0.0
 20
0.0
 30
0.0
  3
SEANNOT_GROUP1
  1

  0
LINE
  5
77
330
75
100
AcDbEntity
  8
Default
 62
   136
100
AcDbLine
 10
334.6498654089
 20
450.957777948
 30
0.0
 11
294.649866303
 21
450.957777948
 31
0.0
  0
LINE
  5
78
330
75
100
AcDbEntity
  8
Default
 62
   136
100
AcDbLine
 10
314.6498658559
 20
470.957777501
 30
0.0
 11
314.6498658559
 21
430.9577783951
 31
0.0
  0
ENDBLK
  5
7A
330
75
100
AcDbEntity
  8
0
100
AcDbBlockEnd
  0
BLOCK
  5
7F
330
7B
100
AcDbEntity
  8
0
100
AcDbBlockBegin
  2
SEANNOT_GROUP2
 70
     0
 10
0.0
 20
0.0
 30
0.0
  3
SEANNOT_GROUP2
  1

  0
LINE
  5
7D
330
7B
100
AcDbEntity
  8
Default
 62
   136
100
AcDbLine
 10
68.867727626
 20
342.5959713472
 30
0.0
 11
28.86772852
 21
342.5959713472
 31
0.0
  0
LINE
  5
7E
330
7B
100
AcDbEntity
  8
Default
 62
   136
100
AcDbLine
 10
48.867728073
 20
362.5959709001
 30
0.0
 11
48.867728073
 21
322.5959717942
 31
0.0
  0
ENDBLK
  5
80
330
7B
100
AcDbEntity
  8
0
100
AcDbBlockEnd
  0
BLOCK
  5
89
330
81
100
AcDbEntity
  8
0
100
AcDbBlockBegin
  2
SEANNOT_GROUP3
 70
     0
 10
0.0
 20
0.0
 30
0.0
  3
SEANNOT_GROUP3
  1

  0
LINE
  5
83
330
81
100
AcDbEntity
  8
Default
 62
   136
100
AcDbLine
 10
69.1597123164
 20
141.1821155042
 30
0.0
 11
29.1597132104
 21
141.1821155042
 31
0.0
  0
LINE
  5
84
330
81
100
AcDbEntity
  8
Default
 62
   136
100
AcDbLine
 10
49.1597127634
 20
161.1821150572
 30
0.0
 11
49.1597127634
 21
121.1821159513
 31
0.0
  0
LINE
  5
85
330
81
100
AcDbEntity
  8
Default
 62
   136
100
AcDbLine
 10
74.1597112733
 20
141.1821155042
 30
0.0
 11
86.401544032
 21
141.1821155042
 31
0.0
  0
LINE
  5
86
330
81
100
AcDbEntity
  8
Default
 62
   136
100
AcDbLine
 10
49.1597127634
 20
166.1821140141
 30
0.0
 11
49.1597127634
 21
178.4239467728
 31
0.0
  0
LINE
  5
87
330
81
100
AcDbEntity
  8
Default
 62
   136
100
AcDbLine
 10
24.1597142535
 20
141.1821155042
 30
0.0
 11
11.9178814948
 21
141.1821155042
 31
0.0
  0
LINE
  5
88
330
81
100
AcDbEntity
  8
Default
 62
   136
100
AcDbLine
 10
49.1597127634
 20
116.1821169943
 30
0.0
 11
49.1597127634
 21
103.9402842356
 31
0.0
  0
ENDBLK
  5
8A
330
81
100
AcDbEntity
  8
0
100
AcDbBlockEnd
  0
BLOCK
  5
8F
330
8B
100
AcDbEntity
  8
0
100
AcDbBlockBegin
  2
SEANNOT_GROUP4
 70
     0
 10
0.0
 20
0.0
 30
0.0
  3
SEANNOT_GROUP4
  1

  0
LINE
  5
8D
330
8B
100
AcDbEntity
  8
Default
 62
   136
100
AcDbLine
 10
69.5002009798
 20
664.3707113997
 30
0.0
 11
29.5002018739
 21
664.3707113997
 31
0.0
  0
LINE
  5
8E
330
8B
100
AcDbEntity
  8
Default
 62
   136
100
AcDbLine
 10
49.5002014269
 20
684.3707109526
 30
0.0
 11
49.5002014269
 21
644.3707118467
 31
0.0
  0
ENDBLK
  5
90
330
8B
100
AcDbEntity
  8
0
100
AcDbBlockEnd
  0
BLOCK
  5
95
330
91
100
AcDbEntity
  8
0
100
AcDbBlockBegin
  2
SEANNOT_GROUP5
 70
     0
 10
0.0
 20
0.0
 30
0.0
  3
SEANNOT_GROUP5
  1

  0
LINE
  5
93
330
91
100
AcDbEntity
  8
Default
 62
   136
100
AcDbLine
 10
536.6197767245
 20
664.3727177853
 30
0.0
 11
496.6197776186
 21
664.3727177853
 31
0.0
  0
LINE
  5
94
330
91
100
AcDbEntity
  8
Default
 62
   136
100
AcDbLine
 10
516.6197771715
 20
684.3727173383
 30
0.0
 11
516.6197771715
 21
644.3727182324
 31
0.0
  0
ENDBLK
  5
96
330
91
100
AcDbEntity
  8
0
100
AcDbBlockEnd
  0
BLOCK
  5
15F
330
97
100
AcDbEntity
  8
0
100
AcDbBlockBegin
  2
SE
 70
     0
 10
0.0
 20
0.0
 30
0.0
  3
SE
  1

  0
LINE
  5
9A
330
97
100
AcDbEntity
  8
DV1_Default
 62
     7
100
AcDbLine
 10
34.8998458839
 20
650.9578622825
 30
0.0
 11
63.9004271927
 21
650.9578622825
 31
0.0
  0
LINE
  5
9B
330
97
100
AcDbEntity
  8
DV1_Default
 62
     7
100
AcDbLine
 10
93.9
 20
541.9578571042
 30
0.0
 11
93.9
 21
493.9576987918
 31
0.0
  0
LINE
  5
9C
330
97
100
AcDbEntity
  8
DV1_Default
 62
     7
100
AcDbLine
 10
79.1833379831
 20
450.9578622825
 30
0.0
 11
19.6166621095
 21
450.9578622825
 31
0.0
  0
SPLINE
  5
9D
330
97
100
AcDbEntity
  8
DV1_Default
 62
     7
100
AcDbSpline
210
0.0
220
0.0
230
1.0
 70
     8
 71
     3
 72
    23
 73
    19
 74
     0
 42
0.000000001
 43
0.0000000001
 40
0.0
 40
0.0
 40
0.0
 40
0.0
 40
0.0305542403684498
 40
0.0665131486515816
 40
0.105251514516284
 40
0.1466381096006962
 40
0.1905395223614041
 40
0.2368208010042769
 40
0.2942367249943719
 40
0.3545452044309391
 40
0.4175210236430842
 40
0.4829382310538143
 40
0.5636850619240803
 40
0.6471884114836739
 40
0.7330654583338444
 40
0.8209334196446136
 40
0.9104098026055124
 40
1.0
 40
1.0
 40
1.0
 40
1.0
 10
34.39491676111904
 20
650.458762595748
 30
0.0
 10
34.38090331771149
 20
648.2195304967348
 30
0.0
 10
34.35194854771165
 20
644.1031232635153
 30
0.0
 10
34.14430639277261
 20
636.946995725322
 30
0.0
 10
33.82743421874251
 20
629.2640931662557
 30
0.0
 10
33.39577268182736
 20
620.9985474114787
 30
0.0
 10
32.86345906208496
 20
612.2526068254579
 30
0.0
 10
32.19723493425381
 20
602.4400604262746
 30
0.0
 10
31.39003166123082
 20
591.5432096910074
 30
0.0
 10
30.43984443379738
 20
579.5413016184377
 30
0.0
 10
29.40023869628723
 20
567.0118757859059
 30
0.0
 10
28.21078044757838
 20
553.128896571386
 30
0.0
 10
26.87540110219326
 20
537.8839498968664
 30
0.0
 10
25.4072431625777
 20
521.289915661336
 30
0.0
 10
23.89761710427023
 20
504.1932857318169
 30
0.0
 10
22.38371685142462
 20
486.8133129870212
 30
0.0
 10
20.8448483986193
 20
468.7443297571217
 30
0.0
 10
19.94913578034779
 20
457.7239426152079
 30
0.0
 10
19.41814999431875
 20
451.1795125995786
 30
0.0
  0
SPLINE
  5
9E
330
97
100
AcDbEntity
  8
DV1_Default
 62
     7
100
AcDbSpline
210
0.0
220
0.0
230
1.0
 70
     8
 71
     3
 72
    19
 73
    15
 74
     0
 42
0.000000001
 43
0.0000000001
 40
0.0
 40
0.0
 40
0.0
 40
0.0
 40
0.0832705693408646
 40
0.2067914807946973
 40
0.3257331945678447
 40
0.4173033117502369
 40
0.5054526750926104
 40
0.5899645707058354
 40
0.6706232960922766
 40
0.7472145104671866
 40
0.8182732100573601
 40
0.8850044504137581
 40
0.9472125597397671
 40
1.0
 40
1.0
 40
1.0
 40
1.0
 10
71.33383097882093
 20
544.6599639938796
 30
0.0
 10
71.05096834869606
 20
547.8856040723033
 30
0.0
 10
70.45713373633993
 20
554.6692511788551
 30
0.0
 10
69.4508464569535
 20
566.409303553553
 30
0.0
 10
68.47858537321585
 20
578.1029023047506
 30
0.0
 10
67.63799763747218
 20
588.6422777933712
 30
0.0
 10
66.93097362121803
 20
597.9527882402933
 30
0.0
 10
66.29496342990423
 20
606.8857740248093
 30
0.0
 10
65.73752088551142
 20
615.414858725164
 30
0.0
 10
65.26871863227424
 20
623.46857431258
 30
0.0
 10
64.89273994228988
 20
631.0499689452445
 30
0.0
 10
64.61934960339717
 20
638.0738027434812
 30
0.0
 10
64.441251785717
 20
644.6299793944272
 30
0.0
 10
64.41659689962914
 20
648.4061208270952
 30
0.0
 10
64.40473046793618
 20
650.4587531618504
 30
0.0
  0
SPLINE
  5
9F
330
97
100
AcDbEntity
  8
DV1_Default
 62
     7
100
AcDbSpline
210
0.0
220
0.0
230
1.0
 70
     8
 71
     3
 72
    10
 73
     6
 74
     0
 42
0.000000001
 43
0.0000000001
 40
0.0
 40
0.0
 40
0.0
 40
0.0
 40
0.4791649240526929
 40
0.9567030383803885
 40
1.0
 40
1.0
 40
1.0
 40
1.0
 10
79.38192383117101
 20
451.1783079292423
 30
0.0
 10
78.81346685259176
 20
458.1779217505087
 30
0.0
 10
77.86797054816164
 20
469.7852025391078
 30
0.0
 10
76.67258591025953
 20
483.8428931604344
 30
0.0
 10
76.10211865600161
 20
490.3777315013809
 30
0.0
 10
76.04691297342717
 20
491.0098874140214
 30
0.0
  0
ARC
  5
A0
330
97
100
AcDbEntity
  8
DV1_Default
 62
     7
100
AcDbCircle
 10
74.1353808348
 20
544.7593384139
 30
0.0
 40
2.80555331474547
100
AcDbArc
 50
182.0340401635
 51
272.9716169852
  0
SPLINE
  5
A1
330
97
100
AcDbEntity
  8
DV1_Default
 62
     7
100
AcDbSpline
210
0.0
220
0.0
230
1.0
 70
     8
 71
     3
 72
    13
 73
     9
 74
     0
 42
0.000000001
 43
0.0000000001
 40
0.0
 40
0.0
 40
0.0
 40
0.0
 40
0.2665682207771616
 40
0.3855877861194155
 40
0.5000000000015566
 40
0.614412213883304
 40
0.7334317792245828
 40
1.0
 40
1.0
 40
1.0
 40
1.0
 10
76.04823908186857
 20
491.0099980918175
 30
0.0
 10
76.0452856762088
 20
491.4544927560821
 30
0.0
 10
76.05728008798017
 20
492.0070088201583
 30
0.0
 10
76.36629733137808
 20
492.7172696824349
 30
0.0
 10
76.67783181814417
 20
493.1463781620378
 30
0.0
 10
77.07847561296357
 20
493.4937574552933
 30
0.0
 10
77.75944146000289
 20
493.8628748679951
 30
0.0
 10
78.30886479416371
 20
493.9224724086674
 30
0.0
 10
78.75195822222356
 20
493.9578622825351
 30
0.0
  0
SPLINE
  5
A2
330
97
100
AcDbEntity
  8
DV1_Default
 62
     7
100
AcDbSpline
210
0.0
220
0.0
230
1.0
 70
     8
 71
     3
 72
    11
 73
     7
 74
     0
 42
0.000000001
 43
0.0000000001
 40
0.0
 40
0.0
 40
0.0
 40
0.0
 40
0.2543925345796708
 40
0.4999999999998744
 40
0.7456074654201619
 40
1.0
 40
1.0
 40
1.0
 40
1.0
 10
64.40042646937178
 20
650.4587127607841
 30
0.0
 10
64.3931266440016
 20
650.5310665239384
 30
0.0
 10
64.3768514052119
 20
650.6537466627851
 30
0.0
 10
64.26227779887881
 20
650.8203289052226
 30
0.0
 10
64.09550091270386
 20
650.9346189966625
 30
0.0
 10
63.97279326785629
 20
650.9506855383287
 30
0.0
 10
63.90042719268546
 20
650.9578622825352
 30
0.0
  0
SPLINE
  5
A3
330
97
100
AcDbEntity
  8
DV1_Default
 62
     7
100
AcDbSpline
210
0.0
220
0.0
230
1.0
 70
     8
 71
     3
 72
    11
 73
     7
 74
     0
 42
0.000000001
 43
0.0000000001
 40
0.0
 40
0.0
 40
0.0
 40
0.0
 40
0.2543903265354275
 40
0.4999969235188129
 40
0.7456052551669103
 40
1.0
 40
1.0
 40
1.0
 40
1.0
 10
34.89984588388313
 20
650.9578622825352
 30
0.0
 10
34.82748113858601
 20
650.9506854790158
 30
0.0
 10
34.70477534297965
 20
650.9346188662022
 30
0.0
 10
34.53800156238504
 20
650.8203283685272
 30
0.0
 10
34.42343052233908
 20
650.6537461623501
 30
0.0
 10
34.4071556629387
 20
650.5310664890725
 30
0.0
 10
34.39985603503863
 20
650.4587127607901
 30
0.0
  0
LINE
  5
A4
330
97
100
AcDbEntity
  8
DV1_Default
 62
     7
100
AcDbLine
 10
78.7519500528
 20
493.9576987918
 30
0.0
 11
93.9
 21
493.9576987918
 31
0.0
  0
LINE
  5
A5
330
97
100
AcDbEntity
  8
DV1_Default
 62
     7
100
AcDbLine
 10
93.9
 20
541.9578571042
 30
0.0
 11
74.2798993177
 21
541.9578571042
 31
0.0
  0
ARC
  5
A6
330
97
100
AcDbEntity
  8
DV1_Default
 62
     7
100
AcDbCircle
 10
19.6166621095
 20
451.1578622825
 30
0.0
 40
0.2000000000000006
100
AcDbArc
 50
175.4186019066
 51
270.0
  0
ARC
  5
A7
330
97
100
AcDbEntity
  8
DV1_Default
 62
     7
100
AcDbCircle
 10
79.1833379831
 20
451.1578622825
 30
0.0
 40
0.2
100
AcDbArc
 50
270.0
 51
4.5813980934
  0
SPLINE
  5
A8
330
97
100
AcDbEntity
  8
DV1_Default
 62
     7
100
AcDbSpline
210
0.0
220
0.0
230
1.0
 70
     8
 71
     3
 72
    20
 73
    16
 74
     0
 42
0.000000001
 43
0.0000000001
 40
0.0
 40
0.0
 40
0.0
 40
0.0
 40
0.2355534499330919
 40
0.2355534499330919
 40
0.3533301748996383
 40
0.3533301748996383
 40
0.4711068998661845
 40
0.4711068998661845
 40
0.5888836248327308
 40
0.5888836248327308
 40
0.7066603497992772
 40
0.7066603497992772
 40
0.9422137997323697
 40
0.9422137997323697
 40
1.0
 40
1.0
 40
1.0
 40
1.0
 10
49.40150148927302
 20
785.6812554665172
 30
0.0
 10
51.37265194292195
 20
785.6812554665132
 30
0.0
 10
53.29285591869927
 20
785.4584930022019
 30
0.0
 10
56.03744628631758
 20
784.8359330363729
 30
0.0
 10
56.91045229564885
 20
784.583798961477
 30
0.0
 10
58.57467962967607
 20
783.9923599433943
 30
0.0
 10
59.37347920321564
 20
783.6487930573077
 30
0.0
 10
60.83620295966033
 20
782.8883967216331
 30
0.0
 10
61.50022955695648
 20
782.4732399592091
 30
0.0
 10
62.68670821082352
 20
781.5694224191456
 30
0.0
 10
63.21379223696834
 20
781.0754482824495
 30
0.0
 10
64.53641329777548
 20
779.5391989572557
 30
0.0
 10
65.10180647728207
 20
778.4176130651141
 30
0.0
 10
65.37770480416569
 20
777.0028454146245
 30
0.0
 10
65.41162901636996
 20
776.7234836271294
 30
0.0
 10
65.42446036647455
 20
776.4434393682866
 30
0.0
  0
SPLINE
  5
A9
330
97
100
AcDbEntity
  8
DV1_Default
 62
     7
100
AcDbSpline
210
0.0
220
0.0
230
1.0
 70
     8
 71
     3
 72
    16
 73
    12
 74
     0
 42
0.000000001
 43
0.0000000001
 40
0.0
 40
0.0
 40
0.0
 40
0.0
 40
0.1247977632041956
 40
0.1247977632041956
 40
0.2498266541750248
 40
0.2498266541750248
 40
0.4998844361166832
 40
0.4998844361166832
 40
0.7499422180583416
 40
0.7499422180583416
 40
1.0
 40
1.0
 40
1.0
 40
1.0
 10
64.29731824201207
 20
651.4435473825495
 30
0.0
 10
64.30386618670515
 20
651.4435369092429
 30
0.0
 10
64.21514827618111
 20
651.4435288062509
 30
0.0
 10
63.84102014794324
 20
651.4435174814436
 30
0.0
 10
63.54840336989298
 20
651.4435143227138
 30
0.0
 10
62.40860369073096
 20
651.4435123992843
 30
0.0
 10
61.29179169267265
 20
651.4435209626829
 30
0.0
 10
58.55794190959089
 20
651.4435553469971
 30
0.0
 10
56.90717962275804
 20
651.4435817218016
 30
0.0
 10
53.32644466505759
 20
651.4436492525093
 30
0.0
 10
51.36656936233824
 20
651.4436907460672
 30
0.0
 10
49.400126583427
 20
651.4437363345672
 30
0.0
  0
SPLINE
  5
AA
330
97
100
AcDbEntity
  8
DV1_Default
 62
     7
100
AcDbSpline
210
0.0
220
0.0
230
1.0
 70
     8
 71
     3
 72
    18
 73
    14
 74
     0
 42
0.000000001
 43
0.0000000001
 40
0.0
 40
0.0
 40
0.0
 40
0.0
 40
0.1254316969497026
 40
0.1254316969497026
 40
0.2508633938994052
 40
0.2508633938994052
 40
0.3762950908491078
 40
0.3762950908491078
 40
0.5017267877988103
 40
0.5017267877988103
 40
0.7525901816982153
 40
0.7525901816982153
 40
1.0
 40
1.0
 40
1.0
 40
1.0
 10
49.400126583427
 20
651.4437363345672
 30
0.0
 10
48.41661700521636
 20
651.4437591354985
 30
0.0
 10
47.44828043207254
 20
651.4437825548591
 30
0.0
 10
45.54153912235521
 20
651.4438306135586
 30
0.0
 10
44.59256745064238
 20
651.4438555479849
 30
0.0
 10
42.78767706648537
 20
651.4439051838096
 30
0.0
 10
41.93503774737798
 20
651.4439297918537
 30
0.0
 10
40.32389823982731
 20
651.4439786112654
 30
0.0
 10
39.5625658765228
 20
651.4440029336664
 30
0.0
 10
37.50791827895815
 20
651.4440723493892
 30
0.0
 10
36.38968627223247
 20
651.444115674512
 30
0.0
 10
34.88949634353626
 20
651.4441877175121
 30
0.0
 10
34.50185180897053
 20
651.4442170391943
 30
0.0
 10
34.50261181083229
 20
651.4442371803981
 30
0.0
  0
SPLINE
  5
AB
330
97
100
AcDbEntity
  8
DV1_Default
 62
     7
100
AcDbSpline
210
0.0
220
0.0
230
1.0
 70
     8
 71
     3
 72
    14
 73
    10
 74
     0
 42
0.000000001
 43
0.0000000001
 40
0.0
 40
0.0
 40
0.0
 40
0.0
 40
0.0881354054637923
 40
0.0881354054637923
 40
0.3161015540978449
 40
0.3161015540978449
 40
0.5440677027318975
 40
0.5440677027318975
 40
1.0
 40
1.0
 40
1.0
 40
1.0
 10
33.37962135556327
 20
775.9533556070562
 30
0.0
 10
33.36025208627139
 20
776.3996705556382
 30
0.0
 10
33.39444912721863
 20
776.8457078535001
 30
0.0
 10
33.70207902499954
 20
778.4191028653003
 30
0.0
 10
34.2693528791551
 20
779.5409697189045
 30
0.0
 10
36.01911834267794
 20
781.5762309825967
 30
0.0
 10
37.23521628459422
 20
782.5068528760233
 30
0.0
 10
41.59498629699365
 20
784.7769992089131
 30
0.0
 10
45.4650229136365
 20
785.6812554665258
 30
0.0
 10
49.40150148927302
 20
785.6812554665172
 30
0.0
  0
ARC
  5
AC
330
97
100
AcDbEntity
  8
DV1_Default
 62
     7
100
AcDbCircle
 10
49.4130422281
 20
823.6284221718
 30
0.0
 40
15.00935848257976
100
AcDbArc
 50
90.0456179496
 51
180.3295115969
  0
SPLINE
  5
AD
330
97
100
AcDbEntity
  8
DV1_Default
 62
     7
100
AcDbSpline
210
0.0
220
0.0
230
1.0
 70
     8
 71
     3
 72
     9
 73
     5
 74
     0
 42
0.000000001
 43
0.0000000001
 40
0.0
 40
0.0
 40
0.0
 40
0.0
 40
0.2954440588396854
 40
1.0
 40
1.0
 40
1.0
 40
1.0
 10
34.40259702313311
 20
664.4406456293336
 30
0.0
 10
34.40259771464432
 20
663.1619942656677
 30
0.0
 10
34.40259951519965
 20
658.8717970701894
 30
0.0
 10
34.40259874094567
 20
654.8727632475172
 30
0.0
 10
34.40259801077418
 20
651.5371723786421
 30
0.0
  0
ARC
  5
AE
330
97
100
AcDbEntity
  8
DV1_Default
 62
     7
100
AcDbCircle
 10
-615.0189916787
 20
814.0708012981
 30
0.0
 40
649.4913835380897
100
AcDbArc
 50
356.6716107768
 51
0.8328049427
  0
ARC
  5
AF
330
97
100
AcDbEntity
  8
DV1_Default
 62
     7
100
AcDbCircle
 10
719.9547890599
 20
814.2406232791
 30
0.0
 40
655.621951646933
100
AcDbArc
 50
179.1894808899
 51
183.3122883748
  0
SPLINE
  5
B0
330
97
100
AcDbEntity
  8
DV1_Default
 62
     7
100
AcDbSpline
210
0.0
220
0.0
230
1.0
 70
     8
 71
     3
 72
     9
 73
     5
 74
     0
 42
0.000000001
 43
0.0000000001
 40
0.0
 40
0.0
 40
0.0
 40
0.0
 40
0.7031213200080606
 40
1.0
 40
1.0
 40
1.0
 40
1.0
 10
64.39765376405616
 20
651.5435463779942
 30
0.0
 10
64.39765300639036
 20
654.8687889526752
 30
0.0
 10
64.39765223780859
 20
658.8646460815353
 30
0.0
 10
64.39765417827101
 20
663.1517772207732
 30
0.0
 10
64.39765493718296
 20
664.4356992038147
 30
0.0
  0
ARC
  5
B1
330
97
100
AcDbEntity
  8
DV1_Default
 62
     7
100
AcDbCircle
 10
49.4050558423
 20
823.644168368
 30
0.0
 40
14.99360730939093
100
AcDbArc
 50
359.6050237788
 51
90.0151474951
  0
ARC
  5
B2
330
97
100
AcDbEntity
  8
DV1_Default
 62
     7
100
AcDbCircle
 10
64.2976501288
 20
651.5435464351
 30
0.0
 40
0.0999999763070847
100
AcDbArc
 50
269.9747367007
 51
0.4576218262
  0
ARC
  5
B3
330
97
100
AcDbEntity
  8
DV1_Default
 62
     7
100
AcDbCircle
 10
34.5023443826
 20
651.5442367583
 30
0.0
 40
0.0999999963990451
100
AcDbArc
 50
184.0509657437
 51
270.1701659792
  0
LINE
  5
B4
330
97
100
AcDbEntity
  8
DV1_Default
 62
     7
100
AcDbLine
 10
94.2
 20
494.1594488552
 30
0.0
 11
94.2
 21
541.7561011892
 31
0.0
  0
SPLINE
  5
B5
330
97
100
AcDbEntity
  8
DV1_Default
 62
     7
100
AcDbSpline
210
0.0
220
0.0
230
1.0
 70
     8
 71
     3
 72
    20
 73
    16
 74
     0
 42
0.000000001
 43
0.0000000001
 40
0.0
 40
0.0
 40
0.0
 40
0.0
 40
0.003444275664469
 40
0.003444275664469
 40
0.003444275664469
 40
0.0296055938072877
 40
0.0296055938072877
 40
0.0296055938072877
 40
0.1342508664373437
 40
0.1342508664373437
 40
0.1342508664373437
 40
0.5528319608695936
 40
0.5528319608695936
 40
0.5528319608695936
 40
1.0
 40
1.0
 40
1.0
 40
1.0
 10
104.1892968908719
 20
494.0611996233654
 30
0.0
 10
104.2331748920269
 20
494.0616077660238
 30
0.0
 10
104.2770528926298
 20
494.0620159391888
 30
0.0
 10
104.3209308926802
 20
494.0624241428697
 30
0.0
 10
104.6542103483903
 20
494.0655246921302
 30
0.0
 10
104.9874897722377
 20
494.0686270019469
 30
0.0
 10
105.3207691641118
 20
494.0717310764122
 30
0.0
 10
106.6538867319826
 20
494.0841473742771
 30
0.0
 10
107.98700378879
 20
494.0965919062066
 30
0.0
 10
109.3201203273815
 20
494.1090649366446
 30
0.0
 10
114.6525865066708
 20
494.1589570586301
 30
0.0
 10
119.9850444302475
 20
494.2093050714977
 30
0.0
 10
125.3174936184415
 20
494.2601265720118
 30
0.0
 10
131.0141217664797
 20
494.3144189206373
 30
0.0
 10
136.7107400120483
 20
494.3692516154263
 30
0.0
 10
142.4073477224398
 20
494.4246475653037
 30
0.0
  0
ARC
  5
B6
330
97
100
AcDbEntity
  8
DV1_Default
 62
     7
100
AcDbCircle
 10
137.2229830754
 20
528.7969814097
 30
0.0
 40
1.490987886990352
100
AcDbArc
 50
4.260350252
 51
7.1064860242
  0
ARC
  5
B7
330
97
100
AcDbEntity
  8
DV1_Default
 62
     7
100
AcDbCircle
 10
142.3725949794
 20
495.3974789637
 30
0.0
 40
1.021843194935839
100
AcDbArc
 50
328.2854043327
 51
7.1451101307
  0
ARC
  5
B8
330
97
100
AcDbEntity
  8
DV1_Default
 62
     7
100
AcDbCircle
 10
142.4361081895
 20
495.3866339594
 30
0.0
 40
0.9624162233557233
100
AcDbArc
 50
268.2875405671
 51
326.846777225
  0
SPLINE
  5
B9
330
97
100
AcDbEntity
  8
DV1_Default
 62
     7
100
AcDbSpline
210
0.0
220
0.0
230
1.0
 70
     8
 71
     3
 72
    11
 73
     7
 74
     0
 42
0.000000001
 43
0.0000000001
 40
0.0
 40
0.0
 40
0.0
 40
0.0
 40
0.1160705428819056
 40
0.1160705428819056
 40
0.1160705428819056
 40
1.0
 40
1.0
 40
1.0
 40
1.0
 10
141.9526847625543
 20
505.7704163227222
 30
0.0
 10
141.9184873716768
 20
506.0146283418003
 30
0.0
 10
141.8842889857946
 20
506.2588402894011
 30
0.0
 10
141.8500896032108
 20
506.5030521663543
 30
0.0
 10
141.5896459030001
 20
508.3628355911923
 30
0.0
 10
141.3291454881254
 20
510.2226126344468
 30
0.0
 10
141.0685851850169
 20
512.0823878081828
 30
0.0
  0
ELLIPSE
  5
BA
330
97
100
AcDbEntity
  8
DV1_Default
 62
     7
100
AcDbEllipse
 10
143.0884822572
 20
495.4955521615
 30
0.0
 11
-0.2971030614460496
 21
-0.04159051429566268
 31
0.0
210
0.0
220
0.0
230
1.0
 40
0.4768944755
 41
3.083911727642795
 42
3.141299723943049
  0
LINE
  5
BB
330
97
100
AcDbEntity
  8
DV1_Default
 62
     7
100
AcDbLine
 10
94.4017453071
 20
493.9594564706
 30
0.0
 11
104.1892968909
 21
494.0448711393
 31
0.0
  0
LINE
  5
BC
330
97
100
AcDbEntity
  8
DV1_Default
 62
     7
100
AcDbLine
 10
128.8929351826
 20
541.6550935198
 30
0.0
 11
94.4017453071
 21
541.9560935738
 31
0.0
  0
ARC
  5
BD
330
97
100
AcDbEntity
  8
DV1_Default
 62
     7
100
AcDbCircle
 10
94.4
 20
494.1594488552
 30
0.0
 40
0.1999999999999988
100
AcDbArc
 50
180.0
 51
270.5000000001
  0
ARC
  5
BE
330
97
100
AcDbEntity
  8
DV1_Default
 62
     7
100
AcDbCircle
 10
94.4
 20
541.7561011892
 30
0.0
 40
0.1999999999999938
100
AcDbArc
 50
89.4999999999
 51
180.0
  0
LINE
  5
BF
330
97
100
AcDbEntity
  8
DV1_Default
 62
     7
100
AcDbLine
 10
138.1476998719
 20
529.9822834704
 30
0.0
 11
136.4633550759
 21
530.5563190009
 31
0.0
  0
LINE
  5
C0
330
97
100
AcDbEntity
  8
DV1_Default
 62
     7
100
AcDbLine
 10
140.5036485488
 20
516.1143034782
 30
0.0
 11
138.70111462
 21
528.9812621736
 31
0.0
  0
LINE
  5
C1
330
97
100
AcDbEntity
  8
DV1_Default
 62
     7
100
AcDbLine
 10
141.0689775901
 20
512.078836901
 30
0.0
 11
140.5036485488
 21
516.1143034782
 31
0.0
  0
ARC
  5
C2
330
97
100
AcDbEntity
  8
DV1_Default
 62
     7
100
AcDbCircle
 10
136.8467009308
 20
528.7788715644
 30
0.0
 40
1.868104996994522
100
AcDbArc
 50
4.0000549828
 51
32.812541089
  0
ARC
  5
C3
330
97
100
AcDbEntity
  8
DV1_Default
 62
     7
100
AcDbCircle
 10
138.1710862923
 20
529.6351462417
 30
0.0
 40
0.2999999999999967
100
AcDbArc
 50
32.4004143456
 51
50.1461107451
  0
ARC
  5
C4
330
97
100
AcDbEntity
  8
DV1_Default
 62
     7
100
AcDbCircle
 10
138.058045207
 20
529.5721470897
 30
0.0
 40
0.4161766151630128
100
AcDbArc
 50
43.6577184592
 51
78.8639762623
  0
SPLINE
  5
C5
330
97
100
AcDbEntity
  8
DV1_Default
 62
     7
100
AcDbSpline
210
0.0
220
0.0
230
1.0
 70
     8
 71
     3
 72
     8
 73
     4
 74
     0
 42
0.000000001
 43
0.0000000001
 40
0.0
 40
0.0
 40
0.0
 40
0.0
 40
1.0
 40
1.0
 40
1.0
 40
1.0
 10
143.3855232224349
 20
495.5371362858756
 30
0.0
 10
142.77882602588
 20
499.8960609209292
 30
0.0
 10
142.3041792324986
 20
503.304884709261
 30
0.0
 10
141.9615828417442
 20
505.7636076549148
 30
0.0
  0
ELLIPSE
  5
C6
330
97
100
AcDbEntity
  8
DV1_Default
 62
     7
100
AcDbEllipse
 10
143.7107001202
 20
497.9139216735
 30
0.0
 11
-0.9999999960065148
 21
8.933503881786153E-5
 31
0.0
210
0.0
220
0.0
230
1.0
 40
0.8660453962
 41
3.013101021648964
 42
3.257285863031153
  0
SPLINE
  5
C7
330
97
100
AcDbEntity
  8
DV1_Default
 62
     7
100
AcDbSpline
210
0.0
220
0.0
230
1.0
 70
     8
 71
     3
 72
    11
 73
     7
 74
     0
 42
0.000000001
 43
0.0000000001
 40
0.0
 40
0.0
 40
0.0
 40
0.0
 40
0.1414005725686497
 40
0.3060159998768688
 40
0.5835833854256286
 40
1.0
 40
1.0
 40
1.0
 40
1.0
 10
144.7040240493717
 20
498.0138051379517
 30
0.0
 10
144.7033339560403
 20
497.8608659863054
 30
0.0
 10
144.7018404712778
 20
497.5298784481185
 30
0.0
 10
144.6852651728204
 20
496.9536562538462
 30
0.0
 10
144.637821274816
 20
496.2034799263589
 30
0.0
 10
144.5676786774611
 20
495.742995530009
 30
0.0
 10
144.5148699748723
 20
495.5263006850582
 30
0.0
  0
LINE
  5
C8
330
97
100
AcDbEntity
  8
DV1_Default
 62
     7
100
AcDbLine
 10
143.1633638422
 20
493.8508920836
 30
0.0
 11
108.5784028567
 21
494.0050668181
 31
0.0
  0
ARC
  5
C9
330
97
100
AcDbEntity
  8
DV1_Default
 62
     7
100
AcDbCircle
 10
108.5796355555
 20
494.3046448966
 30
0.0
 40
0.2996758309901347
100
AcDbArc
 50
223.0454667814
 51
269.7642318272
  0
SPLINE
  5
CA
330
97
100
AcDbEntity
  8
DV1_Default
 62
     7
100
AcDbSpline
210
0.0
220
0.0
230
1.0
 70
     8
 71
     3
 72
     8
 73
     4
 74
     0
 42
0.000000001
 43
0.0000000001
 40
0.0
 40
0.0
 40
0.0
 40
0.0
 40
1.0
 40
1.0
 40
1.0
 40
1.0
 10
122.6453425404561
 20
611.9692808660766
 30
0.0
 10
122.6453068955432
 20
611.9001174074099
 30
0.0
 10
122.6483360355342
 20
611.8308521238192
 30
0.0
 10
122.6544223162018
 20
611.7615567454687
 30
0.0
  0
ARC
  5
CB
330
97
100
AcDbEntity
  8
DV1_Default
 62
     7
100
AcDbCircle
 10
143.1613869379
 20
494.8214491951
 30
0.0
 40
0.9705667607842234
100
AcDbArc
 50
270.1167012113
 51
297.5960209924
  0
SPLINE
  5
CC
330
97
100
AcDbEntity
  8
DV1_Default
 62
     7
100
AcDbSpline
210
0.0
220
0.0
230
1.0
 70
     8
 71
     3
 72
     9
 73
     5
 74
     0
 42
0.000000001
 43
0.0000000001
 40
0.0
 40
0.0
 40
0.0
 40
0.0
 40
0.13347475400013
 40
1.0
 40
1.0
 40
1.0
 40
1.0
 10
144.1466476480906
 20
505.722914257352
 30
0.0
 10
144.1471810643057
 20
505.725143566587
 30
0.0
 10
144.1509701366374
 20
505.741820806022
 30
0.0
 10
144.1532182258326
 20
505.7583345884573
 30
0.0
 10
144.153748703441
 20
505.7721995896771
 30
0.0
  0
ARC
  5
CD
330
97
100
AcDbEntity
  8
DV1_Default
 62
     7
100
AcDbCircle
 10
72.1476176767
 20
496.7941261174
 30
0.0
 40
72.56665709971537
100
AcDbArc
 50
0.9630559507
 51
7.1427400457
  0
ARC
  5
CE
330
97
100
AcDbEntity
  8
DV1_Default
 62
     7
100
AcDbCircle
 10
125.4886348117
 20
612.0960193889
 30
0.0
 40
4.296511421946682
100
AcDbArc
 50
5.2029882378
 51
22.5064148441
  0
SPLINE
  5
CF
330
97
100
AcDbEntity
  8
DV1_Default
 62
     7
100
AcDbSpline
210
0.0
220
0.0
230
1.0
 70
     8
 71
     3
 72
    11
 73
     7
 74
     0
 42
0.000000001
 43
0.0000000001
 40
0.0
 40
0.0
 40
0.0
 40
0.0
 40
0.1410831789090544
 40
0.3449201736380967
 40
0.8110891368916062
 40
1.0
 40
1.0
 40
1.0
 40
1.0
 10
129.7674431902875
 20
612.4856464649125
 30
0.0
 10
130.4805583477572
 20
607.2038825639092
 30
0.0
 10
132.1306978254133
 20
594.9810857255939
 30
0.0
 10
136.0119093442628
 20
566.2164604514759
 30
0.0
 10
140.1191521115118
 20
535.7432085081349
 30
0.0
 10
143.2486418772818
 20
512.5155444421581
 30
0.0
 10
144.1511183838229
 20
505.8171859392644
 30
0.0
  0
LINE
  5
D0
330
97
100
AcDbEntity
  8
DV1_Default
 62
     7
100
AcDbLine
 10
144.1511193081
 20
505.817186512
 30
0.0
 11
144.1512160146
 21
505.8172900512
 31
0.0
  0
SPLINE
  5
D1
330
97
100
AcDbEntity
  8
DV1_Default
 62
     7
100
AcDbSpline
210
0.0
220
0.0
230
1.0
 70
     8
 71
     3
 72
    12
 73
     8
 74
     0
 42
0.000000001
 43
0.0000000001
 40
0.0
 40
0.0
 40
0.0
 40
0.0
 40
0.1378510429691568
 40
0.3590257215150869
 40
0.6335201466593952
 40
0.9607334464063019
 40
1.0
 40
1.0
 40
1.0
 40
1.0
 10
143.5258672278942
 20
493.9238570908125
 30
0.0
 10
143.6192620711479
 20
493.9646904465322
 30
0.0
 10
143.8242972675366
 20
494.0570017624382
 30
0.0
 10
144.080952506582
 20
494.3294890649744
 30
0.0
 10
144.3253841227381
 20
494.7713022563373
 30
0.0
 10
144.4523564137459
 20
495.2134948635518
 30
0.0
 10
144.5102374670165
 20
495.5022146948889
 30
0.0
 10
144.5162693944171
 20
495.5335469864455
 30
0.0
  0
ARC
  5
D2
330
97
100
AcDbEntity
  8
DV1_Default
 62
     7
100
AcDbCircle
 10
30480.7847369345
 20
3273.5564369672
 30
0.0
 40
30474.59917063392
100
AcDbArc
 50
185.0108742017
 51
185.1557175393
  0
ARC
  5
D3
330
97
100
AcDbEntity
  8
DV1_Default
 62
     7
100
AcDbCircle
 10
-37.1528902192
 20
486.1957657912
 30
0.0
 40
182.3472929178996
100
AcDbArc
 50
5.3833744105
 51
6.1661811314
  0
SPLINE
  5
D4
330
97
100
AcDbEntity
  8
DV1_Default
 62
     7
100
AcDbSpline
210
0.0
220
0.0
230
1.0
 70
     8
 71
     3
 72
    19
 73
    15
 74
     0
 42
0.000000001
 43
0.0000000001
 40
0.0
 40
0.0
 40
0.0
 40
0.0
 40
0.1223755421319933
 40
0.1888432380256982
 40
0.2417491261902803
 40
0.3015923203448314
 40
0.3698866373908308
 40
0.4291377331370827
 40
0.4842225012493739
 40
0.6095271556891796
 40
0.7141938938658061
 40
0.8038046340078645
 40
0.8738565746911027
 40
0.9999999999999999
 40
0.9999999999999999
 40
0.9999999999999999
 40
0.9999999999999999
 10
125.0716864051941
 20
615.2484276048766
 30
0.0
 10
124.873357714783
 20
615.1381356743319
 30
0.0
 10
124.6162866199223
 20
614.9931380157183
 30
0.0
 10
124.2931313530522
 20
614.7706935163025
 30
0.0
 10
124.0702836929623
 20
614.601886470655
 30
0.0
 10
123.8583081573077
 20
614.4245667967162
 30
0.0
 10
123.6555743031039
 20
614.2339716346318
 30
0.0
 10
123.474984275183
 20
614.0418395692345
 30
0.0
 10
123.257501500349
 20
613.7811421309631
 30
0.0
 10
123.0383719301682
 20
613.4567803846796
 30
0.0
 10
122.8523908233466
 20
613.0757723372585
 30
0.0
 10
122.74253343226
 20
612.7512306025402
 30
0.0
 10
122.661170975424
 20
612.3901610113874
 30
0.0
 10
122.6502464711714
 20
612.1619393779752
 30
0.0
 10
122.6435687993623
 20
611.9867295156022
 30
0.0
  0
ARC
  5
D5
330
97
100
AcDbEntity
  8
DV1_Default
 62
     7
100
AcDbCircle
 10
126.6289836484
 20
612.6490310372
 30
0.0
 40
3.032200577120052
100
AcDbArc
 50
21.1007901848
 51
121.8909888007
  0
LINE
  5
D6
330
97
100
AcDbEntity
  8
DV1_Default
 62
     7
100
AcDbLine
 10
93.9
 20
494.957777948
 30
0.0
 11
94.2
 21
494.957777948
 31
0.0
  0
LINE
  5
D7
330
97
100
AcDbEntity
  8
DV1_Default
 62
     7
100
AcDbLine
 10
94.2
 20
540.957777948
 30
0.0
 11
93.9
 21
540.957777948
 31
0.0
  0
LINE
  5
D8
330
97
100
AcDbEntity
  8
DV1_Default
 62
     7
100
AcDbLine
 10
63.8654761415
 20
650.9578622825
 30
0.0
 11
34.9
 21
650.9578622825
 31
0.0
  0
LINE
  5
D9
330
97
100
AcDbEntity
  8
DV1_Default
 62
     7
100
AcDbLine
 10
63.8654761415
 20
650.9578622825
 30
0.0
 11
63.8654761415
 21
651.443519316
 31
0.0
  0
LINE
  5
DA
330
97
100
AcDbEntity
  8
DV1_Default
 62
     7
100
AcDbLine
 10
34.9
 20
651.4441925363
 30
0.0
 11
34.9
 21
650.9578622825
 31
0.0
  0
LINE
  5
DB
330
97
100
AcDbEntity
  8
DV1_Default
 62
     7
100
AcDbLine
 10
76.2
 20
450.957777948
 30
0.0
 11
22.6
 21
450.957777948
 31
0.0
  0
ARC
  5
DC
330
97
100
AcDbEntity
  8
DV1_Default
 62
     7
100
AcDbCircle
 10
49.7664915988
 20
658.8975357138
 30
0.0
 40
6.769553094180183
100
AcDbArc
 50
82.1973066848
 51
92.8674675376
  0
SPLINE
  5
DD
330
97
100
AcDbEntity
  8
DV1_Default
 62
     7
100
AcDbSpline
210
0.0
220
0.0
230
1.0
 70
     8
 71
     3
 72
    12
 73
     8
 74
     0
 42
0.000000001
 43
0.0000000001
 40
0.0
 40
0.0
 40
0.0
 40
0.0
 40
0.0004252413247924
 40
0.3294925809308246
 40
0.6592362339261466
 40
0.8025135366953119
 40
0.9999999999999999
 40
0.9999999999999999
 40
0.9999999999999999
 40
0.9999999999999999
 10
67.82985539085188
 20
665.6458765265407
 30
0.0
 10
67.82985744182163
 20
665.6458896753103
 30
0.0
 10
67.83127113983761
 20
665.6560722405311
 30
0.0
 10
67.56194732655
 20
665.6677761906095
 30
0.0
 10
66.7709198280785
 20
665.6534777733074
 30
0.0
 10
66.11555704410016
 20
665.6294142787114
 30
0.0
 10
65.84988756816703
 20
665.6150602021728
 30
0.0
 10
65.69594244953366
 20
665.606741430954
 30
0.0
  0
SPLINE
  5
DE
330
97
100
AcDbEntity
  8
DV1_Default
 62
     7
100
AcDbSpline
210
0.0
220
0.0
230
1.0
 70
     8
 71
     3
 72
    11
 73
     7
 74
     0
 42
0.000000001
 43
0.0000000001
 40
0.0
 40
0.0
 40
0.0
 40
0.0
 40
0.3125006568722714
 40
0.5851499038818868
 40
0.8178815999756979
 40
1.0
 40
1.0
 40
1.0
 40
1.0
 10
62.16040544234523
 20
665.4091221195357
 30
0.0
 10
62.09312280347275
 20
665.4055755434665
 30
0.0
 10
61.96717166001713
 20
665.398934665758
 30
0.0
 10
61.8567688730507
 20
665.3902184851621
 30
0.0
 10
61.80403927034507
 20
665.3833703656256
 30
0.0
 10
61.79407452648577
 20
665.3797105387713
 30
0.0
 10
61.79428926615973
 20
665.3782168168226
 30
0.0
  0
LINE
  5
DF
330
97
100
AcDbEntity
  8
DV1_Default
 62
     7
100
AcDbLine
 10
65.6959213001
 20
665.606741431
 30
0.0
 11
62.1603873017
 21
665.4091221195
 31
0.0
  0
SPLINE
  5
E0
330
97
100
AcDbEntity
  8
DV1_Default
 62
     7
100
AcDbSpline
210
0.0
220
0.0
230
1.0
 70
     8
 71
     3
 72
    11
 73
     7
 74
     0
 42
0.000000001
 43
0.0000000001
 40
0.0
 40
0.0
 40
0.0
 40
0.0
 40
0.1956265987788656
 40
0.5911590665575632
 40
0.7632296391575369
 40
1.0
 40
1.0
 40
1.0
 40
1.0
 10
73.0806403219855
 20
665.6579844470513
 30
0.0
 10
73.08081655704807
 20
665.660699241168
 30
0.0
 10
72.99098048953194
 20
665.6652016383831
 30
0.0
 10
72.50746054406513
 20
665.6538427687236
 30
0.0
 10
71.86500874030638
 20
665.6298123880033
 30
0.0
 10
71.54194514827672
 20
665.6154519257306
 30
0.0
 10
71.35486305663105
 20
665.6071354105384
 30
0.0
  0
LINE
  5
E1
330
97
100
AcDbEntity
  8
DV1_Default
 62
     7
100
AcDbLine
 10
71.3548506655
 20
665.6071354105
 30
0.0
 11
67.8176602827
 21
665.4557671646
 31
0.0
  0
SPLINE
  5
E2
330
97
100
AcDbEntity
  8
DV1_Default
 62
     7
100
AcDbSpline
210
0.0
220
0.0
230
1.0
 70
     8
 71
     3
 72
    10
 73
     6
 74
     0
 42
0.000000001
 43
0.0000000001
 40
0.0
 40
0.0
 40
0.0
 40
0.0
 40
0.0164171162867563
 40
0.4446915180901361
 40
1.0
 40
1.0
 40
1.0
 40
1.0
 10
74.92485683050671
 20
665.6616542849341
 30
0.0
 10
74.92516127366233
 20
665.6616764759458
 30
0.0
 10
74.92958031171266
 20
665.6620571560521
 30
0.0
 10
74.70412995040576
 20
665.6491316279792
 30
0.0
 10
74.04678899880278
 20
665.6220481665393
 30
0.0
 10
73.67563384961886
 20
665.6067562927946
 30
0.0
  0
LINE
  5
E3
330
97
100
AcDbEntity
  8
DV1_Default
 62
     7
100
AcDbLine
 10
73.6753496999
 20
665.6067445856
 30
0.0
 11
73.09255921
 21
665.5837151874
 31
0.0
  0
SPLINE
  5
E4
330
97
100
AcDbEntity
  8
DV1_Default
 62
     7
100
AcDbSpline
210
0.0
220
0.0
230
1.0
 70
     8
 71
     3
 72
    12
 73
     8
 74
     0
 42
0.000000001
 43
0.0000000001
 40
0.0
 40
0.0
 40
0.0
 40
0.0
 40
0.1416246561744404
 40
0.4242507839697829
 40
0.7074280165940566
 40
0.8303377426109646
 40
1.0
 40
1.0
 40
1.0
 40
1.0
 10
59.96195117256973
 20
665.6270243018635
 30
0.0
 10
59.96174718376282
 20
665.6336664734043
 30
0.0
 10
59.86976120562812
 20
665.6521345629982
 30
0.0
 10
59.24815067445916
 20
665.6666772996742
 30
0.0
 10
58.39341668589229
 20
665.6523326200365
 30
0.0
 10
57.82523865841396
 20
665.628267640377
 30
0.0
 10
57.65731387398979
 20
665.6139293773566
 30
0.0
 10
57.55997126307535
 20
665.6056146301867
 30
0.0
  0
SPLINE
  5
E5
330
97
100
AcDbEntity
  8
DV1_Default
 62
     7
100
AcDbSpline
210
0.0
220
0.0
230
1.0
 70
     8
 71
     3
 72
     9
 73
     5
 74
     0
 42
0.000000001
 43
0.0000000001
 40
0.0
 40
0.0
 40
0.0
 40
0.0
 40
0.7194441608085427
 40
0.9999999999999999
 40
0.9999999999999999
 40
0.9999999999999999
 40
0.9999999999999999
 10
55.64655539830288
 20
665.4082093017217
 30
0.0
 10
55.61402613585466
 20
665.4046677042791
 30
0.0
 10
55.56886879995371
 20
665.3997450186345
 30
0.0
 10
55.55426449902286
 20
665.3950472839732
 30
0.0
 10
55.55229139568812
 20
665.3937483018686
 30
0.0
  0
LINE
  5
E6
330
97
100
AcDbEntity
  8
DV1_Default
 62
     7
100
AcDbLine
 10
57.5599344269
 20
665.6056146302
 30
0.0
 11
55.6465143175
 21
665.4082093017
 31
0.0
  0
LINE
  5
E7
330
97
100
AcDbEntity
  8
DV1_Default
 62
     7
100
AcDbLine
 10
48.1854908618
 20
665.6023350135
 30
0.0
 11
48.1854908617
 21
665.4056991114
 31
0.0
  0
ARC
  5
E8
330
97
100
AcDbEntity
  8
DV1_Default
 62
     7
100
AcDbCircle
 10
49.1394237395
 20
658.284719412
 30
0.0
 40
7.379531628855884
100
AcDbArc
 50
87.76013154
 51
97.427264562
  0
SPLINE
  5
E9
330
97
100
AcDbEntity
  8
DV1_Default
 62
     7
100
AcDbSpline
210
0.0
220
0.0
230
1.0
 70
     8
 71
     3
 72
    13
 73
     9
 74
     0
 42
0.000000001
 43
0.0000000001
 40
0.0
 40
0.0
 40
0.0
 40
0.0
 40
0.156133883470628
 40
0.292232075205488
 40
0.4082620141486561
 40
0.5041966037931462
 40
0.9924669489852687
 40
1.0
 40
1.0
 40
1.0
 40
1.0
 10
25.17535482507094
 20
665.6028763391078
 30
0.0
 10
25.07381769298536
 20
665.6072881566568
 30
0.0
 10
24.88377300697928
 20
665.6155456506043
 30
0.0
 10
24.63311652405242
 20
665.6263967468686
 30
0.0
 10
24.43911080911165
 20
665.6350599685203
 30
0.0
 10
24.09388350861023
 20
665.6504921411588
 30
0.0
 10
23.92467225745289
 20
665.6577166515711
 30
0.0
 10
23.9253526856153
 20
665.6576853111417
 30
0.0
 10
23.92539571945682
 20
665.6576834369788
 30
0.0
  0
LINE
  5
EA
330
97
100
AcDbEntity
  8
DV1_Default
 62
     7
100
AcDbLine
 10
25.781556633
 20
665.5790175679
 30
0.0
 11
25.1753548251
 21
665.6028763391
 31
0.0
  0
SPLINE
  5
EB
330
97
100
AcDbEntity
  8
DV1_Default
 62
     7
100
AcDbSpline
210
0.0
220
0.0
230
1.0
 70
     8
 71
     3
 72
    13
 73
     9
 74
     0
 42
0.000000001
 43
0.0000000001
 40
0.0
 40
0.0
 40
0.0
 40
0.0
 40
0.1258980936374454
 40
0.2356207505837073
 40
0.3291416359102287
 40
0.4064388372089625
 40
0.8000404866554399
 40
1.0
 40
1.0
 40
1.0
 40
1.0
 10
27.50349919335164
 20
665.602815844588
 30
0.0
 10
27.40695022685921
 20
665.6072288508923
 30
0.0
 10
27.22623791146052
 20
665.6154878787116
 30
0.0
 10
26.95832360990463
 20
665.626341284654
 30
0.0
 10
26.73414174418016
 20
665.6350053490861
 30
0.0
 10
26.30183066303543
 20
665.6504417953596
 30
0.0
 10
25.86882122094884
 20
665.6606131433135
 30
0.0
 10
25.77770195434269
 20
665.6561910800385
 30
0.0
 10
25.77826019448485
 20
665.6534142840914
 30
0.0
  0
LINE
  5
EC
330
97
100
AcDbEntity
  8
DV1_Default
 62
     7
100
AcDbLine
 10
31.0382958528
 20
665.4522398998
 30
0.0
 11
27.503509337
 21
665.6028158446
 31
0.0
  0
SPLINE
  5
ED
330
97
100
AcDbEntity
  8
DV1_Default
 62
     7
100
AcDbSpline
210
0.0
220
0.0
230
1.0
 70
     8
 71
     3
 72
    14
 73
    10
 74
     0
 42
0.000000001
 43
0.0000000001
 40
0.0
 40
0.0
 40
0.0
 40
0.0
 40
0.1051058550576474
 40
0.1966960024188018
 40
0.2747484097127013
 40
0.3392447468605866
 40
0.6677714904461656
 40
0.9969715272831922
 40
1.0
 40
1.0
 40
1.0
 40
1.0
 10
33.16904736318413
 20
665.6027162063782
 30
0.0
 10
33.09219720832883
 20
665.6071298654757
 30
0.0
 10
32.94834405338583
 20
665.6153896251251
 30
0.0
 10
32.70395079125841
 20
665.6262437164257
 30
0.0
 10
32.4837022364778
 20
665.6349071584034
 30
0.0
 10
32.03010855235189
 20
665.6503427906716
 30
0.0
 10
31.30508203501199
 20
665.6634575240341
 30
0.0
 10
31.04075936614727
 20
665.6516825733055
 30
0.0
 10
31.03510264266811
 20
665.6415745208586
 30
0.0
 10
31.03506168495325
 20
665.6414820353872
 30
0.0
  0
LINE
  5
EE
330
97
100
AcDbEntity
  8
DV1_Default
 62
     7
100
AcDbLine
 10
36.7044343974
 20
665.4059649001
 30
0.0
 11
33.1690661066
 21
665.6027162064
 31
0.0
  0
SPLINE
  5
EF
330
97
100
AcDbEntity
  8
DV1_Default
 62
     7
100
AcDbSpline
210
0.0
220
0.0
230
1.0
 70
     8
 71
     3
 72
     9
 73
     5
 74
     0
 42
0.000000001
 43
0.0000000001
 40
0.0
 40
0.0
 40
0.0
 40
0.0
 40
0.9997551247199038
 40
1.0
 40
1.0
 40
1.0
 40
1.0
 10
37.07064826350825
 20
665.3751620604946
 30
0.0
 10
37.06855169332317
 20
665.38328723523
 30
0.0
 10
36.92998560594862
 20
665.3948561330667
 30
0.0
 10
36.70448960045651
 20
665.4059621804973
 30
0.0
 10
36.70443523351569
 20
665.4059649000939
 30
0.0
  0
SPLINE
  5
F0
330
97
100
AcDbEntity
  8
DV1_Default
 62
     7
100
AcDbSpline
210
0.0
220
0.0
230
1.0
 70
     8
 71
     3
 72
    15
 73
    11
 74
     0
 42
0.000000001
 43
0.0000000001
 40
0.0
 40
0.0
 40
0.0
 40
0.0
 40
0.0898774597515955
 40
0.1681986193777888
 40
0.2349446433129749
 40
0.2900998605973312
 40
0.5710384694395064
 40
0.8525501719811248
 40
0.9749994148366378
 40
0.9999999999999999
 40
0.9999999999999999
 40
0.9999999999999999
 40
0.9999999999999999
 10
41.30947098636864
 20
665.6025663331492
 30
0.0
 10
41.26404247756657
 20
665.6069792273123
 30
0.0
 10
41.17898073798323
 20
665.6152376127602
 30
0.0
 10
40.99534509967901
 20
665.6260900627806
 30
0.0
 10
40.81254027925134
 20
665.6347524654128
 30
0.0
 10
40.40668638356622
 20
665.6501867407901
 30
0.0
 10
39.62550653788821
 20
665.6633045264322
 30
0.0
 10
39.0261551582817
 20
665.6490430554096
 30
0.0
 10
38.90525255361823
 20
665.6311178166422
 30
0.0
 10
38.90672116763828
 20
665.6244071453165
 30
0.0
 10
38.9080236267369
 20
665.6232558867632
 30
0.0
  0
LINE
  5
F1
330
97
100
AcDbEntity
  8
DV1_Default
 62
     7
100
AcDbLine
 10
43.2228234619
 20
665.4058455772
 30
0.0
 11
41.3094954743
 21
665.6025663331
 31
0.0
  0
SPLINE
  5
F2
330
97
100
AcDbEntity
  8
DV1_Default
 62
     7
100
AcDbSpline
210
0.0
220
0.0
230
1.0
 70
     8
 71
     3
 72
     9
 73
     5
 74
     0
 42
0.000000001
 43
0.0000000001
 40
0.0
 40
0.0
 40
0.0
 40
0.0
 40
0.9995164431473179
 40
1.0
 40
1.0
 40
1.0
 40
1.0
 10
43.31493369339934
 20
665.3892084547299
 30
0.0
 10
43.31523094257683
 20
665.3945362585785
 30
0.0
 10
43.28435018641759
 20
665.400248324507
 30
0.0
 10
43.2228531791556
 20
665.4058428719289
 30
0.0
 10
43.22282454728114
 20
665.4058455772107
 30
0.0
  0
LINE
  5
F3
330
97
100
AcDbEntity
  8
DV1_Default
 62
     7
100
AcDbLine
 10
74.9248568305
 20
665.6616542849
 30
0.0
 11
79.046171597
 21
665.8622235548
 31
0.0
  0
LINE
  5
F4
330
97
100
AcDbEntity
  8
DV1_Default
 62
     7
100
AcDbLine
 10
59.9657085316
 20
665.1752252451
 30
0.0
 11
61.7974408343
 21
665.2240977812
 31
0.0
  0
LINE
  5
F5
330
97
100
AcDbEntity
  8
DV1_Default
 62
     7
100
AcDbLine
 10
37.0716904697
 20
665.2229352216
 30
0.0
 11
38.9055620618
 21
665.1731771126
 31
0.0
  0
LINE
  5
F6
330
97
100
AcDbEntity
  8
DV1_Default
 62
     7
100
AcDbLine
 10
19.8061999478
 20
665.8640610193
 30
0.0
 11
23.9253957195
 21
665.657683437
 31
0.0
  0
ARC
  5
F7
330
97
100
AcDbEntity
  8
DV1_Default
 62
     7
100
AcDbCircle
 10
79.0456508807
 20
665.9622222661
 30
0.0
 40
0.10000006694086
100
AcDbArc
 50
270.2983495839
 51
0.4955681909
  0
LINE
  5
F8
330
97
100
AcDbEntity
  8
DV1_Default
 62
     7
100
AcDbLine
 10
79.145625267
 20
665.959956109
 30
0.0
 11
79.145625267
 21
666.0286751078
 31
0.0
  0
LINE
  5
F9
330
97
100
AcDbEntity
  8
DV1_Default
 62
     7
100
AcDbLine
 10
19.7253564555
 20
666.0678607691
 30
0.0
 11
19.7253564555
 21
665.9607700968
 31
0.0
  0
ARC
  5
FA
330
97
100
AcDbEntity
  8
DV1_Default
 62
     7
100
AcDbCircle
 10
19.8253460901
 20
665.9622110505
 30
0.0
 40
0.1000000168954755
100
AcDbArc
 50
179.520593258
 51
258.9619184034
  0
SPLINE
  5
FB
330
97
100
AcDbEntity
  8
DV1_Default
 62
     7
100
AcDbSpline
210
0.0
220
0.0
230
1.0
 70
     8
 71
     3
 72
    20
 73
    16
 74
     0
 42
0.000000001
 43
0.0000000001
 40
0.0
 40
0.0
 40
0.0
 40
0.0
 40
0.2499283926554966
 40
0.2499283926554966
 40
0.3748925889832449
 40
0.3748925889832449
 40
0.4998567853109931
 40
0.4998567853109931
 40
0.6248209816387414
 40
0.6248209816387414
 40
0.7497851779664909
 40
0.7497851779664909
 40
0.9997135706219901
 40
0.9997135706219901
 40
1.0
 40
1.0
 40
1.0
 40
1.0
 10
49.42534694750914
 20
666.8670969665878
 30
0.0
 10
45.02011033099256
 20
666.8679942331479
 30
0.0
 10
40.59118302601338
 20
666.8667173675105
 30
0.0
 10
34.47038402042831
 20
666.8628230641308
 30
0.0
 10
32.50392305281001
 20
666.8611160713497
 30
0.0
 10
28.840659359257
 20
666.8569592409076
 30
0.0
 10
27.14561334610967
 20
666.854532313746
 30
0.0
 10
24.02958941404
 20
666.8487837573953
 30
0.0
 10
22.61119282147488
 20
666.8454729295714
 30
0.0
 10
20.1656874134854
 20
666.8382385092485
 30
0.0
 10
19.12623648513057
 20
666.8342168360748
 30
0.0
 10
16.58290035795819
 20
666.8209402492964
 30
0.0
 10
15.70561735214437
 20
666.810887301187
 30
0.0
 10
15.70163787959789
 20
666.7996099969865
 30
0.0
 10
15.70163446534339
 20
666.7995970869866
 30
0.0
 10
15.70163219225511
 20
666.7995841764978
 30
0.0
  0
SPLINE
  5
FC
330
97
100
AcDbEntity
  8
DV1_Default
 62
     7
100
AcDbSpline
210
0.0
220
0.0
230
1.0
 70
     8
 71
     3
 72
    20
 73
    16
 74
     0
 42
0.000000001
 43
0.0000000001
 40
0.0
 40
0.0
 40
0.0
 40
0.0
 40
0.0002429603702324
 40
0.0002429603702324
 40
0.2501822202776749
 40
0.2501822202776749
 40
0.3751518502313956
 40
0.3751518502313956
 40
0.5001214801851163
 40
0.5001214801851163
 40
0.625091110138837
 40
0.625091110138837
 40
0.7500607400925574
 40
0.7500607400925574
 40
1.0
 40
1.0
 40
1.0
 40
1.0
 10
83.14907639433525
 20
666.7995900910772
 30
0.0
 10
83.1490741714204
 20
666.7996010416477
 30
0.0
 10
83.14907112749646
 20
666.7996119918663
 30
0.0
 10
83.1450913014475
 20
666.8108873376776
 30
0.0
 10
82.26780698439828
 20
666.8209402845907
 30
0.0
 10
79.72446868279471
 20
666.8342168693292
 30
0.0
 10
78.6850170639004
 20
666.8382385409624
 30
0.0
 10
76.23951002156277
 20
666.8454729593154
 30
0.0
 10
74.82111262607889
 20
666.848783785849
 30
0.0
 10
71.70508722711789
 20
666.8545323386606
 30
0.0
 10
70.01004045878156
 20
666.856959263964
 30
0.0
 10
66.34677515572707
 20
666.8611160908835
 30
0.0
 10
64.38031351075787
 20
666.8628230812767
 30
0.0
 10
58.25951256295286
 20
666.8667173780307
 30
0.0
 10
53.83058411535721
 20
666.8679942385014
 30
0.0
 10
49.42534694750914
 20
666.8670969665878
 30
0.0
  0
ARC
  5
FD
330
97
100
AcDbEntity
  8
DV1_Default
 62
     7
100
AcDbCircle
 10
-538.7933630122
 20
812.6407774847
 30
0.0
 40
573.3479459248745
100
AcDbArc
 50
345.2640292048
 51
356.3312479339
  0
ARC
  5
FE
330
97
100
AcDbEntity
  8
DV1_Default
 62
     7
100
AcDbCircle
 10
638.6708300271
 20
812.8923272122
 30
0.0
 40
574.4058797608544
100
AcDbArc
 50
183.6464840743
 51
194.73418452
  0
ARC
  5
FF
330
97
100
AcDbEntity
  8
DV1_Default
 62
     7
100
AcDbCircle
 10
82.6627403847
 20
666.6817721635
 30
0.0
 40
0.5003984234300257
100
AcDbArc
 50
272.8462470641
 51
14.2310826337
  0
ARC
  5
100
330
97
100
AcDbEntity
  8
DV1_Default
 62
     7
100
AcDbCircle
 10
16.1879736636
 20
666.6817754706
 30
0.0
 40
0.5004018151995462
100
AcDbArc
 50
165.7691794599
 51
267.1929420097
  0
LINE
  5
101
330
97
100
AcDbEntity
  8
DV1_Default
 62
     7
100
AcDbLine
 10
16.1672117766
 20
666.182152905
 30
0.0
 11
19.7253564555
 21
666.0678607691
 31
0.0
  0
LINE
  5
102
330
97
100
AcDbEntity
  8
DV1_Default
 62
     7
100
AcDbLine
 10
55.6424604955
 20
664.5915628526
 30
0.0
 11
50.5932406845
 21
664.6091281361
 31
0.0
  0
LINE
  5
103
330
97
100
AcDbEntity
  8
DV1_Default
 62
     7
100
AcDbLine
 10
48.2911807311
 20
664.586999624
 30
0.0
 11
43.1722525208
 21
664.5905530993
 31
0.0
  0
ARC
  5
104
330
97
100
AcDbEntity
  8
DV1_Default
 62
     7
100
AcDbCircle
 10
49.253675444
 20
670.0746557863
 30
0.0
 40
5.707175169761213
100
AcDbArc
 50
264.282196782
 51
271.827050714
  0
ARC
  5
105
330
97
100
AcDbEntity
  8
DV1_Default
 62
     7
100
AcDbCircle
 10
49.6178002979
 20
670.0551014975
 30
0.0
 40
5.687637423257408
100
AcDbArc
 50
268.1646032542
 51
275.7356090975
  0
SPLINE
  5
106
330
97
100
AcDbEntity
  8
DV1_Default
 62
     7
100
AcDbSpline
210
0.0
220
0.0
230
1.0
 70
    12
 71
     3
 72
     8
 73
     4
 74
     0
 42
0.000000001
 43
0.0000000001
 40
0.0
 40
0.0
 40
0.0
 40
0.0
 40
1.0
 40
1.0
 40
1.0
 40
1.0
 10
48.18580556841244
 20
664.895581716414
 30
0.0
 41
1.171371357642207
 10
48.18570733499485
 20
664.7180658306901
 30
0.0
 41
1.021198813649037
 10
48.27250066413733
 20
664.5576552233584
 30
0.0
 41
0.9697233037444991
 10
48.43411014116042
 20
664.4636520928591
 30
0.0
 41
1.016944827928593
  0
ARC
  5
107
330
97
100
AcDbEntity
  8
DV1_Default
 62
     7
100
AcDbCircle
 10
50.1855989301
 20
664.895807735
 30
0.0
 40
0.4998697389901683
100
AcDbArc
 50
324.9094371843
 51
359.9772777666
  0
ELLIPSE
  5
108
330
97
100
AcDbEntity
  8
DV1_Default
 62
     7
100
AcDbEllipse
 10
50.1856352641
 20
664.8959911156
 30
0.0
 11
0.5000000001129067
 21
-3.128805547980562E-8
 31
0.0
210
0.0
220
0.0
230
1.0
 40
0.9994384515
 41
4.713694661982348
 42
6.283185307179586
  0
LINE
  5
109
330
97
100
AcDbEntity
  8
DV1_Default
 62
     7
100
AcDbLine
 10
50.6856352642
 20
664.8959909352
 30
0.0
 11
50.6856353282
 21
665.0854259238
 31
0.0
  0
LINE
  5
10A
330
97
100
AcDbEntity
  8
DV1_Default
 62
     7
100
AcDbLine
 10
48.1856352809
 20
665.0854260978
 30
0.0
 11
48.185635313
 21
664.8959911193
 31
0.0
  0
ELLIPSE
  5
10B
330
97
100
AcDbEntity
  8
DV1_Default
 62
     7
100
AcDbEllipse
 10
48.6856353132
 20
664.8959911741
 30
0.0
 11
-0.5000000002236484
 21
1.283709250010645E-8
 31
0.0
210
0.0
220
0.0
230
1.0
 40
0.9994384547
 41
0.0000003511225185
 42
1.569490851799372
  0
LINE
  5
10C
330
97
100
AcDbEntity
  8
DV1_Default
 62
     7
100
AcDbLine
 10
50.6856321302
 20
665.624518017
 30
0.0
 11
50.6856295365
 21
665.0854259239
 31
0.0
  0
LINE
  5
10D
330
97
100
AcDbEntity
  8
DV1_Default
 62
     7
100
AcDbLine
 10
48.1856426567
 20
665.0854568368
 30
0.0
 11
48.1856394788
 21
665.6023864352
 31
0.0
  0
ARC
  5
10E
330
97
100
AcDbEntity
  8
DV1_Default
 62
     7
100
AcDbCircle
 10
48.7710963405
 20
748.8895507561
 30
0.0
 40
84.81689214363855
100
AcDbArc
 50
263.6934598664
 51
264.9933794489
  0
SPLINE
  5
10F
330
97
100
AcDbEntity
  8
DV1_Default
 62
     7
100
AcDbSpline
210
0.0
220
0.0
230
1.0
 70
     8
 71
     3
 72
    14
 73
    10
 74
     0
 42
0.000000001
 43
0.0000000001
 40
0.0
 40
0.0
 40
0.0
 40
0.0
 40
0.1467903490613051
 40
0.1467903490613051
 40
0.4311935660408701
 40
0.4311935660408701
 40
0.715596783020435
 40
0.715596783020435
 40
0.9999999999999999
 40
0.9999999999999999
 40
0.9999999999999999
 40
0.9999999999999999
 10
42.81240178904981
 20
664.3865226888963
 30
0.0
 10
42.81240178905112
 20
664.3833158058694
 30
0.0
 10
42.79276138820333
 20
664.3803457775682
 30
0.0
 10
42.67766845480548
 20
664.3731387871483
 30
0.0
 10
42.52930274533689
 20
664.3703805802481
 30
0.0
 10
42.16987389564002
 20
664.3703831409588
 30
0.0
 10
41.96093622404559
 20
664.3731438934268
 30
0.0
 10
41.60038729819998
 20
664.3826546024181
 30
0.0
 10
41.45090813610975
 20
664.3893483177308
 30
0.0
 10
41.37366632002465
 20
664.3958757484841
 30
0.0
  0
ARC
  5
110
330
97
100
AcDbEntity
  8
DV1_Default
 62
     7
100
AcDbCircle
 10
48.8528284202
 20
950.6772702863
 30
0.0
 40
286.602515675889
100
AcDbArc
 50
266.5774554826
 51
267.2858286806
  0
LINE
  5
111
330
97
100
AcDbEntity
  8
DV1_Default
 62
     7
100
AcDbLine
 10
35.2896123299
 20
664.3958667199
 30
0.0
 11
35.2811958348
 21
664.3962629323
 31
0.0
  0
SPLINE
  5
112
330
97
100
AcDbEntity
  8
DV1_Default
 62
     7
100
AcDbSpline
210
0.0
220
0.0
230
1.0
 70
     8
 71
     3
 72
    10
 73
     6
 74
     0
 42
0.000000001
 43
0.0000000001
 40
0.0
 40
0.0
 40
0.0
 40
0.0
 40
0.3882975388518961
 40
0.3882975388518961
 40
0.9999999999999999
 40
0.9999999999999999
 40
0.9999999999999999
 40
0.9999999999999999
 10
36.17215765937612
 20
664.3714502145748
 30
0.0
 10
36.06379501355224
 20
664.3726657440916
 30
0.0
 10
35.94106723580916
 20
664.3748806356291
 30
0.0
 10
35.62317310874815
 20
664.3826546022179
 30
0.0
 10
35.42925496909754
 20
664.3893483175293
 30
0.0
 10
35.2896186654095
 20
664.3958757482812
 30
0.0
  0
ARC
  5
113
330
97
100
AcDbEntity
  8
DV1_Default
 62
     7
100
AcDbCircle
 10
49.0565641652
 20
1152.4602342023
 30
0.0
 40
488.3851158435061
100
AcDbArc
 50
267.3792432572
 51
267.9220579686
  0
LINE
  5
114
330
97
100
AcDbEntity
  8
DV1_Default
 62
     7
100
AcDbLine
 10
31.3591702424
 20
664.3958667198
 30
0.0
 11
31.3482192346
 21
664.3962629326
 31
0.0
  0
SPLINE
  5
115
330
97
100
AcDbEntity
  8
DV1_Default
 62
     7
100
AcDbSpline
210
0.0
220
0.0
230
1.0
 70
     8
 71
     3
 72
    10
 73
     6
 74
     0
 42
0.000000001
 43
0.0000000001
 40
0.0
 40
0.0
 40
0.0
 40
0.0
 40
0.3491555254131908
 40
0.3491555254131908
 40
1.0
 40
1.0
 40
1.0
 40
1.0
 10
32.18210293001597
 20
664.3720861229475
 30
0.0
 10
32.11072149909337
 20
664.3733710221933
 30
0.0
 10
32.02386144500799
 20
664.3753480528385
 30
0.0
 10
31.74878109217052
 20
664.3826544640281
 30
0.0
 10
31.53994624556985
 20
664.389348184996
 30
0.0
 10
31.35917380887547
 20
664.3958757481489
 30
0.0
  0
SPLINE
  5
116
330
97
100
AcDbEntity
  8
DV1_Default
 62
     7
100
AcDbSpline
210
0.0
220
0.0
230
1.0
 70
     8
 71
     3
 72
     8
 73
     4
 74
     0
 42
0.000000001
 43
0.0000000001
 40
0.0
 40
0.0
 40
0.0
 40
0.0
 40
1.0
 40
1.0
 40
1.0
 40
1.0
 10
26.72521055894828
 20
664.5859347935519
 30
0.0
 10
26.63338322173686
 20
664.5900578964279
 30
0.0
 10
26.54975922636411
 20
664.5941451436273
 30
0.0
 10
26.47980655659353
 20
664.597915543816
 30
0.0
  0
LINE
  5
117
330
97
100
AcDbEntity
  8
DV1_Default
 62
     7
100
AcDbLine
 10
29.1840872048
 20
664.4296341087
 30
0.0
 11
30.1665702277
 21
664.3958712656
 31
0.0
  0
LINE
  5
118
330
97
100
AcDbEntity
  8
DV1_Default
 62
     7
100
AcDbLine
 10
30.1688884485
 20
664.3962629099
 30
0.0
 11
30.1807065681
 21
664.3958667141
 31
0.0
  0
ARC
  5
119
330
97
100
AcDbEntity
  8
DV1_Default
 62
     7
100
AcDbCircle
 10
49.3290505187
 20
1235.9822149068
 30
0.0
 40
571.9069919843295
100
AcDbArc
 50
267.5784316318
 51
268.0801041192
  0
LINE
  5
11A
330
97
100
AcDbEntity
  8
DV1_Default
 62
     7
100
AcDbLine
 10
25.1838672858
 20
664.58455373
 30
0.0
 11
26.1853022241
 21
664.543152938
 31
0.0
  0
SPLINE
  5
11B
330
97
100
AcDbEntity
  8
DV1_Default
 62
     7
100
AcDbSpline
210
0.0
220
0.0
230
1.0
 70
     8
 71
     3
 72
    10
 73
     6
 74
     0
 42
0.000000001
 43
0.0000000001
 40
0.0
 40
0.0
 40
0.0
 40
0.0
 40
0.5
 40
0.5
 40
1.0
 40
1.0
 40
1.0
 40
1.0
 10
30.18070888784311
 20
664.3959359483412
 30
0.0
 10
30.37509375557959
 20
664.3893387398346
 30
0.0
 10
30.56705211175788
 20
664.3826460586201
 30
0.0
 10
30.83976426976028
 20
664.3731388878525
 30
0.0
 10
30.9189053986426
 20
664.3703806185908
 30
0.0
 10
30.91890542330464
 20
664.3703818475869
 30
0.0
  0
LINE
  5
11C
330
97
100
AcDbEntity
  8
DV1_Default
 62
     7
100
AcDbLine
 10
30.185644233
 20
664.3952198917
 30
0.0
 11
30.1665694467
 21
664.3958712892
 31
0.0
  0
LINE
  5
11D
330
97
100
AcDbEntity
  8
DV1_Default
 62
     7
100
AcDbLine
 10
25.164976299
 20
664.5859347924
 30
0.0
 11
24.7026875678
 21
664.6049569199
 31
0.0
  0
ARC
  5
11E
330
97
100
AcDbEntity
  8
DV1_Default
 62
     7
100
AcDbCircle
 10
49.0545162527
 20
1152.4014162574
 30
0.0
 40
488.3262623321718
100
AcDbArc
 50
267.8949696525
 51
267.922048123
  0
SPLINE
  5
11F
330
97
100
AcDbEntity
  8
DV1_Default
 62
     7
100
AcDbSpline
210
0.0
220
0.0
230
1.0
 70
     8
 71
     3
 72
    10
 73
     6
 74
     0
 42
0.000000001
 43
0.0000000001
 40
0.0
 40
0.0
 40
0.0
 40
0.0
 40
0.6508720719759703
 40
0.6508720719759703
 40
1.0
 40
1.0
 40
1.0
 40
1.0
 10
31.35916998448465
 20
664.3959359483807
 30
0.0
 10
31.53994701657736
 20
664.3893387398689
 30
0.0
 10
31.74878189619107
 20
664.3826460586417
 30
0.0
 10
32.02385065034048
 20
664.3753426489614
 30
0.0
 10
32.11070129687266
 20
664.373366927414
 30
0.0
 10
32.18207784372494
 20
664.3720832493201
 30
0.0
  0
ARC
  5
120
330
97
100
AcDbEntity
  8
DV1_Default
 62
     7
100
AcDbCircle
 10
48.850783125
 20
950.6335409757
 30
0.0
 40
286.5587384934162
100
AcDbArc
 50
266.7810256873
 51
267.2858238306
  0
SPLINE
  5
121
330
97
100
AcDbEntity
  8
DV1_Default
 62
     7
100
AcDbSpline
210
0.0
220
0.0
230
1.0
 70
     8
 71
     3
 72
    10
 73
     6
 74
     0
 42
0.000000001
 43
0.0000000001
 40
0.0
 40
0.0
 40
0.0
 40
0.0
 40
0.6622998048458464
 40
0.6622998048458464
 40
1.0
 40
1.0
 40
1.0
 40
1.0
 10
35.28960906125064
 20
664.3959359485043
 30
0.0
 10
35.42925659331122
 20
664.3893387399944
 30
0.0
 10
35.6231747790358
 20
664.3826460587812
 30
0.0
 10
35.91678300472988
 20
664.3754686666906
 30
0.0
 10
36.01547663268087
 20
664.373563618308
 30
0.0
 10
36.10663513349336
 20
664.3722786323318
 30
0.0
  0
ARC
  5
122
330
97
100
AcDbEntity
  8
DV1_Default
 62
     7
100
AcDbCircle
 10
48.6082137859
 20
748.8896922204
 30
0.0
 40
84.80297316118792
100
AcDbArc
 50
263.7779301201
 51
265.1030197852
  0
LINE
  5
123
330
97
100
AcDbEntity
  8
DV1_Default
 62
     7
100
AcDbLine
 10
68.7047003645
 20
664.3958712865
 30
0.0
 11
68.6856263596
 21
664.3952198908
 31
0.0
  0
LINE
  5
124
330
97
100
AcDbEntity
  8
DV1_Default
 62
     7
100
AcDbLine
 10
69.6871833875
 20
664.42963411
 30
0.0
 11
68.7047003645
 21
664.3958712865
 31
0.0
  0
ARC
  5
125
330
97
100
AcDbEntity
  8
DV1_Default
 62
     7
100
AcDbCircle
 10
49.4349669927
 20
1239.0838603168
 30
0.0
 40
575.0104846046627
100
AcDbArc
 50
271.9202236192
 51
272.4191871034
  0
LINE
  5
126
330
97
100
AcDbEntity
  8
DV1_Default
 62
     7
100
AcDbLine
 10
68.6905644073
 20
664.3958667185
 30
0.0
 11
68.7023904418
 21
664.3962631896
 31
0.0
  0
LINE
  5
127
330
97
100
AcDbEntity
  8
DV1_Default
 62
     7
100
AcDbLine
 10
72.6859683682
 20
664.5431529395
 30
0.0
 11
73.6874033065
 21
664.5845537316
 31
0.0
  0
SPLINE
  5
128
330
97
100
AcDbEntity
  8
DV1_Default
 62
     7
100
AcDbSpline
210
0.0
220
0.0
230
1.0
 70
     8
 71
     3
 72
    10
 73
     6
 74
     0
 42
0.000000001
 43
0.0000000001
 40
0.0
 40
0.0
 40
0.0
 40
0.0
 40
0.5
 40
0.5
 40
1.0
 40
1.0
 40
1.0
 40
1.0
 10
67.9523653660292
 20
664.3703818383533
 30
0.0
 10
67.95236534039856
 20
664.3703830897668
 30
0.0
 10
68.0315063983137
 20
664.3731438234068
 30
0.0
 10
68.30421841295298
 20
664.3826545253714
 30
0.0
 10
68.49617669763033
 20
664.3893482525244
 30
0.0
 10
68.6905642378331
 20
664.3958758774008
 30
0.0
  0
SPLINE
  5
129
330
97
100
AcDbEntity
  8
DV1_Default
 62
     7
100
AcDbSpline
210
0.0
220
0.0
230
1.0
 70
     8
 71
     3
 72
    10
 73
     6
 74
     0
 42
0.000000001
 43
0.0000000001
 40
0.0
 40
0.0
 40
0.0
 40
0.0
 40
0.9669745098953065
 40
0.9669745098953065
 40
1.0
 40
1.0
 40
1.0
 40
1.0
 10
73.70629511159682
 20
664.5858533257651
 30
0.0
 10
73.90271317349342
 20
664.5940845747853
 30
0.0
 10
74.09797493635226
 20
664.6020944530478
 30
0.0
 10
74.2416549400546
 20
664.6079887763068
 30
0.0
 10
74.24633234091851
 20
664.6081806624521
 30
0.0
 10
74.25094112965722
 20
664.608369734472
 30
0.0
  0
LINE
  5
12A
330
97
100
AcDbEntity
  8
DV1_Default
 62
     7
100
AcDbLine
 10
67.5230584013
 20
664.3962631893
 30
0.0
 11
67.5121027723
 21
664.3958667154
 31
0.0
  0
ARC
  5
12B
330
97
100
AcDbEntity
  8
DV1_Default
 62
     7
100
AcDbCircle
 10
49.7178158659
 20
1155.0456184536
 30
0.0
 40
490.972308233899
100
AcDbArc
 50
272.0783025065
 51
272.6182566028
  0
SPLINE
  5
12C
330
97
100
AcDbEntity
  8
DV1_Default
 62
     7
100
AcDbSpline
210
0.0
220
0.0
230
1.0
 70
     8
 71
     3
 72
     8
 73
     4
 74
     0
 42
0.000000001
 43
0.0000000001
 40
0.0
 40
0.0
 40
0.0
 40
0.0
 40
1.0
 40
1.0
 40
1.0
 40
1.0
 10
72.39779169443905
 20
664.598254391591
 30
0.0
 10
72.3265779674995
 20
664.5943795541968
 30
0.0
 10
72.24067587321275
 20
664.5901476640291
 30
0.0
 10
72.1460670267253
 20
664.5858535366056
 30
0.0
  0
LINE
  5
12D
330
97
100
AcDbEntity
  8
DV1_Default
 62
     7
100
AcDbLine
 10
63.5900801604
 20
664.3962631892
 30
0.0
 11
63.5816632097
 21
664.3958667152
 31
0.0
  0
ARC
  5
12E
330
97
100
AcDbEntity
  8
DV1_Default
 62
     7
100
AcDbCircle
 10
49.9443109144
 20
952.1914562013
 30
0.0
 40
288.1185083236448
100
AcDbArc
 50
272.7146383769
 51
273.4192845582
  0
ARC
  5
12F
330
97
100
AcDbEntity
  8
DV1_Default
 62
     7
100
AcDbCircle
 10
50.1488269211
 20
749.3451146524
 30
0.0
 40
85.26651236158585
100
AcDbArc
 50
274.947336742
 51
276.2652058167
  0
SPLINE
  5
130
330
97
100
AcDbEntity
  8
DV1_Default
 62
     7
100
AcDbSpline
210
0.0
220
0.0
230
1.0
 70
     8
 71
     3
 72
    16
 73
    12
 74
     0
 42
0.000000001
 43
0.0000000001
 40
0.0
 40
0.0
 40
0.0
 40
0.0
 40
0.1013729926527232
 40
0.3029881395591805
 40
0.5104478106729404
 40
0.6505088357237913
 40
0.7187107086603317
 40
0.7766957951385651
 40
0.8597736499065382
 40
0.9864801443346467
 40
1.0
 40
1.0
 40
1.0
 40
1.0
 10
49.50020142687618
 20
664.3707113996703
 30
0.0
 10
49.5549939036071
 20
664.3707500943261
 30
0.0
 10
49.69606227498534
 20
664.370939608905
 30
0.0
 10
49.93000596703904
 20
664.3754741941914
 30
0.0
 10
50.11461672318048
 20
664.3832187852536
 30
0.0
 10
50.20661753334434
 20
664.3903736078787
 30
0.0
 10
50.28466022863758
 20
664.4024883112509
 30
0.0
 10
50.37469366113815
 20
664.428484407443
 30
0.0
 10
50.48763076762093
 20
664.4895797898556
 30
0.0
 10
50.57907381972681
 20
664.5669911972478
 30
0.0
 10
50.60479560216665
 20
664.626925335368
 30
0.0
 10
50.60765863688374
 20
664.6336353879014
 30
0.0
  0
SPLINE
  5
131
330
97
100
AcDbEntity
  8
DV1_Default
 62
     7
100
AcDbSpline
210
0.0
220
0.0
230
1.0
 70
     8
 71
     3
 72
    14
 73
    10
 74
     0
 42
0.000000001
 43
0.0000000001
 40
0.0
 40
0.0
 40
0.0
 40
0.0
 40
0.1617909009857998
 40
0.4184994317564714
 40
0.5918183167124266
 40
0.6762186213489488
 40
0.7479680471372987
 40
0.8507676121789419
 40
1.0
 40
1.0
 40
1.0
 40
1.0
 10
49.74674032696701
 20
664.3722665753199
 30
0.0
 10
49.80595728436397
 20
664.3731683881624
 30
0.0
 10
49.95380600164638
 20
664.3764808159416
 30
0.0
 10
50.11467993082534
 20
664.3832234226114
 30
0.0
 10
50.20648070623074
 20
664.3903914183911
 30
0.0
 10
50.28487119341202
 20
664.4024864158603
 30
0.0
 10
50.37389067345875
 20
664.428542263407
 30
0.0
 10
50.49044549443303
 20
664.4878868590235
 30
0.0
 10
50.55167530976523
 20
664.559079855084
 30
0.0
 10
50.59324068450143
 20
664.6091281360525
 30
0.0
  0
SPLINE
  5
132
330
97
100
AcDbEntity
  8
DV1_Default
 62
     7
100
AcDbSpline
210
0.0
220
0.0
230
1.0
 70
     8
 71
     3
 72
    16
 73
    12
 74
     0
 42
0.000000001
 43
0.0000000001
 40
0.0
 40
0.0
 40
0.0
 40
0.0
 40
0.0781838026923928
 40
0.2064561950768204
 40
0.3157403755288888
 40
0.4072305100226546
 40
0.4782439791444776
 40
0.5395978526413736
 40
0.6279632220221717
 40
0.8929037146681311
 40
1.0
 40
1.0
 40
1.0
 40
1.0
 10
48.23660362180151
 20
664.690678999663
 30
0.0
 10
48.24721126785362
 20
664.663729520198
 30
0.0
 10
48.27186832060745
 20
664.6030799224943
 30
0.0
 10
48.34755842517056
 20
664.5218691442578
 30
0.0
 10
48.4366063442242
 20
664.4579146667332
 30
0.0
 10
48.51876637955478
 20
664.4216557196373
 30
0.0
 10
48.58200437674412
 20
664.4042915903656
 30
0.0
 10
48.63039652722095
 20
664.3954902696097
 30
0.0
 10
48.70007938749268
 20
664.3870275783814
 30
0.0
 10
48.78026050865653
 20
664.3821637412289
 30
0.0
 10
48.86693789301082
 20
664.3788287315009
 30
0.0
 10
48.89356703166501
 20
664.3779260568056
 30
0.0
  0
LINE
  5
133
330
97
100
AcDbEntity
  8
DV1_Default
 62
     7
100
AcDbLine
 10
43.1722525208
 20
664.5905530993
 30
0.0
 11
43.3189792236
 21
665.3974572115
 31
0.0
  0
ARC
  5
134
330
97
100
AcDbEntity
  8
DV1_Default
 62
     7
100
AcDbCircle
 10
39.4166343948
 20
665.0947469466
 30
0.0
 40
0.5071206037380591
100
AcDbArc
 50
179.7412439386
 51
270.0663522381
  0
LINE
  5
135
330
97
100
AcDbEntity
  8
DV1_Default
 62
     7
100
AcDbLine
 10
38.9055620618
 20
665.6235054149
 30
0.0
 11
38.9055620618
 21
665.0551676415
 31
0.0
  0
SPLINE
  5
136
330
97
100
AcDbEntity
  8
DV1_Default
 62
     7
100
AcDbSpline
210
0.0
220
0.0
230
1.0
 70
     8
 71
     3
 72
    16
 73
    12
 74
     0
 42
0.000000001
 43
0.0000000001
 40
0.0
 40
0.0
 40
0.0
 40
0.0
 40
0.0970378241808221
 40
0.2900049968544932
 40
0.5034644724919398
 40
0.5526350893009571
 40
0.6096958379881621
 40
0.6838750238511629
 40
0.7984266044971832
 40
0.9111682571833776
 40
1.0
 40
1.0
 40
1.0
 40
1.0
 10
36.10649925823863
 20
664.372484993047
 30
0.0
 10
36.15812914870439
 20
664.3716656340592
 30
0.0
 10
36.28946610156942
 20
664.3694336140819
 30
0.0
 10
36.48596794301761
 20
664.3716131091342
 30
0.0
 10
36.55987007136702
 20
664.369416468105
 30
0.0
 10
36.67624129098709
 20
664.3857535405999
 30
0.0
 10
36.76359574357691
 20
664.4109258501627
 30
0.0
 10
36.87493501701803
 20
664.4694354643317
 30
0.0
 10
36.98690192568318
 20
664.578630033803
 30
0.0
 10
37.06364330924966
 20
664.7306019910326
 30
0.0
 10
37.06709027988768
 20
664.8282681015246
 30
0.0
 10
37.06778394088771
 20
664.8783534024956
 30
0.0
  0
LINE
  5
137
330
97
100
AcDbEntity
  8
DV1_Default
 62
     7
100
AcDbLine
 10
37.0677839409
 20
664.8783534025
 30
0.0
 11
37.0738297586
 21
665.4116347342
 31
0.0
  0
SPLINE
  5
138
330
97
100
AcDbEntity
  8
DV1_Default
 62
     7
100
AcDbSpline
210
0.0
220
0.0
230
1.0
 70
     8
 71
     3
 72
    17
 73
    13
 74
     0
 42
0.000000001
 43
0.0000000001
 40
0.0
 40
0.0
 40
0.0
 40
0.0
 40
0.0452242194553978
 40
0.1845095156051442
 40
0.2965728374128697
 40
0.3914224542252802
 40
0.4714582929820113
 40
0.5353360773410341
 40
0.5824996864478742
 40
0.6317861280518594
 40
0.7230383282602165
 40
1.0
 40
1.0
 40
1.0
 40
1.0
 10
31.03775764383972
 20
665.051726632194
 30
0.0
 10
31.03557545180594
 20
665.0326390048859
 30
0.0
 10
31.02847077538544
 20
664.9655646276287
 30
0.0
 10
31.07306878357925
 20
664.8501457303215
 30
0.0
 10
31.15155204564972
 20
664.7401158250366
 30
0.0
 10
31.24133579186735
 20
664.6681808313898
 30
0.0
 10
31.32650693199915
 20
664.6260050850287
 30
0.0
 10
31.39720040053484
 20
664.6053145009993
 30
0.0
 10
31.44682263800765
 20
664.5966112596875
 30
0.0
 10
31.49017241997376
 20
664.5917864814518
 30
0.0
 10
31.56623114517822
 20
664.5870805172688
 30
0.0
 10
31.65893721626255
 20
664.5860342147294
 30
0.0
 10
31.73954929964551
 20
664.5858343584644
 30
0.0
  0
LINE
  5
139
330
97
100
AcDbEntity
  8
DV1_Default
 62
     7
100
AcDbLine
 10
31.0382958528
 20
665.6425316689
 30
0.0
 11
31.0382958528
 21
665.0521436267
 31
0.0
  0
SPLINE
  5
13A
330
97
100
AcDbEntity
  8
DV1_Default
 62
     7
100
AcDbSpline
210
0.0
220
0.0
230
1.0
 70
     8
 71
     3
 72
    15
 73
    11
 74
     0
 42
0.000000001
 43
0.0000000001
 40
0.0
 40
0.0
 40
0.0
 40
0.0
 40
0.1327415549759439
 40
0.4775631104728018
 40
0.5561087333151697
 40
0.6045131977086938
 40
0.6749868397571062
 40
0.7986552891093774
 40
0.9790362348024854
 40
1.0
 40
1.0
 40
1.0
 40
1.0
 10
32.17979643616906
 20
664.3722981275124
 30
0.0
 10
32.21197174655263
 20
664.3716325008795
 30
0.0
 10
32.31262924026402
 20
664.3697051763921
 30
0.0
 10
32.36910749083712
 20
664.3695528582831
 30
0.0
 10
32.42558001358911
 20
664.3716710819646
 30
0.0
 10
32.46639981513263
 20
664.3753906239347
 30
0.0
 10
32.53377051940743
 20
664.387303646931
 30
0.0
 10
32.6372482644073
 20
664.4245053885463
 30
0.0
 10
32.71719383733901
 20
664.4803998391452
 30
0.0
 10
32.75830306625295
 20
664.5223377739676
 30
0.0
 10
32.76249447780236
 20
664.5267819235034
 30
0.0
  0
SPLINE
  5
13B
330
97
100
AcDbEntity
  8
DV1_Default
 62
     7
100
AcDbSpline
210
0.0
220
0.0
230
1.0
 70
     8
 71
     3
 72
    18
 73
    14
 74
     0
 42
0.000000001
 43
0.0000000001
 40
0.0
 40
0.0
 40
0.0
 40
0.0
 40
0.1356212638370909
 40
0.2539698759123022
 40
0.3527525148706445
 40
0.4362208539608454
 40
0.5044730396836533
 40
0.5540431429698564
 40
0.5865453699569431
 40
0.6213134195214911
 40
0.6853927831572749
 40
0.9281788779995782
 40
1.0
 40
1.0
 40
1.0
 40
1.0
 10
25.78105791093506
 20
665.0547451248932
 30
0.0
 10
25.78518951032842
 20
664.9969403017549
 30
0.0
 10
25.79418096191513
 20
664.9041099704898
 30
0.0
 10
25.8673548672453
 20
664.780339252996
 30
0.0
 10
25.95307760111355
 20
664.6971520837373
 30
0.0
 10
26.03997987819778
 20
664.6455642851142
 30
0.0
 10
26.11623500580161
 20
664.6181299933123
 30
0.0
 10
26.17332313136915
 20
664.6065767447291
 30
0.0
 10
26.20794075588051
 20
664.6024266082845
 30
0.0
 10
26.23560602991622
 20
664.6002633104015
 30
0.0
 10
26.28956974933309
 20
664.59798466917
 30
0.0
 10
26.35688268802224
 20
664.5971035902952
 30
0.0
 10
26.454059735895
 20
664.5978489743709
 30
0.0
 10
26.47977571884114
 20
664.598063943598
 30
0.0
  0
LINE
  5
13C
330
97
100
AcDbEntity
  8
DV1_Default
 62
     7
100
AcDbLine
 10
25.781556633
 20
665.6539971014
 30
0.0
 11
25.781556633
 21
665.0551719138
 31
0.0
  0
ARC
  5
13D
330
97
100
AcDbEntity
  8
DV1_Default
 62
     7
100
AcDbCircle
 10
49.4356352772
 20
1239.0729553126
 30
0.0
 40
575.0000624379999
100
AcDbArc
 50
267.682582802
 51
267.7850363981
  0
ARC
  5
13E
330
97
100
AcDbEntity
  8
DV1_Default
 62
     7
100
AcDbCircle
 10
49.4356352772
 20
1239.0729553126
 30
0.0
 40
575.0000624379999
100
AcDbArc
 50
267.8321323173
 51
267.9816265978
  0
ARC
  5
13F
330
97
100
AcDbEntity
  8
DV1_Default
 62
     7
100
AcDbCircle
 10
49.4356352772
 20
1239.0729553126
 30
0.0
 40
575.000062438
100
AcDbArc
 50
267.5808203795
 51
267.5827080445
  0
LINE
  5
140
330
97
100
AcDbEntity
  8
DV1_Default
 62
     7
100
AcDbLine
 10
30.18564426
 20
664.3952205867
 30
0.0
 11
30.7268472232
 21
664.3770760107
 31
0.0
  0
ARC
  5
141
330
97
100
AcDbEntity
  8
DV1_Default
 62
     7
100
AcDbCircle
 10
30.9356020438
 20
664.8701008665
 30
0.0
 40
0.4999978750545916
100
AcDbArc
 50
268.003020542
 51
291.389634599
  0
ARC
  5
142
330
97
100
AcDbEntity
  8
DV1_Default
 62
     7
100
AcDbCircle
 10
24.431688934
 20
665.1165067968
 30
0.0
 40
0.4999926262114994
100
AcDbArc
 50
187.0486550279
 51
268.1086831319
  0
LINE
  5
143
330
97
100
AcDbEntity
  8
DV1_Default
 62
     7
100
AcDbLine
 10
23.9356352961
 20
665.6572264368
 30
0.0
 11
23.9356352962
 21
665.0551714293
 31
0.0
  0
LINE
  5
144
330
97
100
AcDbEntity
  8
DV1_Default
 62
     7
100
AcDbLine
 10
24.4151873214
 20
664.616786552
 30
0.0
 11
25.1740906272
 21
664.584980889
 31
0.0
  0
LINE
  5
145
330
97
100
AcDbEntity
  8
DV1_Default
 62
     7
100
AcDbLine
 10
25.1852543009
 20
664.5845094296
 30
0.0
 11
25.2402879658
 21
664.5821852716
 31
0.0
  0
LINE
  5
146
330
97
100
AcDbEntity
  8
DV1_Default
 62
     7
100
AcDbLine
 10
57.5326048938
 20
664.3973630692
 30
0.0
 11
57.5388772393
 21
664.397902402
 31
0.0
  0
ARC
  5
147
330
97
100
AcDbEntity
  8
DV1_Default
 62
     7
100
AcDbCircle
 10
49.4356352772
 20
1239.0729553126
 30
0.0
 40
575.000062438
100
AcDbArc
 50
272.4172937429
 51
272.4191809176
  0
ARC
  5
148
330
97
100
AcDbEntity
  8
DV1_Default
 62
     7
100
AcDbCircle
 10
49.4356352772
 20
1239.0729553126
 30
0.0
 40
575.000062438
100
AcDbArc
 50
272.0183901708
 51
272.3174237445
  0
LINE
  5
149
330
97
100
AcDbEntity
  8
DV1_Default
 62
     7
100
AcDbLine
 10
68.1398531652
 20
664.3769227698
 30
0.0
 11
68.6856263368
 21
664.3952204587
 31
0.0
  0
ARC
  5
14A
330
97
100
AcDbEntity
  8
DV1_Default
 62
     7
100
AcDbCircle
 10
67.9415521808
 20
664.8702713507
 30
0.0
 40
0.4999978919897017
100
AcDbArc
 50
248.4977245927
 51
271.3224755102
  0
ARC
  5
14B
330
97
100
AcDbEntity
  8
DV1_Default
 62
     7
100
AcDbCircle
 10
74.43567729
 20
665.1163625492
 30
0.0
 40
0.4999926365263015
100
AcDbArc
 50
272.3390299653
 51
359.6959302626
  0
LINE
  5
14C
330
97
100
AcDbEntity
  8
DV1_Default
 62
     7
100
AcDbLine
 10
74.9356352962
 20
665.1104779366
 30
0.0
 11
74.9356352961
 21
665.6621788333
 31
0.0
  0
LINE
  5
14D
330
97
100
AcDbEntity
  8
DV1_Default
 62
     7
100
AcDbLine
 10
73.6309826266
 20
664.5821852732
 30
0.0
 11
73.6873961692
 21
664.5845677034
 31
0.0
  0
LINE
  5
14E
330
97
100
AcDbEntity
  8
DV1_Default
 62
     7
100
AcDbLine
 10
73.6972212938
 20
664.5849826335
 30
0.0
 11
74.4567288422
 21
664.6170577991
 31
0.0
  0
SPLINE
  5
14F
330
97
100
AcDbEntity
  8
DV1_Default
 62
     7
100
AcDbSpline
210
0.0
220
0.0
230
1.0
 70
     8
 71
     3
 72
    19
 73
    15
 74
     0
 42
0.000000001
 43
0.0000000001
 40
0.0
 40
0.0
 40
0.0
 40
0.0
 40
0.04748438699332
 40
0.1057545144566399
 40
0.1535758446248642
 40
0.1890224043691379
 40
0.210921890188582
 40
0.2313753479395505
 40
0.2649134145798573
 40
0.3680638457056801
 40
0.5323345114326342
 40
0.6863404444819499
 40
0.8478310273473405
 40
1.0
 40
1.0
 40
1.0
 40
1.0
 10
66.10858617446006
 20
664.5267363557663
 30
0.0
 10
66.1282029630916
 20
664.5061756204029
 30
0.0
 10
66.17621530054382
 20
664.4639465164371
 30
0.0
 10
66.25563379863661
 20
664.4170863476407
 30
0.0
 10
66.33500644081002
 20
664.3886108048517
 30
0.0
 10
66.39508086868662
 20
664.3767781359951
 30
0.0
 10
66.43099368086646
 20
664.37289826451
 30
0.0
 10
66.45565062009881
 20
664.3712740731366
 30
0.0
 10
66.49207098534438
 20
664.3700433137012
 30
0.0
 10
66.55943783951443
 20
664.3699085944007
 30
0.0
 10
66.72123006197754
 20
664.3722532022132
 30
0.0
 10
66.97198265219606
 20
664.3783693706495
 30
0.0
 10
67.26186668373896
 20
664.3870478455818
 30
0.0
 10
67.43254085865443
 20
664.3931963453894
 30
0.0
 10
67.52803568081255
 20
664.3966740666693
 30
0.0
  0
SPLINE
  5
150
330
97
100
AcDbEntity
  8
DV1_Default
 62
     7
100
AcDbSpline
210
0.0
220
0.0
230
1.0
 70
     8
 71
     3
 72
    16
 73
    12
 74
     0
 42
0.000000001
 43
0.0000000001
 40
0.0
 40
0.0
 40
0.0
 40
0.0
 40
0.1088304146444337
 40
0.3597032276083293
 40
0.4080476046149387
 40
0.446806286003456
 40
0.506305477480334
 40
0.5903001931767407
 40
0.7266527407027946
 40
0.868973355404278
 40
1.0
 40
1.0
 40
1.0
 40
1.0
 10
72.39660060885234
 20
664.5983937040547
 30
0.0
 10
72.43340037414147
 20
664.6002644304283
 30
0.0
 10
72.53976209712427
 20
664.6059712082223
 30
0.0
 10
72.59591587801437
 20
664.6096511805123
 30
0.0
 10
72.65948181693673
 20
664.617559829767
 30
0.0
 10
72.70365490841314
 20
664.6254847498252
 30
0.0
 10
72.77390474669735
 20
664.6454917379648
 30
0.0
 10
72.87705396375097
 20
664.6959036909436
 30
0.0
 10
72.98986620866691
 20
664.7954103288139
 30
0.0
 10
73.07676629520068
 20
664.9483140552493
 30
0.0
 10
73.0860238822834
 20
665.0536587653942
 30
0.0
 10
73.08973504743517
 20
665.1125036933342
 30
0.0
  0
LINE
  5
151
330
97
100
AcDbEntity
  8
DV1_Default
 62
     7
100
AcDbLine
 10
73.0897139598
 20
665.1121695381
 30
0.0
 11
73.0897139598
 21
665.6524954099
 31
0.0
  0
SPLINE
  5
152
330
97
100
AcDbEntity
  8
DV1_Default
 62
     7
100
AcDbSpline
210
0.0
220
0.0
230
1.0
 70
     8
 71
     3
 72
    22
 73
    18
 74
     0
 42
0.000000001
 43
0.0000000001
 40
0.0
 40
0.0
 40
0.0
 40
0.0
 40
0.045320610811854
 40
0.1127095585477011
 40
0.1674573774885419
 40
0.2138650241215357
 40
0.2527810442565007
 40
0.2832813821227824
 40
0.3050006540081626
 40
0.3273270549985201
 40
0.3677269613525748
 40
0.5093069465066749
 40
0.6265448272409125
 40
0.7487253897975423
 40
0.8685800581252198
 40
0.9851280865942437
 40
1.0
 40
1.0
 40
1.0
 40
1.0
 10
61.79685581421715
 20
664.8496036700287
 30
0.0
 10
61.79581594792914
 20
664.8095719995523
 30
0.0
 10
61.79504088954538
 20
664.7239886405915
 30
0.0
 10
61.85395291883283
 20
664.5944887681206
 30
0.0
 10
61.94105319749517
 20
664.4897109685677
 30
0.0
 10
62.03399258991386
 20
664.4228714780543
 30
0.0
 10
62.11946192408149
 20
664.3849991728796
 30
0.0
 10
62.18810672868977
 20
664.3674348268814
 30
0.0
 10
62.23429257668663
 20
664.3606089487128
 30
0.0
 10
62.27266746531114
 20
664.3571496165042
 30
0.0
 10
62.34439944560788
 20
664.3539494657927
 30
0.0
 10
62.4797800916221
 20
664.354112490273
 30
0.0
 10
62.74546764919437
 20
664.3596467907962
 30
0.0
 10
63.040302936244
 20
664.3693474178183
 30
0.0
 10
63.33423027885981
 20
664.3817849670514
 30
0.0
 10
63.5197978163548
 20
664.3917088706952
 30
0.0
 10
63.59411423188897
 20
664.3963210354783
 30
0.0
 10
63.60385696907178
 20
664.396928151735
 30
0.0
  0
LINE
  5
153
330
97
100
AcDbEntity
  8
DV1_Default
 62
     7
100
AcDbLine
 10
61.7974408343
 20
665.3785145085
 30
0.0
 11
61.7974408343
 21
664.8495271056
 31
0.0
  0
LINE
  5
154
330
97
100
AcDbEntity
  8
DV1_Default
 62
     7
100
AcDbLine
 10
63.5926120294
 20
664.3961363806
 30
0.0
 11
63.6015052031
 21
664.3965547692
 31
0.0
  0
SPLINE
  5
155
330
97
100
AcDbEntity
  8
DV1_Default
 62
     7
100
AcDbSpline
210
0.0
220
0.0
230
1.0
 70
     8
 71
     3
 72
    15
 73
    11
 74
     0
 42
0.000000001
 43
0.0000000001
 40
0.0
 40
0.0
 40
0.0
 40
0.0
 40
0.1407687580950934
 40
0.4209975472457024
 40
0.477234548747989
 40
0.5612124403317751
 40
0.6665716902816877
 40
0.8044026855925753
 40
0.9484299834046067
 40
1.0
 40
1.0
 40
1.0
 40
1.0
 10
67.12837779110845
 20
664.5858535364425
 30
0.0
 10
67.1719911072932
 20
664.588346584751
 30
0.0
 10
67.28951064017686
 20
664.5971744842378
 30
0.0
 10
67.35130693823866
 20
664.5968143638769
 30
0.0
 10
67.48379753395908
 20
664.6285779689114
 30
0.0
 10
67.57607591055584
 20
664.6664861028823
 30
0.0
 10
67.68552343836868
 20
664.7449785770793
 30
0.0
 10
67.78072454779016
 20
664.8722717179201
 30
0.0
 10
67.831673773306
 20
665.009207703158
 30
0.0
 10
67.82460193514795
 20
665.0846940108266
 30
0.0
 10
67.82221199844922
 20
665.1077984730161
 30
0.0
  0
LINE
  5
156
330
97
100
AcDbEntity
  8
DV1_Default
 62
     7
100
AcDbLine
 10
67.8329747403
 20
665.0521514039
 30
0.0
 11
67.8329747403
 21
665.6433120649
 31
0.0
  0
SPLINE
  5
157
330
97
100
AcDbEntity
  8
DV1_Default
 62
     7
100
AcDbSpline
210
0.0
220
0.0
230
1.0
 70
     8
 71
     3
 72
    21
 73
    17
 74
     0
 42
0.000000001
 43
0.0000000001
 40
0.0
 40
0.0
 40
0.0
 40
0.0
 40
0.04323483400551
 40
0.1117990320181532
 40
0.1675413548087205
 40
0.2148954909218407
 40
0.2547651844574829
 40
0.2861754308632732
 40
0.3107651898505628
 40
0.3406121692613271
 40
0.4074434090027795
 40
0.5428409734386971
 40
0.6619800870483565
 40
0.7863841536795056
 40
0.9091022185057287
 40
0.9999999999999999
 40
0.9999999999999999
 40
0.9999999999999999
 40
0.9999999999999999
 10
55.55265680944863
 20
664.8494746783311
 30
0.0
 10
55.55418959369163
 20
664.8121721480995
 30
0.0
 10
55.55892087449449
 20
664.7292361676435
 30
0.0
 10
55.62660651929745
 20
664.6021036743564
 30
0.0
 10
55.72303198764961
 20
664.497240489478
 30
0.0
 10
55.824212578745
 20
664.4301660173779
 30
0.0
 10
55.91662348329344
 20
664.3921278687266
 30
0.0
 10
55.99020513310715
 20
664.3742881109081
 30
0.0
 10
56.04277817233792
 20
664.366614538777
 30
0.0
 10
56.09852236147164
 20
664.3616524782865
 30
0.0
 10
56.1911021285397
 20
664.3580743881679
 30
0.0
 10
56.37655004839036
 20
664.3574470671138
 30
0.0
 10
56.67424233770978
 20
664.3626963339964
 30
0.0
 10
56.99850487014751
 20
664.3725323505801
 30
0.0
 10
57.28598615951339
 20
664.3847145097449
 30
0.0
 10
57.44358257472062
 20
664.3932606455485
 30
0.0
 10
57.50200550902913
 20
664.3969071540281
 30
0.0
  0
LINE
  5
158
330
97
100
AcDbEntity
  8
DV1_Default
 62
     7
100
AcDbLine
 10
55.5522913696
 20
665.3937483415
 30
0.0
 11
55.5522913696
 21
664.8495272725
 31
0.0
  0
LINE
  5
159
330
97
100
AcDbEntity
  8
DV1_Default
 62
     7
100
AcDbLine
 10
57.5326049139
 20
664.3973630708
 30
0.0
 11
57.5388772562
 21
664.3979024034
 31
0.0
  0
SPLINE
  5
15A
330
97
100
AcDbEntity
  8
DV1_Default
 62
     7
100
AcDbSpline
210
0.0
220
0.0
230
1.0
 70
     8
 71
     3
 72
    14
 73
    10
 74
     0
 42
0.000000001
 43
0.0000000001
 40
0.0
 40
0.0
 40
0.0
 40
0.0
 40
0.2100734816790342
 40
0.302182198233619
 40
0.4196068154176619
 40
0.5611635951062245
 40
0.7344964087307543
 40
0.9294266432036417
 40
1.0
 40
1.0
 40
1.0
 40
1.0
 10
59.45404504386626
 20
664.5876345503775
 30
0.0
 10
59.48620765865689
 20
664.5883623629267
 30
0.0
 10
59.52845593603828
 20
664.5912028215893
 30
0.0
 10
59.62691425870471
 20
664.6102880042495
 30
0.0
 10
59.72343998289912
 20
664.6465408663098
 30
0.0
 10
59.83002237350686
 20
664.7187709492326
 30
0.0
 10
59.92287236725858
 20
664.8352947961503
 30
0.0
 10
59.97432455370052
 20
664.9613048543878
 30
0.0
 10
59.96806611049104
 20
665.0332308326409
 30
0.0
 10
59.96590843778179
 20
665.0554278058398
 30
0.0
  0
LINE
  5
15B
330
97
100
AcDbEntity
  8
DV1_Default
 62
     7
100
AcDbLine
 10
59.9657085316
 20
665.0551676295
 30
0.0
 11
59.9657085315
 21
665.6261949818
 31
0.0
  0
LINE
  5
15C
330
97
100
AcDbEntity
  8
DV1_Default
 62
     7
100
AcDbLine
 10
136.4633550759
 20
530.5563190009
 30
0.0
 11
129.4812598535
 21
535.0218191588
 31
0.0
  0
LINE
  5
15D
330
97
100
AcDbEntity
  8
DV1_Default
 62
     7
100
AcDbLine
 10
42.812401789
 20
664.3865226889
 30
0.0
 11
43.1722525208
 21
664.5905530993
 31
0.0
  0
LINE
  5
15E
330
97
100
AcDbEntity
  8
DV1_Default
 62
     7
100
AcDbLine
 10
79.145625267
 20
666.0286751078
 30
0.0
 11
82.6875881457
 21
666.1819910405
 31
0.0
  0
ENDBLK
  5
160
330
97
100
AcDbEntity
  8
0
100
AcDbBlockEnd
  0
BLOCK
  5
22F
330
161
100
AcDbEntity
  8
0
100
AcDbBlockBegin
  2
SE1
 70
     0
 10
0.0
 20
0.0
 30
0.0
  3
SE1
  1

  0
LINE
  5
164
330
161
100
AcDbEntity
  8
DV2_Default
 62
     7
100
AcDbLine
 10
329.1501904589
 20
650.9578622825
 30
0.0
 11
300.1495402261
 21
650.9578622825
 31
0.0
  0
LINE
  5
165
330
161
100
AcDbEntity
  8
DV2_Default
 62
     7
100
AcDbLine
 10
284.8665280795
 20
450.9578622825
 30
0.0
 11
344.4332039532
 21
450.9578622825
 31
0.0
  0
SPLINE
  5
166
330
161
100
AcDbEntity
  8
DV2_Default
 62
     7
100
AcDbSpline
210
0.0
220
0.0
230
1.0
 70
     8
 71
     3
 72
    22
 73
    18
 74
     0
 42
0.000000001
 43
0.0000000001
 40
0.0
 40
0.0
 40
0.0
 40
0.0
 40
0.0375175151726814
 40
0.081681955143478
 40
0.1297735807090087
 40
0.1815636276509556
 40
0.2368196395044415
 40
0.2942353214113014
 40
0.354543546568728
 40
0.4175191002554055
 40
0.4829360318470231
 40
0.563682522263758
 40
0.6471855197474881
 40
0.7330622045135557
 40
0.8209297953459129
 40
0.9104058010467981
 40
1.0
 40
1.0
 40
1.0
 40
1.0
 10
299.6438470677474
 20
650.4588666794508
 30
0.0
 10
299.6230544779986
 20
647.7093294485383
 30
0.0
 10
299.5806179689562
 20
642.6540203885648
 30
0.0
 10
299.2822352796134
 20
633.8320266208736
 30
0.0
 10
298.8336718455016
 20
624.3011018892136
 30
0.0
 10
298.2274551332333
 20
613.9656585154471
 30
0.0
 10
297.4913753634281
 20
603.0377939532877
 30
0.0
 10
296.6398684978188
 20
591.5428020723658
 30
0.0
 10
295.6897187497056
 20
579.5414183885375
 30
0.0
 10
294.6501023076357
 20
567.011842782681
 30
0.0
 10
293.4606472274443
 20
553.1289079064379
 30
0.0
 10
292.1252668312079
 20
537.8839464996975
 30
0.0
 10
290.6571091866587
 20
521.2899165112517
 30
0.0
 10
289.1474831118958
 20
504.1932858905031
 30
0.0
 10
287.6335826086234
 20
486.813311421201
 30
0.0
 10
286.0946899511741
 20
468.7440395396925
 30
0.0
 10
285.1989561479738
 20
457.7233901189722
 30
0.0
 10
284.6679445257641
 20
451.1786401910983
 30
0.0
  0
SPLINE
  5
167
330
161
100
AcDbEntity
  8
DV2_Default
 62
     7
100
AcDbSpline
210
0.0
220
0.0
230
1.0
 70
     8
 71
     3
 72
    23
 73
    19
 74
     0
 42
0.000000001
 43
0.0000000001
 40
0.0
 40
0.0
 40
0.0
 40
0.0
 40
0.0865074338054146
 40
0.1719144075435614
 40
0.2558891152888933
 40
0.3380992971926516
 40
0.4182124256612862
 40
0.4958959012263253
 40
0.5708172726368261
 40
0.6426445010359424
 40
0.6966937188597521
 40
0.7484680463794298
 40
0.7978079295504367
 40
0.8445547077709141
 40
0.8885509679663014
 40
0.9296410583292255
 40
0.9676718602111373
 40
1.0
 40
1.0
 40
1.0
 40
1.0
 10
344.6498662782469
 20
450.9578622825351
 30
0.0
 10
344.1369270596682
 20
457.2841617363494
 30
0.0
 10
343.2767330340723
 20
467.8745725690538
 30
0.0
 10
341.8034583421956
 20
485.2135934252528
 30
0.0
 10
340.3580668196225
 20
501.8449016992566
 30
0.0
 10
338.9132548396414
 20
518.2320851392166
 30
0.0
 10
337.5023751287724
 20
534.1724043327216
 30
0.0
 10
336.1429684869863
 20
549.6365766278044
 30
0.0
 10
334.856651763775
 20
564.550491168192
 30
0.0
 10
333.7434757031368
 20
577.8974688884434
 30
0.0
 10
332.8033744484281
 20
589.709557822306
 30
0.0
 10
332.0270451961932
 20
600.0295121709562
 30
0.0
 10
331.3414561247457
 20
609.8692727334131
 30
0.0
 10
330.7571578827547
 20
619.1904475691867
 30
0.0
 10
330.28224880687
 20
627.9852492779712
 30
0.0
 10
329.9329059428457
 20
636.1421272337244
 30
0.0
 10
329.7030601017639
 20
643.7277132136354
 30
0.0
 10
329.6708436127628
 20
648.0869741518088
 30
0.0
 10
329.655195859106
 20
650.4588417563816
 30
0.0
  0
ARC
  5
168
330
161
100
AcDbEntity
  8
DV2_Default
 62
     7
100
AcDbCircle
 10
329.1503015149
 20
650.4579879444
 30
0.0
 40
0.4998743974529927
100
AcDbArc
 50
0.0830787408
 51
90.0279100508
  0
ARC
  5
169
330
161
100
AcDbEntity
  8
DV2_Default
 62
     7
100
AcDbCircle
 10
300.1494301969
 20
650.4579879444
 30
0.0
 40
0.4998743974531971
100
AcDbArc
 50
89.9720899492
 51
179.9169212592
  0
ARC
  5
16A
330
161
100
AcDbEntity
  8
DV2_Default
 62
     7
100
AcDbCircle
 10
284.8665280795
 20
451.1578622825
 30
0.0
 40
0.1999999999999903
100
AcDbArc
 50
175.4186019066
 51
270.0
  0
ARC
  5
16B
330
161
100
AcDbEntity
  8
DV2_Default
 62
     7
100
AcDbCircle
 10
344.4332039532
 20
451.1578622825
 30
0.0
 40
0.2
100
AcDbArc
 50
270.0
 51
4.5813980934
  0
SPLINE
  5
16C
330
161
100
AcDbEntity
  8
DV2_Default
 62
     7
100
AcDbSpline
210
0.0
220
0.0
230
1.0
 70
    12
 71
     5
 72
    17
 73
    11
 74
     0
 42
0.000000001
 43
0.0000000001
 40
0.0
 40
0.0
 40
0.0
 40
0.0
 40
0.0
 40
0.0
 40
0.1514869318621224
 40
0.3212223925321764
 40
0.4909578532022315
 40
0.6606933138722865
 40
0.8304287745423405
 40
1.0
 40
1.0
 40
1.0
 40
1.0
 40
1.0
 40
1.0
 10
455.9114106658103
 20
769.6713537900405
 30
0.0
 41
1.0
 10
452.6733236010509
 20
774.5147977688559
 30
0.0
 41
1.0
 10
445.6083147296092
 20
784.8290875225977
 30
0.0
 41
1.0
 10
430.7209715149893
 20
800.1325413222206
 30
0.0
 41
1.0
 10
405.776144364923
 20
812.3945023514041
 30
0.0
 41
1.0
 10
373.1278051758421
 20
809.0431794763941
 30
0.0
 41
1.0
 10
345.6331750934881
 20
786.9843299967212
 30
0.0
 41
1.0
 10
332.158986840684
 20
750.3430736230896
 30
0.0
 41
1.0
 10
329.64446328259
 20
708.1617046721095
 30
0.0
 41
1.0
 10
329.6422341439123
 20
672.0205097831503
 30
0.0
 41
1.0
 10
329.6422078559307
 20
651.5437362061554
 30
0.0
 41
1.0
  0
LINE
  5
16D
330
161
100
AcDbEntity
  8
DV2_Default
 62
     7
100
AcDbLine
 10
483.7053766517
 20
785.5386141779
 30
0.0
 11
458.2630901107
 21
767.0537109961
 31
0.0
  0
ARC
  5
16E
330
161
100
AcDbEntity
  8
DV2_Default
 62
     7
100
AcDbCircle
 10
483.6465981265
 20
785.6195158773
 30
0.0
 40
0.0999999999999901
100
AcDbArc
 50
306.0
 51
38.1262170792
  0
SPLINE
  5
16F
330
161
100
AcDbEntity
  8
DV2_Default
 62
     7
100
AcDbSpline
210
0.0
220
0.0
230
1.0
 70
     8
 71
     3
 72
    28
 73
    24
 74
     0
 42
0.000000001
 43
0.0000000001
 40
0.0
 40
0.0
 40
0.0
 40
0.0
 40
0.0625000000000001
 40
0.0625000000000001
 40
0.1250000000000002
 40
0.1250000000000002
 40
0.1875000000000002
 40
0.1875000000000002
 40
0.2500000000000003
 40
0.2500000000000003
 40
0.3750000000000002
 40
0.3750000000000002
 40
0.5000000000000001
 40
0.5000000000000001
 40
0.5625000000000001
 40
0.5625000000000001
 40
0.6250000000000001
 40
0.6250000000000001
 40
0.75
 40
0.75
 40
0.875
 40
0.875
 40
1.0
 40
1.0
 40
1.0
 40
1.0
 10
329.5422068042137
 20
651.4437363345672
 30
0.0
 10
329.5422064973721
 20
651.4437591354985
 30
0.0
 10
329.4499581157859
 20
651.4437825548591
 30
0.0
 10
329.0834832747693
 20
651.4438306135586
 30
0.0
 10
328.804492064569
 20
651.4438555479849
 30
0.0
 10
328.0635478584076
 20
651.4439051838096
 30
0.0
 10
327.6032424168479
 20
651.4439297918536
 30
0.0
 10
326.5128356465249
 20
651.4439786112653
 30
0.0
 10
325.8784199769566
 20
651.4440029336663
 30
0.0
 10
323.8072969247467
 20
651.4440723493892
 30
0.0
 10
322.1527747239543
 20
651.444115674512
 30
0.0
 10
318.5850824839547
 20
651.4441882168487
 30
0.0
 10
316.6221390357406
 20
651.4442178565357
 30
0.0
 10
313.7076425869353
 20
651.4442480994413
 30
0.0
 10
312.7222286430135
 20
651.4442560981447
 30
0.0
 10
310.8124966157072
 20
651.4442673231396
 30
0.0
 10
309.8821929916797
 20
651.4442706515929
 30
0.0
 10
307.1669840447815
 20
651.4442735974685
 30
0.0
 10
305.5236338947289
 20
651.4442659935725
 30
0.0
 10
302.7558489836811
 20
651.4442303516507
 30
0.0
 10
301.672281312681
 20
651.4442034148775
 30
0.0
 10
300.1696319565873
 20
651.444135704841
 30
0.0
 10
299.7575227834342
 20
651.4440952288971
 30
0.0
 10
299.7575227833947
 20
651.4440495851992
 30
0.0
  0
SPLINE
  5
170
330
161
100
AcDbEntity
  8
DV2_Default
 62
     7
100
AcDbSpline
210
0.0
220
0.0
230
1.0
 70
    12
 71
     5
 72
    17
 73
    11
 74
     0
 42
0.000000001
 43
0.0000000001
 40
0.0
 40
0.0
 40
0.0
 40
0.0
 40
0.0
 40
0.0
 40
0.1666191292229262
 40
0.3334009992387961
 40
0.500182869254667
 40
0.6669647392705379
 40
0.833746609286408
 40
1.0
 40
1.0
 40
1.0
 40
1.0
 40
1.0
 40
1.0
 10
299.6575238351119
 20
651.5440495967102
 30
0.0
 41
1.0
 10
299.6575261983319
 20
672.0165083308003
 30
0.0
 41
1.0
 10
299.6599513768197
 20
708.9302357498981
 30
0.0
 41
1.0
 10
302.149769962479
 20
754.5143913700947
 30
0.0
 41
1.0
 10
316.9574594090609
 20
802.9793585078093
 30
0.0
 41
1.0
 10
360.0498268137537
 20
839.8461985794942
 30
0.0
 41
1.0
 10
413.6576660877743
 20
844.3392159462657
 30
0.0
 41
1.0
 10
450.7255611158919
 20
824.1745745925531
 30
0.0
 41
1.0
 10
469.9744904949765
 20
802.8532792215694
 30
0.0
 41
1.0
 10
479.6898714435047
 20
790.8229345823037
 30
0.0
 41
1.0
 10
483.725263386453
 20
785.6812554665172
 30
0.0
 41
1.0
  0
SPLINE
  5
171
330
161
100
AcDbEntity
  8
DV2_Default
 62
     7
100
AcDbSpline
210
0.0
220
0.0
230
1.0
 70
     8
 71
     3
 72
    26
 73
    22
 74
     0
 42
0.000000001
 43
0.0000000001
 40
0.0
 40
0.0
 40
0.0
 40
0.0
 40
0.125
 40
0.125
 40
0.2500000000000001
 40
0.2500000000000001
 40
0.3750000000000001
 40
0.3750000000000001
 40
0.4375000000000001
 40
0.4375000000000001
 40
0.5000000000000001
 40
0.5000000000000001
 40
0.6250000000000001
 40
0.6250000000000001
 40
0.7500000000000002
 40
0.7500000000000002
 40
0.8125000000000002
 40
0.8125000000000002
 40
0.8750000000000002
 40
0.8750000000000002
 40
1.0
 40
1.0
 40
1.0
 40
1.0
 10
299.6575238351119
 20
651.5440495967102
 30
0.0
 10
299.6575238351517
 20
651.5440951806294
 30
0.0
 10
300.0715828578601
 20
651.5441356439579
 30
0.0
 10
301.5818205215255
 20
651.5442033019311
 30
0.0
 10
302.670871924601
 20
651.544230220922
 30
0.0
 10
305.4534307586114
 20
651.5442659255785
 30
0.0
 10
307.1050141737176
 20
651.5442736173551
 30
0.0
 10
309.8353803484093
 20
651.544270775988
 30
0.0
 10
310.77088291125
 20
651.544267476583
 30
0.0
 10
312.6912613515752
 20
651.5442563013709
 30
0.0
 10
313.6823995067754
 20
651.5442483219372
 30
0.0
 10
316.6142126289617
 20
651.5442181393128
 30
0.0
 10
318.5891586154128
 20
651.5441885779036
 30
0.0
 10
322.1804054345311
 20
651.5441162240446
 30
0.0
 10
323.846591054399
 20
651.5440729947094
 30
0.0
 10
325.9335595764113
 20
651.5440036889399
 30
0.0
 10
326.5731403333572
 20
651.5439793978874
 30
0.0
 10
327.6735861856905
 20
651.543930611395
 30
0.0
 10
328.1385643893554
 20
651.5439060207975
 30
0.0
 10
329.2628154967699
 20
651.5438315952798
 30
0.0
 10
329.642207238307
 20
651.543781807038
 30
0.0
 10
329.6422078559307
 20
651.5437362061554
 30
0.0
  0
ARC
  5
172
330
161
100
AcDbEntity
  8
DV2_Default
 62
     7
100
AcDbCircle
 10
299.7575238351
 20
651.5440495852
 30
0.0
 40
0.0999999999999619
100
AcDbArc
 50
179.9999933861
 51
269.9993974105
  0
ARC
  5
173
330
161
100
AcDbEntity
  8
DV2_Default
 62
     7
100
AcDbCircle
 10
329.5422078559
 20
651.5437363345
 30
0.0
 40
0.1000000000006959
100
AcDbArc
 50
269.9993974109
 51
359.9999264435
  0
LINE
  5
174
330
161
100
AcDbEntity
  8
DV2_Default
 62
     7
100
AcDbLine
 10
303.2019867616
 20
651.4441792414
 30
0.0
 11
316.8060716219
 21
651.4441792414
 31
0.0
  0
LINE
  5
175
330
161
100
AcDbEntity
  8
DV2_Default
 62
     7
100
AcDbLine
 10
456.1495809882
 20
769.8443946566
 30
0.0
 11
457.8149636243
 21
767.3461620346
 31
0.0
  0
LINE
  5
176
330
161
100
AcDbEntity
  8
DV2_Default
 62
     7
100
AcDbLine
 10
456.1495809882
 20
769.8443946566
 30
0.0
 11
455.9114106658
 21
769.67135379
 31
0.0
  0
LINE
  5
177
330
161
100
AcDbEntity
  8
DV2_Default
 62
     7
100
AcDbLine
 10
457.8149636243
 20
767.3461620346
 30
0.0
 11
458.1007986866
 21
767.0640198154
 31
0.0
  0
ARC
  5
178
330
161
100
AcDbEntity
  8
DV2_Default
 62
     7
100
AcDbCircle
 10
458.1885726686
 20
767.1632140557
 30
0.0
 40
0.1324528943428335
100
AcDbArc
 50
228.4953568846
 51
304.2355053946
  0
LINE
  5
179
330
161
100
AcDbEntity
  8
DV2_Default
 62
     7
100
AcDbLine
 10
457.8144978156
 20
767.3458236048
 30
0.0
 11
456.1491113546
 21
769.8440534478
 31
0.0
  0
LINE
  5
17A
330
161
100
AcDbEntity
  8
DV2_Default
 62
     7
100
AcDbLine
 10
458.100270042
 20
767.0636357185
 30
0.0
 11
457.8144978156
 21
767.3458236048
 31
0.0
  0
ARC
  5
17B
330
161
100
AcDbEntity
  8
DV2_Default
 62
     7
100
AcDbCircle
 10
263.0727778557
 20
428.5425663354
 30
0.0
 40
212.3173353346408
100
AcDbArc
 50
58.4730713064
 51
60.0109393742
  0
LINE
  5
17C
330
161
100
AcDbEntity
  8
DV2_Default
 62
     7
100
AcDbLine
 10
374.0938858487
 20
609.520539035
 30
0.0
 11
374.1307794901
 21
609.4977885121
 31
0.0
  0
ARC
  5
17D
330
161
100
AcDbEntity
  8
DV2_Default
 62
     7
100
AcDbCircle
 10
361.2929816396
 20
611.2834926883
 30
0.0
 40
14.88805652660792
100
AcDbArc
 50
332.5683826077
 51
336.2434626288
  0
ARC
  5
17E
330
161
100
AcDbEntity
  8
DV2_Default
 62
     7
100
AcDbCircle
 10
389.0168712013
 20
596.0524156327
 30
0.0
 40
16.75203099523903
100
AcDbArc
 50
150.0146579982
 51
153.0141715881
  0
ARC
  5
17F
330
161
100
AcDbEntity
  8
DV2_Default
 62
     7
100
AcDbCircle
 10
263.2399612935
 20
429.0071438353
 30
0.0
 40
211.8314090355055
100
AcDbArc
 50
59.9872966391
 51
61.5286926802
  0
LINE
  5
180
330
161
100
AcDbEntity
  8
DV2_Default
 62
     7
100
AcDbLine
 10
364.2234205375
 20
615.2189845317
 30
0.0
 11
364.1852937335
 21
615.2396012224
 31
0.0
  0
ARC
  5
181
330
161
100
AcDbEntity
  8
DV2_Default
 62
     7
100
AcDbCircle
 10
372.3531829752
 20
604.8761174724
 30
0.0
 40
15.13329203800509
100
AcDbArc
 50
143.7863247358
 51
147.4018300276
  0
ARC
  5
182
330
161
100
AcDbEntity
  8
DV2_Default
 62
     7
100
AcDbCircle
 10
347.9821474349
 20
619.6405925313
 30
0.0
 40
13.37070905449374
100
AcDbArc
 50
326.6064322371
 51
330.3647381766
  0
ARC
  5
183
330
161
100
AcDbEntity
  8
DV2_Default
 62
     7
100
AcDbCircle
 10
957.2982889366
 20
308.1031412173
 30
0.0
 40
653.8217813042143
100
AcDbArc
 50
153.1040825009
 51
153.1246915039
  0
SPLINE
  5
184
330
161
100
AcDbEntity
  8
DV2_Default
 62
     7
100
AcDbSpline
210
0.0
220
0.0
230
1.0
 70
     8
 71
     3
 72
    18
 73
    14
 74
     0
 42
0.000000001
 43
0.0000000001
 40
0.0
 40
0.0
 40
0.0
 40
0.0
 40
0.1374196848901539
 40
0.2223864479699991
 40
0.2851686038605603
 40
0.3957408489529162
 40
0.501535834519753
 40
0.5758007407374608
 40
0.6825266366447725
 40
0.7190643473835432
 40
0.7695613534853413
 40
0.8573567365559177
 40
1.0
 40
1.0
 40
1.0
 40
1.0
 10
374.9213574888013
 20
605.287493442197
 30
0.0
 10
375.0374829903467
 20
605.5578297571822
 30
0.0
 10
375.1927776928202
 20
605.9265414568719
 30
0.0
 10
375.344770996074
 20
606.422240059249
 30
0.0
 10
375.4432639839778
 20
606.8551128467869
 30
0.0
 10
375.493835956303
 20
607.3122512747731
 30
0.0
 10
375.4620474273612
 20
607.7548611122893
 30
0.0
 10
375.3490307240991
 20
608.1810543717056
 30
0.0
 10
375.2072012387474
 20
608.4672638599909
 30
0.0
 10
375.046197133105
 20
608.70128742649
 30
0.0
 10
374.8874986412268
 20
608.8944448131168
 30
0.0
 10
374.5891688585072
 20
609.1858785323086
 30
0.0
 10
374.3176981886045
 20
609.3717593370338
 30
0.0
 10
374.1152793421944
 20
609.506849560173
 30
0.0
  0
ARC
  5
185
330
161
100
AcDbEntity
  8
DV2_Default
 62
     7
100
AcDbCircle
 10
-73609.0523319983
 20
41134.0861992492
 30
0.0
 40
84357.69604924701
100
AcDbArc
 50
331.2326308884
 51
331.2846150317
  0
ARC
  5
186
330
161
100
AcDbEntity
  8
DV2_Default
 62
     7
100
AcDbCircle
 10
-188.4137920108
 20
969.5803195525
 30
0.0
 40
653.821781084301
100
AcDbArc
 50
326.8753084961
 51
326.8959174991
  0
SPLINE
  5
187
330
161
100
AcDbEntity
  8
DV2_Default
 62
     7
100
AcDbSpline
210
0.0
220
0.0
230
1.0
 70
     8
 71
     3
 72
    12
 73
     8
 74
     0
 42
0.000000001
 43
0.0000000001
 40
0.0
 40
0.0
 40
0.0
 40
0.0
 40
0.2658350599548643
 40
0.4737598958580722
 40
0.6590237057441827
 40
0.7586947713089618
 40
1.0
 40
1.0
 40
1.0
 40
1.0
 10
364.2009808218028
 20
615.2308724797473
 30
0.0
 10
363.8024316814388
 20
615.4226342003652
 30
0.0
 10
363.1918364945636
 20
615.6880322533756
 30
0.0
 10
362.1871525075506
 20
615.6331999145905
 30
0.0
 10
361.50283934268
 20
615.2681306646441
 30
0.0
 10
360.8304554912378
 20
614.6992379619777
 30
0.0
 10
360.4526584914778
 20
614.2198993218088
 30
0.0
 10
360.1430485896451
 20
613.8150900617716
 30
0.0
  0
ARC
  5
188
330
161
100
AcDbEntity
  8
DV2_Default
 62
     7
100
AcDbCircle
 10
71481.5377956328
 20
-42606.172017837
 30
0.0
 40
83223.97004131014
100
AcDbArc
 50
148.7145161304
 51
148.7474567691
  0
LINE
  5
189
330
161
100
AcDbEntity
  8
DV2_Default
 62
     7
100
AcDbLine
 10
459.8777340977
 20
767.9796049248
 30
0.0
 11
460.7906937018
 21
768.6429089035
 31
0.0
  0
LINE
  5
18A
330
161
100
AcDbEntity
  8
DV2_Default
 62
     7
100
AcDbLine
 10
459.7601770472
 20
768.1414083237
 30
0.0
 11
459.8777340977
 21
767.9796049248
 31
0.0
  0
LINE
  5
18B
330
161
100
AcDbEntity
  8
DV2_Default
 62
     7
100
AcDbLine
 10
460.6731366513
 20
768.8047123024
 30
0.0
 11
460.7906937018
 21
768.6429089035
 31
0.0
  0
LINE
  5
18C
330
161
100
AcDbEntity
  8
DV2_Default
 62
     7
100
AcDbLine
 10
329.1498658559
 20
650.9578622825
 30
0.0
 11
300.1498658559
 21
650.9578622825
 31
0.0
  0
LINE
  5
18D
330
161
100
AcDbEntity
  8
DV2_Default
 62
     7
100
AcDbLine
 10
329.1498658559
 20
650.9578622825
 30
0.0
 11
329.1498658559
 21
651.4578622825
 31
0.0
  0
LINE
  5
18E
330
161
100
AcDbEntity
  8
DV2_Default
 62
     7
100
AcDbLine
 10
300.1498658559
 20
651.4578622825
 30
0.0
 11
300.1498658559
 21
650.9578622825
 31
0.0
  0
LINE
  5
18F
330
161
100
AcDbEntity
  8
DV2_Default
 62
     7
100
AcDbLine
 10
287.8498658559
 20
450.957777948
 30
0.0
 11
341.4498658559
 21
450.957777948
 31
0.0
  0
ARC
  5
190
330
161
100
AcDbEntity
  8
DV2_Default
 62
     7
100
AcDbCircle
 10
287.8498658559
 20
451.157777948
 30
0.0
 40
0.2000000000000057
100
AcDbArc
 50
268.3360488673
 51
270.0
  0
ARC
  5
191
330
161
100
AcDbEntity
  8
DV2_Default
 62
     7
100
AcDbCircle
 10
341.4498658559
 20
451.157777948
 30
0.0
 40
0.2
100
AcDbArc
 50
270.0
 51
271.6639511327
  0
LINE
  5
192
330
161
100
AcDbEntity
  8
DV2_Default
 62
     7
100
AcDbLine
 10
461.1225241703
 20
768.8341661944
 30
0.0
 11
462.3649080423
 21
769.7368109135
 31
0.0
  0
LINE
  5
193
330
161
100
AcDbEntity
  8
DV2_Default
 62
     7
100
AcDbLine
 10
542.4455977167
 20
665.6571956506
 30
0.0
 11
546.5611828943
 21
665.8623697665
 31
0.0
  0
LINE
  5
194
330
161
100
AcDbEntity
  8
DV2_Default
 62
     7
100
AcDbLine
 10
527.4755440746
 20
665.1716168408
 30
0.0
 11
529.3072763773
 21
665.2183409001
 31
0.0
  0
SPLINE
  5
195
330
161
100
AcDbEntity
  8
DV2_Default
 62
     7
100
AcDbSpline
210
0.0
220
0.0
230
1.0
 70
     8
 71
     3
 72
    13
 73
     9
 74
     0
 42
0.000000001
 43
0.0000000001
 40
0.0
 40
0.0
 40
0.0
 40
0.0
 40
0.1258827605474856
 40
0.235600629204085
 40
0.3291273091323296
 40
0.4064409188116643
 40
0.8000414960929608
 40
0.9999999999999999
 40
0.9999999999999999
 40
0.9999999999999999
 40
0.9999999999999999
 10
495.0236831578213
 20
665.6026150450559
 30
0.0
 10
494.926763402004
 20
665.6068624015065
 30
0.0
 10
494.7453505489352
 20
665.6148116695443
 30
0.0
 10
494.4763862270751
 20
665.625205802125
 30
0.0
 10
494.2513000876697
 20
665.633485731056
 30
0.0
 10
493.8172563848145
 20
665.6481792929574
 30
0.0
 10
493.3825228716179
 20
665.657599153412
 30
0.0
 10
493.2910436034473
 20
665.6530062767096
 30
0.0
 10
493.2915905993905
 20
665.650219714121
 30
0.0
  0
LINE
  5
196
330
161
100
AcDbEntity
  8
DV2_Default
 62
     7
100
AcDbLine
 10
498.5162978334
 20
665.4538715095
 30
0.0
 11
495.0236932591
 21
665.6026150451
 31
0.0
  0
SPLINE
  5
197
330
161
100
AcDbEntity
  8
DV2_Default
 62
     7
100
AcDbSpline
210
0.0
220
0.0
230
1.0
 70
     8
 71
     3
 72
    14
 73
    10
 74
     0
 42
0.000000001
 43
0.0000000001
 40
0.0
 40
0.0
 40
0.0
 40
0.0
 40
0.1050760135958323
 40
0.1966556076749471
 40
0.2747168185369074
 40
0.3392413706411483
 40
0.667769047581049
 40
0.9969681875667714
 40
0.9999999999999999
 40
0.9999999999999999
 40
0.9999999999999999
 40
0.9999999999999999
 10
500.6892313417038
 20
665.6027442550068
 30
0.0
 10
500.6124044630459
 20
665.6071565116159
 30
0.0
 10
500.468583673449
 20
665.6154142954335
 30
0.0
 10
500.2242286626521
 20
665.6262657317856
 30
0.0
 10
500.003959285035
 20
665.6349282179857
 30
0.0
 10
499.5503292306233
 20
665.650360327545
 30
0.0
 10
498.8252728238703
 20
665.6634693199707
 30
0.0
 10
498.5609447633697
 20
665.6516885627237
 30
0.0
 10
498.555286472854
 20
665.6415767015562
 30
0.0
 10
498.5552454677898
 20
665.6414840795788
 30
0.0
  0
LINE
  5
198
330
161
100
AcDbEntity
  8
DV2_Default
 62
     7
100
AcDbLine
 10
504.224618147
 20
665.4059959689
 30
0.0
 11
500.6892500287
 21
665.602744255
 31
0.0
  0
SPLINE
  5
199
330
161
100
AcDbEntity
  8
DV2_Default
 62
     7
100
AcDbSpline
210
0.0
220
0.0
230
1.0
 70
     8
 71
     3
 72
     9
 73
     5
 74
     0
 42
0.000000001
 43
0.0000000001
 40
0.0
 40
0.0
 40
0.0
 40
0.0
 40
0.9997548699090597
 40
1.0
 40
1.0
 40
1.0
 40
1.0
 10
504.5908322076775
 20
665.3751848549543
 30
0.0
 10
504.5887334379569
 20
665.3833145835475
 30
0.0
 10
504.4501695963335
 20
665.394887396135
 30
0.0
 10
504.2246734075232
 20
665.4059932465468
 30
0.0
 10
504.2246189932189
 20
665.405995968925
 30
0.0
  0
SPLINE
  5
19A
330
161
100
AcDbEntity
  8
DV2_Default
 62
     7
100
AcDbSpline
210
0.0
220
0.0
230
1.0
 70
     8
 71
     3
 72
    15
 73
    11
 74
     0
 42
0.000000001
 43
0.0000000001
 40
0.0
 40
0.0
 40
0.0
 40
0.0
 40
0.0898274723019715
 40
0.1681321898405294
 40
0.2348954368053139
 40
0.2901016379962918
 40
0.5710386305335993
 40
0.8525512347809243
 40
0.9749769264319267
 40
1.0
 40
1.0
 40
1.0
 40
1.0
 10
508.8296550200203
 20
665.6028640761494
 30
0.0
 10
508.78425533878
 20
665.6072754051689
 30
0.0
 10
508.6992340436025
 20
665.6155321933112
 30
0.0
 10
508.5156698633521
 20
665.626382037181
 30
0.0
 10
508.3328378755754
 20
665.6350443400671
 30
0.0
 10
507.9269277726613
 20
665.6504732411717
 30
0.0
 10
507.1456866375744
 20
665.6635684035641
 30
0.0
 10
506.5463565766295
 20
665.6492842184819
 30
0.0
 10
506.4254418661403
 20
665.6313495349752
 30
0.0
 10
506.4269072035204
 20
665.6246363035227
 30
0.0
 10
506.4282111168351
 20
665.6234835720278
 30
0.0
  0
LINE
  5
19B
330
161
100
AcDbEntity
  8
DV2_Default
 62
     7
100
AcDbLine
 10
510.7430056898
 20
665.4060879294
 30
0.0
 11
508.8296793964
 21
665.6028640761
 31
0.0
  0
SPLINE
  5
19C
330
161
100
AcDbEntity
  8
DV2_Default
 62
     7
100
AcDbSpline
210
0.0
220
0.0
230
1.0
 70
     8
 71
     3
 72
     9
 73
     5
 74
     0
 42
0.000000001
 43
0.0000000001
 40
0.0
 40
0.0
 40
0.0
 40
0.0
 40
0.9995072346695245
 40
1.0
 40
1.0
 40
1.0
 40
1.0
 10
510.8351121328254
 20
665.3892248645545
 30
0.0
 10
510.8354096975093
 20
665.3945152899623
 30
0.0
 10
510.8045304212948
 20
665.400261175281
 30
0.0
 10
510.7430359714166
 20
665.4060850595945
 30
0.0
 10
510.7430068064094
 20
665.4060879294028
 30
0.0
  0
ARC
  5
19D
330
161
100
AcDbEntity
  8
DV2_Default
 62
     7
100
AcDbCircle
 10
516.9559175849
 20
652.7309971048
 30
0.0
 40
12.9324051149851
100
AcDbArc
 50
84.4545337689
 51
95.5476269696
  0
LINE
  5
19E
330
161
100
AcDbEntity
  8
DV2_Default
 62
     7
100
AcDbLine
 10
518.2056747837
 20
665.4060965591
 30
0.0
 11
518.2056747839
 21
665.6028763391
 31
0.0
  0
ARC
  5
19F
330
161
100
AcDbEntity
  8
DV2_Default
 62
     7
100
AcDbCircle
 10
516.955398554
 20
680.9842859116
 30
0.0
 40
15.62828132360842
100
AcDbArc
 50
274.5468491465
 51
274.5886205905
  0
SPLINE
  5
1A0
330
161
100
AcDbEntity
  8
DV2_Default
 62
     7
100
AcDbSpline
210
0.0
220
0.0
230
1.0
 70
     8
 71
     3
 72
    14
 73
    10
 74
     0
 42
0.000000001
 43
0.0000000001
 40
0.0
 40
0.0
 40
0.0
 40
0.0
 40
0.0232689628985422
 40
0.0901206929660064
 40
0.1453752130462174
 40
0.4267343033824008
 40
0.7086687382391016
 40
0.8313246001615985
 40
1.0
 40
1.0
 40
1.0
 40
1.0
 10
527.4854111019285
 20
665.6236095028784
 30
0.0
 10
527.4852531588438
 20
665.6246674802829
 30
0.0
 10
527.4813505700522
 20
665.6287245911998
 30
0.0
 10
527.4564456489618
 20
665.6350053490861
 30
0.0
 10
527.3147679355408
 20
665.6504417953596
 30
0.0
 10
526.7685025133572
 20
665.6635612888977
 30
0.0
 10
525.9135265955426
 20
665.649304080569
 30
0.0
 10
525.3452530715817
 20
665.6253840729354
 30
0.0
 10
525.1773435538516
 20
665.6110880287296
 30
0.0
 10
525.08015154492
 20
665.6028108841555
 30
0.0
  0
SPLINE
  5
1A1
330
161
100
AcDbEntity
  8
DV2_Default
 62
     7
100
AcDbSpline
210
0.0
220
0.0
230
1.0
 70
     8
 71
     3
 72
     9
 73
     5
 74
     0
 42
0.000000001
 43
0.0000000001
 40
0.0
 40
0.0
 40
0.0
 40
0.0
 40
0.6259269170535183
 40
1.0
 40
1.0
 40
1.0
 40
1.0
 10
523.1667980756092
 20
665.4060381685076
 30
0.0
 10
523.1342303068933
 20
665.4024999703879
 30
0.0
 10
523.0821972854679
 20
665.3968472367808
 30
0.0
 10
523.0707236051292
 20
665.391485534343
 30
0.0
 10
523.071089054411
 20
665.3895253107677
 30
0.0
  0
LINE
  5
1A2
330
161
100
AcDbEntity
  8
DV2_Default
 62
     7
100
AcDbLine
 10
525.0801270559
 20
665.6028108842
 30
0.0
 11
523.1667991556
 21
665.4060381685
 31
0.0
  0
SPLINE
  5
1A3
330
161
100
AcDbEntity
  8
DV2_Default
 62
     7
100
AcDbSpline
210
0.0
220
0.0
230
1.0
 70
     8
 71
     3
 72
    12
 73
     8
 74
     0
 42
0.000000001
 43
0.0000000001
 40
0.0
 40
0.0
 40
0.0
 40
0.0
 40
0.0004273811629798
 40
0.3295063526464442
 40
0.6592597491349323
 40
0.802685080134644
 40
0.9999999999999999
 40
0.9999999999999999
 40
0.9999999999999999
 40
0.9999999999999999
 10
535.3500503404921
 20
665.6414978569471
 30
0.0
 10
535.3500487168459
 20
665.6415108280762
 30
0.0
 10
535.3486269667487
 20
665.6515062215558
 30
0.0
 10
535.0834934902032
 20
665.6634575240341
 30
0.0
 10
534.2908215249308
 20
665.6491849282862
 30
0.0
 10
533.6356445456315
 20
665.6252600620711
 30
0.0
 10
533.3699941163775
 20
665.6109652556139
 30
0.0
 10
533.2161807577033
 20
665.6026874587191
 30
0.0
  0
SPLINE
  5
1A4
330
161
100
AcDbEntity
  8
DV2_Default
 62
     7
100
AcDbSpline
210
0.0
220
0.0
230
1.0
 70
     8
 71
     3
 72
    11
 73
     7
 74
     0
 42
0.000000001
 43
0.0000000001
 40
0.0
 40
0.0
 40
0.0
 40
0.0
 40
0.3129659936710852
 40
0.585785794415929
 40
0.8183921422007993
 40
1.0
 40
1.0
 40
1.0
 40
1.0
 10
529.6807912552187
 20
665.4059415266347
 30
0.0
 10
529.6120687904204
 20
665.4015361545138
 30
0.0
 10
529.4834377389008
 20
665.3932904959346
 30
0.0
 10
529.370823965791
 20
665.3831752652428
 30
0.0
 10
529.3171648924869
 20
665.3756707176327
 30
0.0
 10
529.3070049570473
 20
665.3718883589423
 30
0.0
 10
529.3072012515169
 20
665.3703828622506
 30
0.0
  0
LINE
  5
1A5
330
161
100
AcDbEntity
  8
DV2_Default
 62
     7
100
AcDbLine
 10
533.2161620023
 20
665.6026874587
 30
0.0
 11
529.6807920794
 21
665.4059415266
 31
0.0
  0
SPLINE
  5
1A6
330
161
100
AcDbEntity
  8
DV2_Default
 62
     7
100
AcDbSpline
210
0.0
220
0.0
230
1.0
 70
     8
 71
     3
 72
    11
 73
     7
 74
     0
 42
0.000000001
 43
0.0000000001
 40
0.0
 40
0.0
 40
0.0
 40
0.0
 40
0.1957575867795396
 40
0.5912872959698605
 40
0.7633309907077581
 40
1.0
 40
1.0
 40
1.0
 40
1.0
 10
540.6008228817478
 20
665.6531695102659
 30
0.0
 10
540.6009971839411
 20
665.6558740954185
 30
0.0
 10
540.5110859770016
 20
665.6603557920904
 30
0.0
 10
540.0274267187547
 20
665.6490430554096
 30
0.0
 10
539.3850916065935
 20
665.625123620293
 30
0.0
 10
539.0621465098724
 20
665.6108306833341
 30
0.0
 10
538.8751521988208
 20
665.6025542211725
 30
0.0
  0
LINE
  5
1A7
330
161
100
AcDbEntity
  8
DV2_Default
 62
     7
100
AcDbLine
 10
538.8751420558
 20
665.6025542212
 30
0.0
 11
535.3745879407
 21
665.4534749333
 31
0.0
  0
LINE
  5
1A8
330
161
100
AcDbEntity
  8
DV2_Default
 62
     7
100
AcDbLine
 10
504.5836653017
 20
665.2510757689
 30
0.0
 11
506.4153976049
 21
665.1839248503
 31
0.0
  0
LINE
  5
1A9
330
161
100
AcDbEntity
  8
DV2_Default
 62
     7
100
AcDbLine
 10
487.3295808776
 20
665.8603264525
 30
0.0
 11
493.2915905994
 21
665.6502197141
 31
0.0
  0
LINE
  5
1AA
330
161
100
AcDbEntity
  8
DV2_Default
 62
     7
100
AcDbLine
 10
540.5995495028
 20
665.6535171442
 30
0.0
 11
545.9486061536
 21
665.8611972149
 31
0.0
  0
ARC
  5
1AB
330
161
100
AcDbEntity
  8
DV2_Default
 62
     7
100
AcDbCircle
 10
487.3303767918
 20
665.9603232991
 30
0.0
 40
0.1000000140491296
100
AcDbArc
 50
198.6199366761
 51
269.5439699725
  0
LINE
  5
1AC
330
161
100
AcDbEntity
  8
DV2_Default
 62
     7
100
AcDbLine
 10
546.6556731804
 20
665.9625908316
 30
0.0
 11
546.6542346234
 21
666.0148064087
 31
0.0
  0
LINE
  5
1AD
330
161
100
AcDbEntity
  8
DV2_Default
 62
     7
100
AcDbLine
 10
487.2354043688
 20
666.0416526048
 30
0.0
 11
487.2354043688
 21
665.9283204056
 31
0.0
  0
ARC
  5
1AE
330
161
100
AcDbEntity
  8
DV2_Default
 62
     7
100
AcDbCircle
 10
546.5556912781
 20
665.962206959
 30
0.0
 40
0.1000000281503735
100
AcDbArc
 50
271.578311771
 51
0.4794000353
  0
ARC
  5
1AF
330
161
100
AcDbEntity
  8
DV2_Default
 62
     7
100
AcDbCircle
 10
452.6524861343
 20
693.0305569027
 30
0.0
 40
31.35296383629312
100
AcDbArc
 50
345.6922680442
 51
0.677201306
  0
SPLINE
  5
1B0
330
161
100
AcDbEntity
  8
DV2_Default
 62
     7
100
AcDbSpline
210
0.0
220
0.0
230
1.0
 70
     8
 71
     3
 72
     8
 73
     4
 74
     0
 42
0.000000001
 43
0.0000000001
 40
0.0
 40
0.0
 40
0.0
 40
0.0
 40
1.0
 40
1.0
 40
1.0
 40
1.0
 10
482.9787659683769
 20
679.7319833927304
 30
0.0
 10
482.9247308115344
 20
681.283873166322
 30
0.0
 10
482.8557308195952
 20
682.8148053863113
 30
0.0
 10
482.7725625040593
 20
684.3248495332983
 30
0.0
  0
SPLINE
  5
1B1
330
161
100
AcDbEntity
  8
DV2_Default
 62
     7
100
AcDbSpline
210
0.0
220
0.0
230
1.0
 70
     8
 71
     3
 72
     8
 73
     4
 74
     0
 42
0.000000001
 43
0.0000000001
 40
0.0
 40
0.0
 40
0.0
 40
0.0
 40
1.0
 40
1.0
 40
1.0
 40
1.0
 10
482.9787659683769
 20
679.7319833927304
 30
0.0
 10
483.1247220067044
 20
675.5401257885111
 30
0.0
 10
483.1614854208506
 20
671.1953591768101
 30
0.0
 10
483.0732653478134
 20
666.6963130326452
 30
0.0
  0
SPLINE
  5
1B2
330
161
100
AcDbEntity
  8
DV2_Default
 62
     7
100
AcDbSpline
210
0.0
220
0.0
230
1.0
 70
     8
 71
     3
 72
    14
 73
    10
 74
     0
 42
0.000000001
 43
0.0000000001
 40
0.0
 40
0.0
 40
0.0
 40
0.0
 40
0.2499999999999995
 40
0.2499999999999995
 40
0.4999999999999997
 40
0.4999999999999997
 40
0.7499999999999998
 40
0.7499999999999998
 40
1.0
 40
1.0
 40
1.0
 40
1.0
 10
550.5569167202866
 20
666.8670969665878
 30
0.0
 10
543.0991289694007
 20
684.0412576190869
 30
0.0
 10
535.899999660728
 20
699.0768328030155
 30
0.0
 10
522.3103024145994
 20
725.5038615605288
 30
0.0
 10
515.9172396499058
 20
736.9016196384969
 30
0.0
 10
504.2775065835972
 20
756.3843431796431
 30
0.0
 10
499.0313836136784
 20
764.4694880061583
 30
0.0
 10
490.1670714029426
 20
777.3712530140658
 30
0.0
 10
486.5499368340135
 20
782.1803196979104
 30
0.0
 10
484.0939691591361
 20
785.2881212017801
 30
0.0
  0
ARC
  5
1B3
330
161
100
AcDbEntity
  8
DV2_Default
 62
     7
100
AcDbCircle
 10
353.79626987
 20
697.3276616295
 30
0.0
 40
125.2129357839348
100
AcDbArc
 50
23.1175032965
 51
33.5157276494
  0
ARC
  5
1B4
330
161
100
AcDbEntity
  8
DV2_Default
 62
     7
100
AcDbCircle
 10
464.4251863824
 20
715.5880820046
 30
0.0
 40
16.40929005063901
100
AcDbArc
 50
16.4804922797
 51
43.133118714
  0
SPLINE
  5
1B5
330
161
100
AcDbEntity
  8
DV2_Default
 62
     7
100
AcDbSpline
210
0.0
220
0.0
230
1.0
 70
     8
 71
     3
 72
     8
 73
     4
 74
     0
 42
0.000000001
 43
0.0000000001
 40
0.0
 40
0.0
 40
0.0
 40
0.0
 40
1.0
 40
1.0
 40
1.0
 40
1.0
 10
480.1603233816465
 20
720.2432150403836
 30
0.0
 10
480.1438527380921
 20
720.236563618294
 30
0.0
 10
480.1273811322801
 20
720.2299119900644
 30
0.0
 10
480.1174903761766
 20
720.2247312820925
 30
0.0
  0
SPLINE
  5
1B6
330
161
100
AcDbEntity
  8
DV2_Default
 62
     7
100
AcDbSpline
210
0.0
220
0.0
230
1.0
 70
     8
 71
     3
 72
    12
 73
     8
 74
     0
 42
0.000000001
 43
0.0000000001
 40
0.0
 40
0.0
 40
0.0
 40
0.0
 40
0.2216510999614393
 40
0.4578689308046547
 40
0.7071562325186568
 40
0.967189116171143
 40
0.9999999999999999
 40
0.9999999999999999
 40
0.9999999999999999
 40
0.9999999999999999
 10
484.0032600223503
 20
693.4011212599938
 30
0.0
 10
483.9952900619434
 20
693.402591227326
 30
0.0
 10
483.9788270751573
 20
693.4056278234018
 30
0.0
 10
483.966945649874
 20
693.411095458504
 30
0.0
 10
483.9660913253842
 20
693.4171972882664
 30
0.0
 10
483.9751443318177
 20
693.4216738173008
 30
0.0
 10
483.9829050997722
 20
693.4240615134332
 30
0.0
 10
483.9838104256972
 20
693.4243282768333
 30
0.0
  0
ARC
  5
1B7
330
161
100
AcDbEntity
  8
DV2_Default
 62
     7
100
AcDbCircle
 10
483.2725394276
 20
684.3525198133
 30
0.0
 40
0.5007420178779558
100
AcDbArc
 50
145.2371535031
 51
183.1676954386
  0
ARC
  5
1B8
330
161
100
AcDbEntity
  8
DV2_Default
 62
     7
100
AcDbCircle
 10
452.5568785306
 20
693.042771863
 30
0.0
 40
31.44820706701196
100
AcDbArc
 50
344.4989210073
 51
345.7180489832
  0
SPLINE
  5
1B9
330
161
100
AcDbEntity
  8
DV2_Default
 62
     7
100
AcDbSpline
210
0.0
220
0.0
230
1.0
 70
     8
 71
     3
 72
     8
 73
     4
 74
     0
 42
0.000000001
 43
0.0000000001
 40
0.0
 40
0.0
 40
0.0
 40
0.0
 40
1.0
 40
1.0
 40
1.0
 40
1.0
 10
483.0797188968275
 20
666.6056805192462
 30
0.0
 10
483.0746803727068
 20
666.6365182669678
 30
0.0
 10
483.072637973108
 20
666.66700669752
 30
0.0
 10
483.0732653478134
 20
666.6963130326452
 30
0.0
  0
ARC
  5
1BA
330
161
100
AcDbEntity
  8
DV2_Default
 62
     7
100
AcDbCircle
 10
550.0976793506
 20
666.6693655875
 30
0.0
 40
0.4999966599977206
100
AcDbArc
 50
273.5380410729
 51
23.2950030247
  0
ARC
  5
1BB
330
161
100
AcDbEntity
  8
DV2_Default
 62
     7
100
AcDbCircle
 10
483.5732365218
 20
666.6866055387
 30
0.0
 40
0.5001084931360928
100
AcDbArc
 50
189.3122568123
 51
266.6059975218
  0
SPLINE
  5
1BC
330
161
100
AcDbEntity
  8
DV2_Default
 62
     7
100
AcDbSpline
210
0.0
220
0.0
230
1.0
 70
     8
 71
     3
 72
    63
 73
    59
 74
     0
 42
0.000000001
 43
0.0000000001
 40
0.0
 40
0.0
 40
0.0
 40
0.0
 40
0.0071612271338299
 40
0.0253767813066851
 40
0.0435906273507367
 40
0.0618200580442185
 40
0.0800674350285232
 40
0.0983344043633373
 40
0.1166096237554115
 40
0.1348315092459636
 40
0.1529797707472316
 40
0.1711618338606678
 40
0.1894345941839416
 40
0.207748034957419
 40
0.2260423750569158
 40
0.2442640698318171
 40
0.2624262386603308
 40
0.280584001017632
 40
0.2987930606964195
 40
0.3170865267135128
 40
0.3354100865564837
 40
0.3537101334026586
 40
0.3719863090734983
 40
0.3902589261887869
 40
0.4085654929163424
 40
0.4268928898115406
 40
0.4451805039470202
 40
0.4634252616437997
 40
0.4816627877579003
 40
0.4999294003008197
 40
0.5182426022460577
 40
0.5365447450811006
 40
0.5547851295145634
 40
0.5729749101330356
 40
0.5911550664472862
 40
0.6093975573531775
 40
0.6277031103469435
 40
0.6460002771504468
 40
0.6642395637746037
 40
0.6824003806475384
 40
0.7005593882693145
 40
0.7188057718823331
 40
0.7371113232923546
 40
0.7554169280322501
 40
0.7736643469763399
 40
0.7918379415950585
 40
0.8099881704211606
 40
0.8281710827269458
 40
0.8464357354221685
 40
0.864754643100446
 40
0.8830592452967629
 40
0.9013411610252794
 40
0.91961625579929
 40
0.9378924677952947
 40
0.9561745078961427
 40
0.974466072474163
 40
0.9927615134535464
 40
1.0
 40
1.0
 40
1.0
 40
1.0
 10
483.6661173771604
 20
666.1801645262957
 30
0.0
 10
483.6869568601662
 20
666.1801920820833
 30
0.0
 10
483.7702898147483
 20
666.1802753661306
 30
0.0
 10
483.9640478017574
 20
666.1804038118348
 30
0.0
 10
484.3063480313602
 20
666.1805344092726
 30
0.0
 10
484.7441973456822
 20
666.1806413354145
 30
0.0
 10
485.2767009076256
 20
666.1807190392874
 30
0.0
 10
485.9020094166756
 20
666.1807879642829
 30
0.0
 10
486.617448060204
 20
666.1808461683625
 30
0.0
 10
487.418819273843
 20
666.1808890631239
 30
0.0
 10
488.3050596699675
 20
666.1809131245928
 30
0.0
 10
489.276999207221
 20
666.1809204266677
 30
0.0
 10
490.3327994643213
 20
666.1809139993217
 30
0.0
 10
491.4674374660422
 20
666.1808996366334
 30
0.0
 10
492.6742866787351
 20
666.180882068933
 30
0.0
 10
493.9483269950823
 20
666.180868081393
 30
0.0
 10
495.2867429053775
 20
666.1808529568918
 30
0.0
 10
496.6885241499897
 20
666.180826635089
 30
0.0
 10
498.1531464240391
 20
666.1807803701081
 30
0.0
 10
499.6768646642138
 20
666.1807051593645
 30
0.0
 10
501.2531388764236
 20
666.1806207610516
 30
0.0
 10
502.8748766819756
 20
666.1805418813958
 30
0.0
 10
504.5364225410062
 20
666.1804581243468
 30
0.0
 10
506.2347572747024
 20
666.1803592341363
 30
0.0
 10
507.966267535106
 20
666.1802211922021
 30
0.0
 10
509.7244308518629
 20
666.1800471833965
 30
0.0
 10
511.5016092172277
 20
666.179869303575
 30
0.0
 10
513.2917937484013
 20
666.1796928856785
 30
0.0
 10
515.0919279846711
 20
666.17951444299
 30
0.0
 10
516.8996198529534
 20
666.1793322996053
 30
0.0
 10
518.7094080462342
 20
666.179145113836
 30
0.0
 10
520.5130559783119
 20
666.1789274901147
 30
0.0
 10
522.3019682976017
 20
666.1786614512068
 30
0.0
 10
524.0710812560982
 20
666.1783762499796
 30
0.0
 10
525.81935013911
 20
666.178091690286
 30
0.0
 10
527.545176972597
 20
666.1778267682806
 30
0.0
 10
529.2437657420319
 20
666.177580355955
 30
0.0
 10
530.905938781756
 20
666.1773280541307
 30
0.0
 10
532.5226310681361
 20
666.1770608247284
 30
0.0
 10
534.0898839469965
 20
666.1767689704283
 30
0.0
 10
535.6065971281015
 20
666.1764708497886
 30
0.0
 10
537.0721038938001
 20
666.1761908425963
 30
0.0
 10
538.4830300600664
 20
666.1759214452576
 30
0.0
 10
539.8317614402814
 20
666.1756566341184
 30
0.0
 10
541.1108103835784
 20
666.1753890925523
 30
0.0
 10
542.3150393032148
 20
666.1751156853281
 30
0.0
 10
543.4429539296424
 20
666.17484350737
 30
0.0
 10
544.4945672070478
 20
666.1745769685234
 30
0.0
 10
545.4687611021897
 20
666.1743236685707
 30
0.0
 10
546.3623520867231
 20
666.1740769457831
 30
0.0
 10
547.1699156420298
 20
666.1738193302473
 30
0.0
 10
547.8873118805734
 20
666.1735670043341
 30
0.0
 10
548.5120935741904
 20
666.1733418601804
 30
0.0
 10
549.0436297461268
 20
666.1731330101514
 30
0.0
 10
549.4809603996622
 20
666.1729294039369
 30
0.0
 10
549.8239052183935
 20
666.172721038442
 30
0.0
 10
550.0196716799977
 20
666.1725397182992
 30
0.0
 10
550.1044810229869
 20
666.1724269790417
 30
0.0
 10
550.125796114512
 20
666.1723907564729
 30
0.0
  0
ARC
  5
1BD
330
161
100
AcDbEntity
  8
DV2_Default
 62
     7
100
AcDbCircle
 10
519.768211071
 20
1267.8913355634
 30
0.0
 40
602.7933811986126
100
AcDbArc
 50
266.5547616512
 51
266.6992826191
  0
LINE
  5
1BE
330
161
100
AcDbEntity
  8
DV2_Default
 62
     7
100
AcDbLine
 10
485.0614616906
 20
666.0979308282
 30
0.0
 11
486.0672092615
 21
666.0407703112
 31
0.0
  0
SPLINE
  5
1BF
330
161
100
AcDbEntity
  8
DV2_Default
 62
     7
100
AcDbSpline
210
0.0
220
0.0
230
1.0
 70
     8
 71
     3
 72
     9
 73
     5
 74
     0
 42
0.000000001
 43
0.0000000001
 40
0.0
 40
0.0
 40
0.0
 40
0.0
 40
0.3268658386418733
 40
1.0
 40
1.0
 40
1.0
 40
1.0
 10
486.0668753153337
 20
666.0414176464942
 30
0.0
 10
486.1601374036463
 20
666.041448071241
 30
0.0
 10
486.4793399526299
 20
666.0415309640182
 30
0.0
 10
486.9041784814349
 20
666.0415980639584
 30
0.0
 10
487.2366453868168
 20
666.0416292755496
 30
0.0
  0
SPLINE
  5
1C0
330
161
100
AcDbEntity
  8
DV2_Default
 62
     7
100
AcDbSpline
210
0.0
220
0.0
230
1.0
 70
     8
 71
     3
 72
    22
 73
    18
 74
     0
 42
0.000000001
 43
0.0000000001
 40
0.0
 40
0.0
 40
0.0
 40
0.0
 40
0.125
 40
0.125
 40
0.25
 40
0.25
 40
0.375
 40
0.375
 40
0.5
 40
0.5
 40
0.625
 40
0.625
 40
0.75
 40
0.75
 40
0.875
 40
0.875
 40
1.0
 40
1.0
 40
1.0
 40
1.0
 10
483.820397104127
 20
785.3257925353626
 30
0.0
 10
483.8200371803705
 20
785.3260483138038
 30
0.0
 10
483.4870651832299
 20
785.0839657592934
 30
0.0
 10
482.2054674518503
 20
784.1524688228361
 30
0.0
 10
481.2573460395049
 20
783.463420994518
 30
0.0
 10
478.8893744986256
 20
781.7425911839966
 30
0.0
 10
477.470456191257
 20
780.7114863660295
 30
0.0
 10
474.3766370933114
 20
778.4633218988854
 30
0.0
 10
472.7029537523813
 20
777.2471469255578
 30
0.0
 10
469.3543244328411
 20
774.8139332964439
 30
0.0
 10
467.6806961743217
 20
773.5978521352557
 30
0.0
 10
464.5870891030962
 20
771.3500487757696
 30
0.0
 10
463.1683276566025
 20
770.3192111112209
 30
0.0
 10
460.8007478878638
 20
768.5990485369795
 30
0.0
 10
459.8528612326178
 20
767.9104005289589
 30
0.0
 10
458.5717753710633
 20
766.9797753699521
 30
0.0
 10
458.2390802852221
 20
766.7381644295416
 30
0.0
 10
458.2390881417646
 20
766.7387663270175
 30
0.0
  0
ARC
  5
1C1
330
161
100
AcDbEntity
  8
DV2_Default
 62
     7
100
AcDbCircle
 10
458.3571547976
 20
766.5771318323
 30
0.0
 40
0.1997905413390741
100
AcDbArc
 50
126.1464535695
 51
213.7177117667
  0
ARC
  5
1C2
330
161
100
AcDbEntity
  8
DV2_Default
 62
     7
100
AcDbCircle
 10
483.9371251235
 20
785.1642990947
 30
0.0
 40
0.1997905412041718
100
AcDbArc
 50
38.2896835811
 51
125.8595494747
  0
ARC
  5
1C3
330
161
100
AcDbEntity
  8
DV2_Default
 62
     7
100
AcDbCircle
 10
395.5335971847
 20
705.692515639
 30
0.0
 40
83.57764252137925
100
AcDbArc
 50
14.4710460456
 51
18.855059849
  0
ARC
  5
1C4
330
161
100
AcDbEntity
  8
DV2_Default
 62
     7
100
AcDbCircle
 10
279.3691254123
 20
677.5827307967
 30
0.0
 40
205.2273038390692
100
AcDbArc
 50
4.3747586909
 51
11.992249481
  0
LINE
  5
1C5
330
161
100
AcDbEntity
  8
DV2_Default
 62
     7
100
AcDbLine
 10
546.6542346234
 20
666.0148064087
 30
0.0
 11
549.4805943138
 21
666.163563811
 31
0.0
  0
ARC
  5
1C6
330
161
100
AcDbEntity
  8
DV2_Default
 62
     7
100
AcDbCircle
 10
459.2499537776
 20
734.8016811131
 30
0.0
 40
15.51903248651757
100
AcDbArc
 50
351.771500618
 51
52.5797751376
  0
LINE
  5
1C7
330
161
100
AcDbEntity
  8
DV2_Default
 62
     7
100
AcDbLine
 10
523.2601672028
 20
664.5905530995
 30
0.0
 11
518.0915198318
 21
664.5905530995
 31
0.0
  0
LINE
  5
1C8
330
161
100
AcDbEntity
  8
DV2_Default
 62
     7
100
AcDbLine
 10
497.6787160249
 20
664.3962631778
 30
0.0
 11
497.6905421646
 21
664.3958667145
 31
0.0
  0
ARC
  5
1C9
330
161
100
AcDbEntity
  8
DV2_Default
 62
     7
100
AcDbCircle
 10
516.8393909453
 20
1236.0109884783
 30
0.0
 40
571.9357650639257
100
AcDbArc
 50
267.5785030439
 51
268.0801493406
  0
LINE
  5
1CA
330
161
100
AcDbEntity
  8
DV2_Default
 62
     7
100
AcDbLine
 10
492.6937028288
 20
664.5845537308
 30
0.0
 11
493.6951377671
 21
664.5431529388
 31
0.0
  0
SPLINE
  5
1CB
330
161
100
AcDbEntity
  8
DV2_Default
 62
     7
100
AcDbSpline
210
0.0
220
0.0
230
1.0
 70
     8
 71
     3
 72
    10
 73
     6
 74
     0
 42
0.000000001
 43
0.0000000001
 40
0.0
 40
0.0
 40
0.0
 40
0.0
 40
0.5
 40
0.5
 40
1.0
 40
1.0
 40
1.0
 40
1.0
 10
497.6905445652287
 20
664.3959383634224
 30
0.0
 10
497.8849304253163
 20
664.389348421739
 30
0.0
 10
498.0768894143579
 20
664.3826547184806
 30
0.0
 10
498.3496021786117
 20
664.3731439921847
 30
0.0
 10
498.4287432708439
 20
664.3703832106893
 30
0.0
 10
498.4287382845507
 20
664.3703820442495
 30
0.0
  0
LINE
  5
1CC
330
161
100
AcDbEntity
  8
DV2_Default
 62
     7
100
AcDbLine
 10
491.9243701068
 20
664.6168137301
 30
0.0
 11
492.6748107081
 21
664.5859344063
 31
0.0
  0
LINE
  5
1CD
330
161
100
AcDbEntity
  8
DV2_Default
 62
     7
100
AcDbLine
 10
536.214536214
 20
664.3958712745
 30
0.0
 11
536.195461902
 21
664.3952198956
 31
0.0
  0
LINE
  5
1CE
330
161
100
AcDbEntity
  8
DV2_Default
 62
     7
100
AcDbLine
 10
537.1970189305
 20
664.4296341093
 30
0.0
 11
536.214536214
 21
664.3958712745
 31
0.0
  0
ARC
  5
1CF
330
161
100
AcDbEntity
  8
DV2_Default
 62
     7
100
AcDbCircle
 10
516.9452168381
 20
1239.0728597035
 30
0.0
 40
574.9994762674401
100
AcDbArc
 50
271.9202190893
 51
272.4191928871
  0
LINE
  5
1D0
330
161
100
AcDbEntity
  8
DV2_Default
 62
     7
100
AcDbLine
 10
536.2003998325
 20
664.3958667236
 30
0.0
 11
536.2122259856
 21
664.3962631888
 31
0.0
  0
LINE
  5
1D1
330
161
100
AcDbEntity
  8
DV2_Default
 62
     7
100
AcDbLine
 10
540.1958039112
 20
664.5431529388
 30
0.0
 11
541.1972388495
 21
664.5845537308
 31
0.0
  0
SPLINE
  5
1D2
330
161
100
AcDbEntity
  8
DV2_Default
 62
     7
100
AcDbSpline
210
0.0
220
0.0
230
1.0
 70
     8
 71
     3
 72
    10
 73
     6
 74
     0
 42
0.000000001
 43
0.0000000001
 40
0.0
 40
0.0
 40
0.0
 40
0.0
 40
0.5
 40
0.5
 40
1.0
 40
1.0
 40
1.0
 40
1.0
 10
535.4622033842606
 20
664.3703820347878
 30
0.0
 10
535.4622037727
 20
664.370380702121
 30
0.0
 10
535.541344812908
 20
664.3731388174019
 30
0.0
 10
535.8140560182064
 20
664.3826456677116
 30
0.0
 10
536.0060135223458
 20
664.3893381845653
 30
0.0
 10
536.2003997851087
 20
664.3958757487264
 30
0.0
  0
LINE
  5
1D3
330
161
100
AcDbEntity
  8
DV2_Default
 62
     7
100
AcDbLine
 10
536.195461902
 20
664.3952198956
 30
0.0
 11
536.1982157479
 21
664.395313938
 31
0.0
  0
SPLINE
  5
1D4
330
161
100
AcDbEntity
  8
DV2_Default
 62
     7
100
AcDbSpline
210
0.0
220
0.0
230
1.0
 70
     8
 71
     3
 72
    10
 73
     6
 74
     0
 42
0.000000001
 43
0.0000000001
 40
0.0
 40
0.0
 40
0.0
 40
0.0
 40
0.5
 40
0.5
 40
1.0
 40
1.0
 40
1.0
 40
1.0
 10
541.2161382830986
 20
664.5858536885527
 30
0.0
 10
541.4125552268516
 20
664.5940922203598
 30
0.0
 10
541.6078153966646
 20
664.6021012944956
 30
0.0
 10
541.8856824546432
 20
664.6134978118233
 30
0.0
 10
541.9665757860657
 20
664.6168149747192
 30
0.0
 10
541.9665715859705
 20
664.6168137338171
 30
0.0
  0
LINE
  5
1D5
330
161
100
AcDbEntity
  8
DV2_Default
 62
     7
100
AcDbLine
 10
535.032886248
 20
664.3962629099
 30
0.0
 11
535.0219383327
 21
664.3958667146
 31
0.0
  0
ARC
  5
1D6
330
161
100
AcDbEntity
  8
DV2_Default
 62
     7
100
AcDbCircle
 10
517.3268908013
 20
1152.3936142851
 30
0.0
 40
488.3184545760633
100
AcDbArc
 50
272.0779497834
 51
272.6208391215
  0
SPLINE
  5
1D7
330
161
100
AcDbEntity
  8
DV2_Default
 62
     7
100
AcDbSpline
210
0.0
220
0.0
230
1.0
 70
     8
 71
     3
 72
     8
 73
     4
 74
     0
 42
0.000000001
 43
0.0000000001
 40
0.0
 40
0.0
 40
0.0
 40
0.0
 40
1.0
 40
1.0
 40
1.0
 40
1.0
 10
539.9071215517582
 20
664.5982365281675
 30
0.0
 10
539.8360064527749
 20
664.5943793463144
 30
0.0
 10
539.7502857094495
 20
664.5901784698578
 30
0.0
 10
539.6558976880499
 20
664.5859385244141
 30
0.0
  0
LINE
  5
1D8
330
161
100
AcDbEntity
  8
DV2_Default
 62
     7
100
AcDbLine
 10
531.0999097806
 20
664.3962629092
 30
0.0
 11
531.091498786
 21
664.3958667143
 31
0.0
  0
ARC
  5
1D9
330
161
100
AcDbEntity
  8
DV2_Default
 62
     7
100
AcDbCircle
 10
517.5301969154
 20
950.6357212573
 30
0.0
 40
286.5609223022859
100
AcDbArc
 50
272.7141807201
 51
273.4226577499
  0
SPLINE
  5
1DA
330
161
100
AcDbEntity
  8
DV2_Default
 62
     7
100
AcDbSpline
210
0.0
220
0.0
230
1.0
 70
     8
 71
     3
 72
    10
 73
     6
 74
     0
 42
0.000000001
 43
0.0000000001
 40
0.0
 40
0.0
 40
0.0
 40
0.0
 40
0.98816383146757
 40
0.98816383146757
 40
1.0
 40
1.0
 40
1.0
 40
1.0
 10
531.091497083555
 20
664.395935875867
 30
0.0
 10
530.9518495174389
 20
664.3893384777073
 30
0.0
 10
530.7579313366706
 20
664.3826458455875
 30
0.0
 10
530.5611454815173
 20
664.3778353787701
 30
0.0
 10
530.5588165436723
 20
664.3777787275452
 30
0.0
 10
530.5564879502728
 20
664.3777223639046
 30
0.0
  0
ARC
  5
1DB
330
161
100
AcDbEntity
  8
DV2_Default
 62
     7
100
AcDbCircle
 10
517.6111484894
 20
748.8765075064
 30
0.0
 40
84.80379901612508
100
AcDbArc
 50
275.0066204466
 51
276.3067440153
  0
ARC
  5
1DC
330
161
100
AcDbEntity
  8
DV2_Default
 62
     7
100
AcDbCircle
 10
516.9450837232
 20
674.2498978166
 30
0.0
 40
9.88253559177762
100
AcDbArc
 50
268.1136359269
 51
274.3580434115
  0
SPLINE
  5
1DD
330
161
100
AcDbEntity
  8
DV2_Default
 62
     7
100
AcDbSpline
210
0.0
220
0.0
230
1.0
 70
    12
 71
     3
 72
     8
 73
     4
 74
     0
 42
0.000000001
 43
0.0000000001
 40
0.0
 40
0.0
 40
0.0
 40
0.0
 40
1.0
 40
1.0
 40
1.0
 40
1.0
 10
517.6960465859557
 20
664.3959359483412
 30
0.0
 41
1.171368534351988
 10
517.9887160695882
 20
664.3961128404333
 30
0.0
 41
0.942871912754898
 10
518.1954702201471
 20
664.6030549990429
 30
0.0
 41
0.9428771553362527
 10
518.1953055985346
 20
664.8955949942721
 30
0.0
 41
1.171384262096053
  0
ARC
  5
1DE
330
161
100
AcDbEntity
  8
DV2_Default
 62
     7
100
AcDbCircle
 10
516.1956134142
 20
664.8958513247
 30
0.0
 40
0.4999760697431486
100
AcDbArc
 50
180.0217971852
 51
210.930083306
  0
LINE
  5
1DF
330
161
100
AcDbEntity
  8
DV2_Default
 62
     7
100
AcDbLine
 10
518.1954667181
 20
665.6064966231
 30
0.0
 11
518.1954635421
 21
665.0854552218
 31
0.0
  0
LINE
  5
1E0
330
161
100
AcDbEntity
  8
DV2_Default
 62
     7
100
AcDbLine
 10
518.1954708236
 20
664.8959911178
 30
0.0
 11
518.1954708554
 21
665.0854261501
 31
0.0
  0
ELLIPSE
  5
1E1
330
161
100
AcDbEntity
  8
DV2_Default
 62
     7
100
AcDbEllipse
 10
517.6954708234
 20
664.8959911689
 30
0.0
 11
-0.5000000002242377
 21
-2.065420057206779E-8
 31
0.0
210
0.0
220
0.0
230
1.0
 40
0.9994384547
 41
2.900863655189033
 42
3.141592653589793
  0
LINE
  5
1E2
330
161
100
AcDbEntity
  8
DV2_Default
 62
     7
100
AcDbLine
 10
515.6954767378
 20
665.0854258777
 30
0.0
 11
515.6954740553
 21
665.629959846
 31
0.0
  0
LINE
  5
1E3
330
161
100
AcDbEntity
  8
DV2_Default
 62
     7
100
AcDbLine
 10
515.6954708115
 20
665.0854259265
 30
0.0
 11
515.6954708689
 21
664.8959909392
 31
0.0
  0
ELLIPSE
  5
1E4
330
161
100
AcDbEntity
  8
DV2_Default
 62
     7
100
AcDbEllipse
 10
516.1954708691
 20
664.8959911123
 30
0.0
 11
0.5000000001127297
 21
1.363120727404521E-8
 31
0.0
210
0.0
220
0.0
230
1.0
 40
0.9994384514
 41
3.141592653589937
 42
3.956671415723096
  0
ARC
  5
1E5
330
161
100
AcDbEntity
  8
DV2_Default
 62
     7
100
AcDbCircle
 10
516.3624661631
 20
950.67335173
 30
0.0
 40
286.5985921492746
100
AcDbArc
 50
266.5774481833
 51
267.2858310805
  0
LINE
  5
1E6
330
161
100
AcDbEntity
  8
DV2_Default
 62
     7
100
AcDbLine
 10
502.7994478584
 20
664.3958667199
 30
0.0
 11
502.7910313683
 21
664.3962629328
 31
0.0
  0
ARC
  5
1E7
330
161
100
AcDbEntity
  8
DV2_Default
 62
     7
100
AcDbCircle
 10
516.5667038705
 20
1152.4683604564
 30
0.0
 40
488.3932477821834
100
AcDbArc
 50
267.3792512043
 51
267.9220568802
  0
LINE
  5
1E8
330
161
100
AcDbEntity
  8
DV2_Default
 62
     7
100
AcDbLine
 10
498.8690058025
 20
664.3958667201
 30
0.0
 11
498.8580548037
 21
664.396262932
 31
0.0
  0
SPLINE
  5
1E9
330
161
100
AcDbEntity
  8
DV2_Default
 62
     7
100
AcDbSpline
210
0.0
220
0.0
230
1.0
 70
     8
 71
     3
 72
    10
 73
     6
 74
     0
 42
0.000000001
 43
0.0000000001
 40
0.0
 40
0.0
 40
0.0
 40
0.0
 40
0.3511224237689812
 40
0.3511224237689812
 40
1.0
 40
1.0
 40
1.0
 40
1.0
 10
499.6937940864127
 20
664.3720529765762
 30
0.0
 10
499.6220645233547
 20
664.3733369052071
 30
0.0
 10
499.5345308269599
 20
664.3753260686925
 30
0.0
 10
499.2586166537893
 20
664.3826545878283
 30
0.0
 10
499.0497818194891
 20
664.3893482500591
 30
0.0
 10
498.8690093518611
 20
664.3958757485171
 30
0.0
  0
SPLINE
  5
1EA
330
161
100
AcDbEntity
  8
DV2_Default
 62
     7
100
AcDbSpline
210
0.0
220
0.0
230
1.0
 70
     8
 71
     3
 72
     8
 73
     4
 74
     0
 42
0.000000001
 43
0.0000000001
 40
0.0
 40
0.0
 40
0.0
 40
0.0
 40
1.0
 40
1.0
 40
1.0
 40
1.0
 10
494.2350461031227
 20
664.5859345168781
 30
0.0
 10
494.1414050026851
 20
664.5901389014947
 30
0.0
 10
494.0562945094263
 20
664.5943060874678
 30
0.0
 10
493.9855130578341
 20
664.5981380631591
 30
0.0
  0
ARC
  5
1EB
330
161
100
AcDbEntity
  8
DV2_Default
 62
     7
100
AcDbCircle
 10
516.6632826984
 20
1155.0454469432
 30
0.0
 40
490.9721365572208
100
AcDbArc
 50
267.8947658535
 51
267.9216976507
  0
ARC
  5
1EC
330
161
100
AcDbEntity
  8
DV2_Default
 62
     7
100
AcDbCircle
 10
516.4367938948
 20
952.1914332846
 30
0.0
 40
288.1184853686759
100
AcDbArc
 50
266.7827160156
 51
267.2853616708
  0
SPLINE
  5
1ED
330
161
100
AcDbEntity
  8
DV2_Default
 62
     7
100
AcDbSpline
210
0.0
220
0.0
230
1.0
 70
     8
 71
     3
 72
    10
 73
     6
 74
     0
 42
0.000000001
 43
0.0000000001
 40
0.0
 40
0.0
 40
0.0
 40
0.0
 40
0.6655344455591511
 40
0.6655344455591511
 40
1.0
 40
1.0
 40
1.0
 40
1.0
 10
502.7994445876163
 20
664.3959358732988
 30
0.0
 10
502.9390921850638
 20
664.3893385111845
 30
0.0
 10
503.1330103513059
 20
664.3826459190466
 30
0.0
 10
503.4251915586624
 20
664.3755035292793
 30
0.0
 10
503.5224712687237
 20
664.3736185768773
 30
0.0
 10
503.6125301289263
 20
664.3723345458487
 30
0.0
  0
ARC
  5
1EE
330
161
100
AcDbEntity
  8
DV2_Default
 62
     7
100
AcDbCircle
 10
516.096279653
 20
749.3592129353
 30
0.0
 40
85.26653560549487
100
AcDbArc
 50
263.8266671655
 51
265.245935761
  0
ARC
  5
1EF
330
161
100
AcDbEntity
  8
DV2_Default
 62
     7
100
AcDbCircle
 10
517.828374973
 20
749.3650260749
 30
0.0
 40
85.26845674294691
100
AcDbArc
 50
274.7307058485
 51
276.1503906656
  0
ARC
  5
1F0
330
161
100
AcDbEntity
  8
DV2_Default
 62
     7
100
AcDbCircle
 10
517.4537843949
 20
952.1981750305
 30
0.0
 40
288.1252368410792
100
AcDbArc
 50
272.7146470392
 51
273.2168512103
  0
SPLINE
  5
1F1
330
161
100
AcDbEntity
  8
DV2_Default
 62
     7
100
AcDbSpline
210
0.0
220
0.0
230
1.0
 70
     8
 71
     3
 72
    10
 73
     6
 74
     0
 42
0.000000001
 43
0.0000000001
 40
0.0
 40
0.0
 40
0.0
 40
0.0
 40
0.0119014218927564
 40
0.0119014218927564
 40
1.0
 40
1.0
 40
1.0
 40
1.0
 10
530.5564507155711
 20
664.3777282122935
 30
0.0
 10
530.5587922963234
 20
664.3777849093301
 30
0.0
 10
530.5611342258933
 20
664.3778418970754
 30
0.0
 10
530.7579329882867
 20
664.3826545251774
 30
0.0
 10
530.9518510843515
 20
664.3893482523355
 30
0.0
 10
531.0914874667862
 20
664.3958758772017
 30
0.0
  0
ARC
  5
1F2
330
161
100
AcDbEntity
  8
DV2_Default
 62
     7
100
AcDbCircle
 10
517.2271810614
 20
1155.0570373352
 30
0.0
 40
490.9837367349274
100
AcDbArc
 50
272.0783090409
 51
272.1063973863
  0
LINE
  5
1F3
330
161
100
AcDbEntity
  8
DV2_Default
 62
     7
100
AcDbLine
 10
535.0219358158
 20
664.395866718
 30
0.0
 11
535.0328939649
 21
664.3962631891
 31
0.0
  0
ARC
  5
1F4
330
161
100
AcDbEntity
  8
DV2_Default
 62
     7
100
AcDbCircle
 10
516.945470839
 20
1239.0729553126
 30
0.0
 40
575.0000624380001
100
AcDbArc
 50
267.6825784334
 51
268.0795292988
  0
ARC
  5
1F5
330
161
100
AcDbEntity
  8
DV2_Default
 62
     7
100
AcDbCircle
 10
516.945470839
 20
1239.0729553126
 30
0.0
 40
575.000062438
100
AcDbArc
 50
267.5796747722
 51
267.5827177139
  0
ARC
  5
1F6
330
161
100
AcDbEntity
  8
DV2_Default
 62
     7
100
AcDbCircle
 10
498.4454373396
 20
664.8701008627
 30
0.0
 40
0.4999977559784091
100
AcDbArc
 50
268.0030456956
 51
291.3894938428
  0
LINE
  5
1F7
330
161
100
AcDbEntity
  8
DV2_Default
 62
     7
100
AcDbLine
 10
497.5889687583
 20
664.3987917692
 30
0.0
 11
498.2414775714
 21
664.3769155198
 31
0.0
  0
ARC
  5
1F8
330
161
100
AcDbEntity
  8
DV2_Default
 62
     7
100
AcDbCircle
 10
491.9444614769
 20
665.1092043774
 30
0.0
 40
0.4999927080732997
100
AcDbArc
 50
183.3010777745
 51
257.6444120388
  0
LINE
  5
1F9
330
161
100
AcDbEntity
  8
DV2_Default
 62
     7
100
AcDbLine
 10
491.8374601401
 20
664.6207293173
 30
0.0
 11
491.9235902384
 21
664.6170918289
 31
0.0
  0
LINE
  5
1FA
330
161
100
AcDbEntity
  8
DV2_Default
 62
     7
100
AcDbLine
 10
492.1266866193
 20
664.6085145634
 30
0.0
 11
492.6635115063
 21
664.5858431128
 31
0.0
  0
LINE
  5
1FB
330
161
100
AcDbEntity
  8
DV2_Default
 62
     7
100
AcDbLine
 10
492.6950898459
 20
664.5845094809
 30
0.0
 11
492.7501235088
 21
664.5821852724
 31
0.0
  0
LINE
  5
1FC
330
161
100
AcDbEntity
  8
DV2_Default
 62
     7
100
AcDbLine
 10
491.4454708392
 20
665.7327191977
 30
0.0
 11
491.4454708392
 21
665.0804258449
 31
0.0
  0
ARC
  5
1FD
330
161
100
AcDbEntity
  8
DV2_Default
 62
     7
100
AcDbCircle
 10
516.945470839
 20
1239.0729553126
 30
0.0
 40
575.000062438
100
AcDbArc
 50
272.4172625895
 51
272.4203057844
  0
ARC
  5
1FE
330
161
100
AcDbEntity
  8
DV2_Default
 62
     7
100
AcDbCircle
 10
516.945470839
 20
1239.0729553126
 30
0.0
 40
575.0000624380001
100
AcDbArc
 50
272.0183999637
 51
272.3173983714
  0
LINE
  5
1FF
330
161
100
AcDbEntity
  8
DV2_Default
 62
     7
100
AcDbLine
 10
535.3752414502
 20
664.3677218306
 30
0.0
 11
535.4614111435
 21
664.3706107471
 31
0.0
  0
LINE
  5
200
330
161
100
AcDbEntity
  8
DV2_Default
 62
     7
100
AcDbLine
 10
535.654516055
 20
664.3770847629
 30
0.0
 11
536.1954618798
 21
664.3952204581
 31
0.0
  0
ARC
  5
201
330
161
100
AcDbEntity
  8
DV2_Default
 62
     7
100
AcDbCircle
 10
535.4455043336
 20
664.8701008627
 30
0.0
 40
0.4999977653043948
100
AcDbArc
 50
249.6201078469
 51
271.9969539885
  0
ARC
  5
202
330
161
100
AcDbEntity
  8
DV2_Default
 62
     7
100
AcDbCircle
 10
541.9454916935
 20
665.1086508026
 30
0.0
 40
0.4999927069237911
100
AcDbArc
 50
282.4798822841
 51
0.9268844201
  0
LINE
  5
203
330
161
100
AcDbEntity
  8
DV2_Default
 62
     7
100
AcDbLine
 10
541.1408181696
 20
664.5821852724
 30
0.0
 11
541.1972317099
 21
664.5845677566
 31
0.0
  0
LINE
  5
204
330
161
100
AcDbEntity
  8
DV2_Default
 62
     7
100
AcDbLine
 10
541.22742204
 20
664.5858427694
 30
0.0
 11
541.768789538
 21
664.6087060658
 31
0.0
  0
LINE
  5
205
330
161
100
AcDbEntity
  8
DV2_Default
 62
     7
100
AcDbLine
 10
541.967115427
 20
664.6170818615
 30
0.0
 11
542.0534815572
 21
664.6207293181
 31
0.0
  0
LINE
  5
206
330
161
100
AcDbEntity
  8
DV2_Default
 62
     7
100
AcDbLine
 10
542.4454708392
 20
665.0822936134
 30
0.0
 11
542.4454708392
 21
665.7327643126
 31
0.0
  0
SPLINE
  5
207
330
161
100
AcDbEntity
  8
DV2_Default
 62
     7
100
AcDbSpline
210
0.0
220
0.0
230
1.0
 70
     8
 71
     3
 72
    19
 73
    15
 74
     0
 42
0.000000001
 43
0.0000000001
 40
0.0
 40
0.0
 40
0.0
 40
0.0
 40
0.0451057922473828
 40
0.1037149383614557
 40
0.1518835171003819
 40
0.1877785714972394
 40
0.2099427211618465
 40
0.2302667560031893
 40
0.2631066288044089
 40
0.3611753957392876
 40
0.5283915208546773
 40
0.682607045930621
 40
0.8442714821202414
 40
1.0
 40
1.0
 40
1.0
 40
1.0
 10
533.6194287617325
 20
664.5258422748958
 30
0.0
 10
533.63813072818
 20
664.5063393513542
 30
0.0
 10
533.6844863677408
 20
664.4651834642564
 30
0.0
 10
533.7629812150163
 20
664.4182269286101
 30
0.0
 10
533.8427508718919
 20
664.3891689148445
 30
0.0
 10
533.9035064872938
 20
664.3769729245128
 30
0.0
 10
533.9400203653736
 20
664.3729650917184
 30
0.0
 10
533.9647353212583
 20
664.3713122405255
 30
0.0
 10
534.0000808014463
 20
664.3700849738785
 30
0.0
 10
534.0659048597437
 20
664.3698830234455
 30
0.0
 10
534.224488176471
 20
664.3721145010617
 30
0.0
 10
534.4756092993417
 20
664.3781993396291
 30
0.0
 10
534.7672879158704
 20
664.3868973625899
 30
0.0
 10
534.9401409238676
 20
664.3931177509501
 30
0.0
 10
535.0378712371854
 20
664.3966738811181
 30
0.0
  0
SPLINE
  5
208
330
161
100
AcDbEntity
  8
DV2_Default
 62
     7
100
AcDbSpline
210
0.0
220
0.0
230
1.0
 70
     8
 71
     3
 72
    15
 73
    11
 74
     0
 42
0.000000001
 43
0.0000000001
 40
0.0
 40
0.0
 40
0.0
 40
0.0
 40
0.1341259134528071
 40
0.3899421741344728
 40
0.4303303987424419
 40
0.476255002777913
 40
0.5685027111248301
 40
0.7282703065608345
 40
0.8880566398031654
 40
1.0
 40
1.0
 40
1.0
 40
1.0
 10
539.9060272354913
 20
664.5983717652123
 30
0.0
 10
539.9500659188353
 20
664.5980045083088
 30
0.0
 10
540.0649411300573
 20
664.5978873906336
 30
0.0
 10
540.1089247115211
 20
664.596616098124
 30
0.0
 10
540.1921810693798
 20
664.6041312280036
 30
0.0
 10
540.2572153047498
 20
664.6150609894601
 30
0.0
 10
540.3719048775953
 20
664.6543839053744
 30
0.0
 10
540.5031792200757
 20
664.7546319075428
 30
0.0
 10
540.593266420868
 20
664.9081056635727
 30
0.0
 10
540.5980482731725
 20
665.0069950431446
 30
0.0
 10
540.5992372787247
 20
665.0543654534474
 30
0.0
  0
LINE
  5
209
330
161
100
AcDbEntity
  8
DV2_Default
 62
     7
100
AcDbLine
 10
540.5995495028
 20
665.0551676415
 30
0.0
 11
540.5995495028
 21
665.6535171442
 31
0.0
  0
SPLINE
  5
20A
330
161
100
AcDbEntity
  8
DV2_Default
 62
     7
100
AcDbSpline
210
0.0
220
0.0
230
1.0
 70
     8
 71
     3
 72
    20
 73
    16
 74
     0
 42
0.000000001
 43
0.0000000001
 40
0.0
 40
0.0
 40
0.0
 40
0.0
 40
0.0180444665055365
 40
0.1176127248692627
 40
0.1962306669718903
 40
0.2622057780438389
 40
0.3180328841083592
 40
0.3634731129475714
 40
0.3962364010368272
 40
0.4237496875205954
 40
0.4636786574885497
 40
0.5753679881744828
 40
0.7428978682290173
 40
0.8963684674997024
 40
1.0
 40
1.0
 40
1.0
 40
1.0
 10
529.3072385116421
 20
664.8495217687507
 30
0.0
 10
529.3055485394707
 20
664.8377489373006
 30
0.0
 10
529.2963466329736
 20
664.7715995325283
 30
0.0
 10
529.3383878593103
 20
664.6505212457846
 30
0.0
 10
529.4179341550754
 20
664.5280153430207
 30
0.0
 10
529.5110013908886
 20
664.4478392236264
 30
0.0
 10
529.6003148395706
 20
664.4001794916566
 30
0.0
 10
529.6766571262222
 20
664.3761165891049
 30
0.0
 10
529.7310958964144
 20
664.3664658203504
 30
0.0
 10
529.7696114760715
 20
664.3624120591741
 30
0.0
 10
529.8207729932144
 20
664.3594603563996
 30
0.0
 10
529.9080779887788
 20
664.3585142565951
 30
0.0
 10
530.0928245390103
 20
664.3612745381935
 30
0.0
 10
530.3374131607379
 20
664.3686192034227
 30
0.0
 10
530.4866668684238
 20
664.3749246232662
 30
0.0
 10
530.5565074683342
 20
664.3779127095129
 30
0.0
  0
LINE
  5
20B
330
161
100
AcDbEntity
  8
DV2_Default
 62
     7
100
AcDbLine
 10
529.3072763773
 20
665.3708282007
 30
0.0
 11
529.3072763773
 21
664.8495272718
 31
0.0
  0
SPLINE
  5
20C
330
161
100
AcDbEntity
  8
DV2_Default
 62
     7
100
AcDbSpline
210
0.0
220
0.0
230
1.0
 70
     8
 71
     3
 72
    15
 73
    11
 74
     0
 42
0.000000001
 43
0.0000000001
 40
0.0
 40
0.0
 40
0.0
 40
0.0
 40
0.1652841408642458
 40
0.3856562623465732
 40
0.4511915089216602
 40
0.5154296447686485
 40
0.6143851555190364
 40
0.7530251806847016
 40
0.8924257100425703
 40
1.0
 40
1.0
 40
1.0
 40
1.0
 10
534.6415560135184
 20
664.5858422486688
 30
0.0
 10
534.6923743945878
 20
664.5888164978672
 30
0.0
 10
534.7972180834754
 20
664.596086043109
 30
0.0
 10
534.8684481067363
 20
664.6012818526555
 30
0.0
 10
534.9595532710642
 20
664.6184243342348
 30
0.0
 10
535.0427308699426
 20
664.6447851174009
 30
0.0
 10
535.1512030292474
 20
664.7042025734021
 30
0.0
 10
535.2601316489445
 20
664.8151309403827
 30
0.0
 10
535.3335221967047
 20
664.9638794406753
 30
0.0
 10
535.3360929799087
 20
665.0594308059411
 30
0.0
 10
535.3364069275278
 20
665.1078639284444
 30
0.0
  0
LINE
  5
20D
330
161
100
AcDbEntity
  8
DV2_Default
 62
     7
100
AcDbLine
 10
535.3428102834
 20
665.0521436267
 30
0.0
 11
535.3428102834
 21
665.6434821502
 31
0.0
  0
SPLINE
  5
20E
330
161
100
AcDbEntity
  8
DV2_Default
 62
     7
100
AcDbSpline
210
0.0
220
0.0
230
1.0
 70
     8
 71
     3
 72
    21
 73
    17
 74
     0
 42
0.000000001
 43
0.0000000001
 40
0.0
 40
0.0
 40
0.0
 40
0.0
 40
0.0543171967748958
 40
0.1202201961815926
 40
0.1742986941446267
 40
0.2203093400911103
 40
0.2588493479222695
 40
0.2887285583397592
 40
0.3130473456181896
 40
0.3452021236199248
 40
0.4266925706336997
 40
0.5575075565038523
 40
0.675321055168273
 40
0.7985990606948761
 40
0.9207466493634087
 40
1.0
 40
1.0
 40
1.0
 40
1.0
 10
523.0686078472704
 20
664.8861054998534
 30
0.0
 10
523.0688984431428
 20
664.8379574950403
 30
0.0
 10
523.0712362272371
 20
664.7464578383448
 30
0.0
 10
523.1348591789053
 20
664.6136890285605
 30
0.0
 10
523.2223009322415
 20
664.5123174983423
 30
0.0
 10
523.3138388321383
 20
664.4476156110461
 30
0.0
 10
523.3968402410393
 20
664.4111548127954
 30
0.0
 10
523.4614739397181
 20
664.3939632599066
 30
0.0
 10
523.5084830406621
 20
664.3859612290483
 30
0.0
 10
523.5651929488889
 20
664.3796607838573
 30
0.0
 10
523.6581429569657
 20
664.3744872735914
 30
0.0
 10
523.847360999895
 20
664.3702096428929
 30
0.0
 10
524.1256853459004
 20
664.3697366462291
 30
0.0
 10
524.425956204517
 20
664.3731586572702
 30
0.0
 10
524.6789246525024
 20
664.3793695421471
 30
0.0
 10
524.8136007875372
 20
664.3843794682502
 30
0.0
 10
524.8607329905492
 20
664.3864997861142
 30
0.0
  0
LINE
  5
20F
330
161
100
AcDbEntity
  8
DV2_Default
 62
     7
100
AcDbLine
 10
523.0621269126
 20
665.4475594795
 30
0.0
 11
523.0621269126
 21
664.849527093
 31
0.0
  0
SPLINE
  5
210
330
161
100
AcDbEntity
  8
DV2_Default
 62
     7
100
AcDbSpline
210
0.0
220
0.0
230
1.0
 70
     8
 71
     3
 72
    13
 73
     9
 74
     0
 42
0.000000001
 43
0.0000000001
 40
0.0
 40
0.0
 40
0.0
 40
0.0
 40
0.2550855010343168
 40
0.3555311136975758
 40
0.492389527046562
 40
0.6666761252979712
 40
0.8560662214899203
 40
1.0
 40
1.0
 40
1.0
 40
1.0
 10
526.9638816283976
 20
664.5876342812637
 30
0.0
 10
527.0019790964988
 20
664.5893626152956
 30
0.0
 10
527.0529582754829
 20
664.5951226342825
 30
0.0
 10
527.182123130558
 20
664.6366915696242
 30
0.0
 10
527.2899737397526
 20
664.69933914741
 30
0.0
 10
527.3949569913963
 20
664.809134756922
 30
0.0
 10
527.4664563639874
 20
664.9541893659419
 30
0.0
 10
527.468791183543
 20
665.0495768362997
 30
0.0
 10
527.4690108405472
 20
665.0975179828189
 30
0.0
  0
LINE
  5
211
330
161
100
AcDbEntity
  8
DV2_Default
 62
     7
100
AcDbLine
 10
527.4755440746
 20
665.0551719139
 30
0.0
 11
527.4755440746
 21
665.6232434007
 31
0.0
  0
SPLINE
  5
212
330
161
100
AcDbEntity
  8
DV2_Default
 62
     7
100
AcDbSpline
210
0.0
220
0.0
230
1.0
 70
     8
 71
     3
 72
    16
 73
    12
 74
     0
 42
0.000000001
 43
0.0000000001
 40
0.0
 40
0.0
 40
0.0
 40
0.0
 40
0.0152153368686562
 40
0.1094880213897028
 40
0.1883754319169451
 40
0.2495548762775961
 40
0.3026175574581243
 40
0.3795129320732353
 40
0.61293826324293
 40
0.8725128566638791
 40
0.9999999999999999
 40
0.9999999999999999
 40
0.9999999999999999
 40
0.9999999999999999
 10
515.8525645023549
 20
664.5323065340658
 30
0.0
 10
515.8566225013229
 20
664.5283058083157
 30
0.0
 10
515.8864579678625
 20
664.5000421170739
 30
0.0
 10
515.9480082904419
 20
664.4572716651279
 30
0.0
 10
516.0292633596098
 20
664.4214292298433
 30
0.0
 10
516.0924228343114
 20
664.4041767320543
 30
0.0
 10
516.1407265620522
 20
664.3954262121691
 30
0.0
 10
516.211348873425
 20
664.3868925870771
 30
0.0
 10
516.3255507490683
 20
664.3800863515501
 30
0.0
 10
516.5211084446325
 20
664.3738779947686
 30
0.0
 10
516.6570541814295
 20
664.3721869945712
 30
0.0
 10
516.7049639160747
 20
664.3717252711145
 30
0.0
  0
SPLINE
  5
213
330
161
100
AcDbEntity
  8
DV2_Default
 62
     7
100
AcDbSpline
210
0.0
220
0.0
230
1.0
 70
     8
 71
     3
 72
    20
 73
    16
 74
     0
 42
0.000000001
 43
0.0000000001
 40
0.0
 40
0.0
 40
0.0
 40
0.0
 40
0.0791930742658926
 40
0.2082479936424789
 40
0.33125033472625
 40
0.4535675141900841
 40
0.5790343483044653
 40
0.6569403822782969
 40
0.6995289345777963
 40
0.730216544771681
 40
0.774904541079295
 40
0.8305912118475537
 40
0.8984429042397671
 40
0.9720105381977024
 40
1.0
 40
1.0
 40
1.0
 40
1.0
 10
509.0295264233185
 20
664.3865384367436
 30
0.0
 10
509.0767491008386
 20
664.3836028322678
 30
0.0
 10
509.2163729374865
 20
664.3760082719302
 30
0.0
 10
509.4770665556952
 20
664.365227277276
 30
0.0
 10
509.7870948419507
 20
664.3565568835262
 30
0.0
 10
510.0626407365023
 20
664.3525973333843
 30
0.0
 10
510.2448075517344
 20
664.3537998072162
 30
0.0
 10
510.3376915974367
 20
664.3577517415893
 30
0.0
 10
510.4016248311439
 20
664.3638273156394
 30
0.0
 10
510.4782544431757
 20
664.3789782986447
 30
0.0
 10
510.5756700822295
 20
664.4152428255203
 30
0.0
 10
510.6877641429007
 20
664.4918289645054
 30
0.0
 10
510.7844485186057
 20
664.6158204893588
 30
0.0
 10
510.8370907886004
 20
664.7497257564883
 30
0.0
 10
510.8307867424333
 20
664.8255756055727
 30
0.0
 10
510.8285135216477
 20
664.8498473740481
 30
0.0
  0
LINE
  5
214
330
161
100
AcDbEntity
  8
DV2_Default
 62
     7
100
AcDbLine
 10
510.8288147666
 20
664.849527093
 30
0.0
 11
510.8288147666
 21
665.3912397755
 31
0.0
  0
SPLINE
  5
215
330
161
100
AcDbEntity
  8
DV2_Default
 62
     7
100
AcDbSpline
210
0.0
220
0.0
230
1.0
 70
     8
 71
     3
 72
    16
 73
    12
 74
     0
 42
0.000000001
 43
0.0000000001
 40
0.0
 40
0.0
 40
0.0
 40
0.0
 40
0.0586414703589802
 40
0.2489476103268705
 40
0.4017437864007909
 40
0.5312729005772822
 40
0.6412463561186729
 40
0.7301252854647675
 40
0.8017353928707953
 40
0.888693811338751
 40
1.0
 40
1.0
 40
1.0
 40
1.0
 10
506.4154216013324
 20
665.0552571131316
 30
0.0
 10
506.4132912804045
 20
665.0368225922963
 30
0.0
 10
506.4060392445229
 20
664.9694123805365
 30
0.0
 10
506.4509918806372
 20
664.8527040139587
 30
0.0
 10
506.5306842090325
 20
664.7408760986924
 30
0.0
 10
506.6219013557504
 20
664.6679106334676
 30
0.0
 10
506.7085871658247
 20
664.6252533495267
 30
0.0
 10
506.7806166334259
 20
664.6042586656047
 30
0.0
 10
506.8343087235473
 20
664.5947941483437
 30
0.0
 10
506.8796552541256
 20
664.5899007415119
 30
0.0
 10
506.9084323706169
 20
664.5880890908294
 30
0.0
 10
506.9270151968488
 20
664.5871225219983
 30
0.0
  0
LINE
  5
216
330
161
100
AcDbEntity
  8
DV2_Default
 62
     7
100
AcDbLine
 10
506.4153976049
 20
665.6195257798
 30
0.0
 11
506.4153976049
 21
665.0551714287
 31
0.0
  0
SPLINE
  5
217
330
161
100
AcDbEntity
  8
DV2_Default
 62
     7
100
AcDbSpline
210
0.0
220
0.0
230
1.0
 70
     8
 71
     3
 72
    16
 73
    12
 74
     0
 42
0.000000001
 43
0.0000000001
 40
0.0
 40
0.0
 40
0.0
 40
0.0
 40
0.1183785858930638
 40
0.3115994917834583
 40
0.5338224036457928
 40
0.5835017966414029
 40
0.6593399608491468
 40
0.7716095281472527
 40
0.8809830166979294
 40
0.9980393584916137
 40
1.0
 40
1.0
 40
1.0
 40
1.0
 10
503.6127222894846
 20
664.3725135604936
 30
0.0
 10
503.6751558269019
 20
664.3715732551981
 30
0.0
 10
503.8145602732004
 20
664.3690394115647
 30
0.0
 10
504.0170115152623
 20
664.3735270473006
 30
0.0
 10
504.081037799019
 20
664.3653014385199
 30
0.0
 10
504.2379089214801
 20
664.3982669404835
 30
0.0
 10
504.3508049389205
 20
664.4463582527804
 30
0.0
 10
504.4718193906374
 20
664.5459947406687
 30
0.0
 10
504.5569046281102
 20
664.6960041267547
 30
0.0
 10
504.5939573821896
 20
664.8198947475657
 30
0.0
 10
504.5833768582831
 20
664.8769753014828
 30
0.0
 10
504.5831746425515
 20
664.8780643363135
 30
0.0
  0
LINE
  5
218
330
161
100
AcDbEntity
  8
DV2_Default
 62
     7
100
AcDbLine
 10
504.5836653017
 20
664.8495270932
 30
0.0
 11
504.5836653017
 21
665.376230053
 31
0.0
  0
SPLINE
  5
219
330
161
100
AcDbEntity
  8
DV2_Default
 62
     7
100
AcDbSpline
210
0.0
220
0.0
230
1.0
 70
     8
 71
     3
 72
    17
 73
    13
 74
     0
 42
0.000000001
 43
0.0000000001
 40
0.0
 40
0.0
 40
0.0
 40
0.0
 40
0.050571586902329
 40
0.188657944880031
 40
0.3000224381383914
 40
0.3943501939891594
 40
0.4738787409725153
 40
0.5371286355179837
 40
0.5839567330514295
 40
0.6338164061495444
 40
0.7281067607535717
 40
1.0
 40
1.0
 40
1.0
 40
1.0
 10
498.5483155219665
 20
665.0551460440828
 30
0.0
 10
498.546082198724
 20
665.0336991352516
 30
0.0
 10
498.5395626650231
 20
664.9648033446457
 30
0.0
 10
498.5854487430075
 20
664.8482529338681
 30
0.0
 10
498.6645993574461
 20
664.7392341603119
 30
0.0
 10
498.7543614037443
 20
664.668053431376
 30
0.0
 10
498.8391858654883
 20
664.6264168334184
 30
0.0
 10
498.9091723935954
 20
664.6060477337763
 30
0.0
 10
498.958190988957
 20
664.597413745942
 30
0.0
 10
499.0018455347646
 20
664.5924809882969
 30
0.0
 10
499.0774504886646
 20
664.5876727681149
 30
0.0
 10
499.16994263873
 20
664.5863202923339
 30
0.0
 10
499.2493846657777
 20
664.5858346864962
 30
0.0
  0
LINE
  5
21A
330
161
100
AcDbEntity
  8
DV2_Default
 62
     7
100
AcDbLine
 10
498.5481313958
 20
665.6352261168
 30
0.0
 11
498.5481313958
 21
665.0551714144
 31
0.0
  0
SPLINE
  5
21B
330
161
100
AcDbEntity
  8
DV2_Default
 62
     7
100
AcDbSpline
210
0.0
220
0.0
230
1.0
 70
     8
 71
     3
 72
    14
 73
    10
 74
     0
 42
0.000000001
 43
0.0000000001
 40
0.0
 40
0.0
 40
0.0
 40
0.0
 40
0.1647267747975876
 40
0.5161028499155879
 40
0.5791802532999729
 40
0.6362804310464235
 40
0.7517751161090628
 40
0.9524761427135866
 40
0.9999999999999999
 40
0.9999999999999999
 40
0.9999999999999999
 40
0.9999999999999999
 10
499.6911508537783
 20
664.3722837546765
 30
0.0
 10
499.7296962341246
 20
664.3715018244768
 30
0.0
 10
499.8367810750566
 20
664.3697802546404
 30
0.0
 10
499.8816347043719
 20
664.3688471445153
 30
0.0
 10
499.952707612269
 20
664.3728824376637
 30
0.0
 10
500.0121215981173
 20
664.3804484539148
 30
0.0
 10
500.1182932877097
 20
664.4096106822003
 30
0.0
 10
500.2109337795271
 20
664.4663738603826
 30
0.0
 10
500.2627307847018
 20
664.5167374093519
 30
0.0
 10
500.2722364670966
 20
664.5267852117958
 30
0.0
  0
SPLINE
  5
21C
330
161
100
AcDbEntity
  8
DV2_Default
 62
     7
100
AcDbSpline
210
0.0
220
0.0
230
1.0
 70
     8
 71
     3
 72
    18
 73
    14
 74
     0
 42
0.000000001
 43
0.0000000001
 40
0.0
 40
0.0
 40
0.0
 40
0.0
 40
0.1258612705534247
 40
0.2468364967482508
 40
0.3473642942750679
 40
0.4323989763559586
 40
0.5022306390550538
 40
0.5537486930117204
 40
0.5870884954223228
 40
0.6210720634348859
 40
0.6811526033739254
 40
0.9124718064851652
 40
1.0
 40
1.0
 40
1.0
 40
1.0
 10
493.2917315027773
 20
665.0550090102736
 30
0.0
 10
493.2939427532584
 20
665.0015433231929
 30
0.0
 10
493.2998063999289
 20
664.9114576345753
 30
0.0
 10
493.369413271561
 20
664.7884949368188
 30
0.0
 10
493.4545786078654
 20
664.7023657074261
 30
0.0
 10
493.5419988952892
 20
664.6485737263595
 30
0.0
 10
493.6194947704818
 20
664.6195333293027
 30
0.0
 10
493.6784964791892
 20
664.6070631351681
 30
0.0
 10
493.714526821641
 20
664.6026001558627
 30
0.0
 10
493.7420021844299
 20
664.6003855425182
 30
0.0
 10
493.7939983120258
 20
664.5980647113516
 30
0.0
 10
493.8585715541593
 20
664.5971931256461
 30
0.0
 10
493.9548777632839
 20
664.5978876630988
 30
0.0
 10
493.9855096766292
 20
664.598138476634
 30
0.0
  0
LINE
  5
21D
330
161
100
AcDbEntity
  8
DV2_Default
 62
     7
100
AcDbLine
 10
493.291392176
 20
665.6506198036
 30
0.0
 11
493.291392176
 21
665.0551677817
 31
0.0
  0
SPLINE
  5
21E
330
161
100
AcDbEntity
  8
DV2_Default
 62
     7
100
AcDbSpline
210
0.0
220
0.0
230
1.0
 70
     8
 71
     3
 72
    13
 73
     9
 74
     0
 42
0.000000001
 43
0.0000000001
 40
0.0
 40
0.0
 40
0.0
 40
0.0
 40
0.2551086979464074
 40
0.3555679778884999
 40
0.4924395997189315
 40
0.6667377476298094
 40
0.8561447015800199
 40
1.0
 40
1.0
 40
1.0
 40
1.0
 10
526.9638837729069
 20
664.5876270436204
 30
0.0
 10
527.0019831302517
 20
664.5893555633118
 30
0.0
 10
527.0529648402212
 20
664.5951158940227
 30
0.0
 10
527.182132026254
 20
664.636686399247
 30
0.0
 10
527.2899831256807
 20
664.6993358042022
 30
0.0
 10
527.3949638590168
 20
664.8091323826892
 30
0.0
 10
527.4664542739603
 20
664.9541612416829
 30
0.0
 10
527.4687890821377
 20
665.0495231763176
 30
0.0
 10
527.469009476842
 20
665.0974341920654
 30
0.0
  0
LINE
  5
21F
330
161
100
AcDbEntity
  8
DV2_Default
 62
     7
100
AcDbLine
 10
525.0424404364
 20
664.3973630694
 30
0.0
 11
525.0487127822
 21
664.3979024023
 31
0.0
  0
ARC
  5
220
330
161
100
AcDbEntity
  8
DV2_Default
 62
     7
100
AcDbCircle
 10
277.8973468511
 20
679.3838324495
 30
0.0
 40
199.9924596754153
100
AcDbArc
 50
2.7100963727
 51
12.529467073
  0
ARC
  5
221
330
161
100
AcDbEntity
  8
DV2_Default
 62
     7
100
AcDbCircle
 10
474.5898889206
 20
723.1016824999
 30
0.0
 40
1.499999549950964
100
AcDbArc
 50
135.3733743063
 51
192.7539727643
  0
SPLINE
  5
222
330
161
100
AcDbEntity
  8
DV2_Default
 62
     7
100
AcDbSpline
210
0.0
220
0.0
230
1.0
 70
     8
 71
     3
 72
    13
 73
     9
 74
     0
 42
0.000000001
 43
0.0000000001
 40
0.0
 40
0.0
 40
0.0
 40
0.0
 40
0.2618529579720345
 40
0.2618529579720345
 40
0.523705915944069
 40
0.523705915944069
 40
0.523705915944069
 40
1.0
 40
1.0
 40
1.0
 40
1.0
 10
476.1959519637592
 20
726.4022203670321
 30
0.0
 10
476.1844348457021
 20
726.3482517437735
 30
0.0
 10
476.2309924541339
 20
726.2772482673577
 30
0.0
 10
476.4794118669084
 20
726.0674393767408
 30
0.0
 10
476.6720400931773
 20
725.92900444377
 30
0.0
 10
476.9161546877508
 20
725.7558197882583
 30
0.0
 10
477.156505676733
 20
725.5853051850592
 30
0.0
 10
477.4474228970836
 20
725.3791380240498
 30
0.0
 10
477.7542655310492
 20
725.1588943849707
 30
0.0
  0
ELLIPSE
  5
223
330
161
100
AcDbEntity
  8
DV2_Default
 62
     7
100
AcDbEllipse
 10
483.6550621395
 20
691.7776984742
 30
0.0
 11
-3.388694158492354
 21
-4.932037155634463
 31
0.0
210
0.0
220
0.0
230
1.0
 40
0.9972764505
 41
0.2348897676873509
 42
0.521187232916071
  0
ARC
  5
224
330
161
100
AcDbEntity
  8
DV2_Default
 62
     7
100
AcDbCircle
 10
479.164278559
 20
688.9144034778
 30
0.0
 40
1.499999810608951
100
AcDbArc
 50
182.8443261179
 51
240.8055410754
  0
ARC
  5
225
330
161
100
AcDbEntity
  8
DV2_Default
 62
     7
100
AcDbCircle
 10
479.649343059
 20
721.5011261617
 30
0.0
 40
5.995551222884192
100
AcDbArc
 50
121.0519312801
 51
125.1691503802
  0
ARC
  5
226
330
161
100
AcDbEntity
  8
DV2_Default
 62
     7
100
AcDbCircle
 10
489.2447214628
 20
708.031346041
 30
0.0
 40
22.5206274464815
100
AcDbArc
 50
125.4135714364
 51
134.2773648437
  0
ARC
  5
227
330
161
100
AcDbEntity
  8
DV2_Default
 62
     7
100
AcDbCircle
 10
489.6324872895
 20
707.9549738194
 30
0.0
 40
23.22797104827017
100
AcDbArc
 50
240.9908026994
 51
249.5174655645
  0
LINE
  5
228
330
161
100
AcDbEntity
  8
DV2_Default
 62
     7
100
AcDbLine
 10
472.9539148267
 20
731.8436518644
 30
0.0
 11
474.6091128562
 21
732.580593507
 31
0.0
  0
LINE
  5
229
330
161
100
AcDbEntity
  8
DV2_Default
 62
     7
100
AcDbLine
 10
468.9548071605
 20
746.4885259092
 30
0.0
 11
466.8509473074
 21
745.5511413428
 31
0.0
  0
ARC
  5
22A
330
161
100
AcDbEntity
  8
DV2_Default
 62
     7
100
AcDbCircle
 10
472.3438101804
 20
733.213969336
 30
0.0
 40
1.500000000000001
100
AcDbArc
 50
212.9314547662
 51
294.0
  0
ARC
  5
22B
330
161
100
AcDbEntity
  8
DV2_Default
 62
     7
100
AcDbCircle
 10
467.461052272
 20
744.1808231563
 30
0.0
 40
1.500000000000013
100
AcDbArc
 50
114.0
 51
195.0549525766
  0
ARC
  5
22C
330
161
100
AcDbEntity
  8
DV2_Default
 62
     7
100
AcDbCircle
 10
504.6065591832
 20
754.1490474306
 30
0.0
 40
39.95948969180004
100
AcDbArc
 50
195.0242340923
 51
212.9795737975
  0
ARC
  5
22D
330
161
100
AcDbEntity
  8
DV2_Default
 62
     7
100
AcDbCircle
 10
516.1956134142
 20
664.8958513247
 30
0.0
 40
0.4999760697431486
100
AcDbArc
 50
217.634757125
 51
227.3722333679
  0
LINE
  5
22E
330
161
100
AcDbEntity
  8
DV2_Default
 62
     7
100
AcDbLine
 10
515.7997402085
 20
664.5905530995
 30
0.0
 11
510.7594027663
 21
664.5905530995
 31
0.0
  0
ENDBLK
  5
230
330
161
100
AcDbEntity
  8
0
100
AcDbBlockEnd
  0
BLOCK
  5
271
330
231
100
AcDbEntity
  8
0
100
AcDbBlockBegin
  2
SE2
 70
     0
 10
0.0
 20
0.0
 30
0.0
  3
SE2
  1

  0
LINE
  5
234
330
231
100
AcDbEntity
  8
DV3_Default
 62
     7
100
AcDbLine
 10
93.8185555487
 20
319.3479047461
 30
0.0
 11
93.8185555487
 21
367.3480630585
 31
0.0
  0
LINE
  5
235
330
231
100
AcDbEntity
  8
DV3_Default
 62
     7
100
AcDbLine
 10
64.3165682892
 20
319.3479047461
 30
0.0
 11
93.8185555487
 21
319.3479047461
 31
0.0
  0
LINE
  5
236
330
231
100
AcDbEntity
  8
DV3_Default
 62
     7
100
AcDbLine
 10
93.8185555487
 20
367.3480630585
 30
0.0
 11
67.2904707724
 21
367.3480630585
 31
0.0
  0
ARC
  5
237
330
231
100
AcDbEntity
  8
DV3_Default
 62
     7
100
AcDbCircle
 10
49.318555595
 20
343.3478376702
 30
0.0
 40
29.98333793682284
100
AcDbArc
 50
53.1732950716
 51
239.9153493993
  0
ARC
  5
238
330
231
100
AcDbEntity
  8
DV3_Default
 62
     7
100
AcDbCircle
 10
49.318555595
 20
343.3478376702
 30
0.0
 40
29.98333793682284
100
AcDbArc
 50
300.0367498574
 51
306.8276373155
  0
SPLINE
  5
239
330
231
100
AcDbEntity
  8
DV3_Default
 62
     7
100
AcDbSpline
210
0.0
220
0.0
230
1.0
 70
     8
 71
     3
 72
    20
 73
    16
 74
     0
 42
0.000000001
 43
0.0000000001
 40
0.0
 40
0.0
 40
0.0
 40
0.0
 40
0.2243011543224167
 40
0.2243011543224167
 40
0.3364517314836254
 40
0.3364517314836254
 40
0.4486023086448341
 40
0.4486023086448341
 40
0.5607528858060428
 40
0.5607528858060428
 40
0.6729034629672515
 40
0.6729034629672515
 40
0.8972046172896687
 40
0.8972046172896687
 40
1.0
 40
1.0
 40
1.0
 40
1.0
 10
49.3200570379393
 20
174.2724403001374
 30
0.0
 10
51.29120749158822
 20
174.2724403000995
 30
0.0
 10
53.21141146736555
 20
174.5790373881911
 30
0.0
 10
55.95600183498386
 20
175.4359138847518
 30
0.0
 10
56.82900784431514
 20
175.7829467248008
 30
0.0
 10
58.49323517834235
 20
176.5969953406781
 30
0.0
 10
59.29203475188193
 20
177.0698772358018
 30
0.0
 10
60.75475850832662
 20
178.1164781310234
 30
0.0
 10
61.41878510562277
 20
178.6878948147128
 30
0.0
 10
62.6052637594898
 20
179.931892281087
 30
0.0
 10
63.13234778563462
 20
180.6117867276035
 30
0.0
 10
64.45496884644176
 20
182.7262460564644
 30
0.0
 10
65.02036202594836
 20
184.2699754585443
 30
0.0
 10
65.34344361038927
 20
186.5502588533762
 30
0.0
 10
65.37369170336233
 20
187.2700501748933
 30
0.0
 10
65.32830755492274
 20
187.9932100319023
 30
0.0
  0
ARC
  5
23A
330
231
100
AcDbEntity
  8
DV3_Default
 62
     7
100
AcDbCircle
 10
49.322929444
 20
343.347837841
 30
0.0
 40
14.99234261136889
100
AcDbArc
 50
352.0530179393
 51
38.5036914126
  0
ARC
  5
23B
330
231
100
AcDbEntity
  8
DV3_Default
 62
     7
100
AcDbCircle
 10
49.322929444
 20
343.347837841
 30
0.0
 40
14.99234261136889
100
AcDbArc
 50
72.0618103555
 51
90.0162224921
  0
ARC
  5
23C
330
231
100
AcDbEntity
  8
DV3_Default
 62
     7
100
AcDbCircle
 10
49.319916044
 20
343.3478378411
 30
0.0
 40
14.99234206099224
100
AcDbArc
 50
90.0047062731
 51
107.9333511953
  0
ARC
  5
23D
330
231
100
AcDbEntity
  8
DV3_Default
 62
     7
100
AcDbCircle
 10
49.319916044
 20
343.3478378411
 30
0.0
 40
14.99234206099224
100
AcDbArc
 50
141.5088386712
 51
185.9793754742
  0
SPLINE
  5
23E
330
231
100
AcDbEntity
  8
DV3_Default
 62
     7
100
AcDbSpline
210
0.0
220
0.0
230
1.0
 70
     8
 71
     3
 72
    14
 73
    10
 74
     0
 42
0.000000001
 43
0.0000000001
 40
0.0
 40
0.0
 40
0.0
 40
0.0
 40
0.1023038810380944
 40
0.1023038810380944
 40
0.3267279107785698
 40
0.3267279107785698
 40
0.5511519405190451
 40
0.5511519405190451
 40
1.0
 40
1.0
 40
1.0
 40
1.0
 10
33.31374765961254
 20
187.9917559733412
 30
0.0
 10
33.26821373285333
 20
187.2676508311822
 30
0.0
 10
33.29764451769606
 20
186.5416555015676
 30
0.0
 10
33.62063457366586
 20
184.2679252891081
 30
0.0
 10
34.18790842782138
 20
182.7238092171543
 30
0.0
 10
35.93767389134423
 20
179.922520967874
 30
0.0
 10
37.15377183326052
 20
178.6416311024184
 30
0.0
 10
41.51354184565996
 20
175.517027274264
 30
0.0
 10
45.38357846230276
 20
174.2724403002128
 30
0.0
 10
49.3200570379393
 20
174.2724403001374
 30
0.0
  0
SPLINE
  5
23F
330
231
100
AcDbEntity
  8
DV3_Default
 62
     7
100
AcDbSpline
210
0.0
220
0.0
230
1.0
 70
     8
 71
     3
 72
    50
 73
    46
 74
     0
 42
0.000000001
 43
0.0000000001
 40
0.0
 40
0.0
 40
0.0
 40
0.0
 40
0.0131280789943297
 40
0.0432897372671399
 40
0.0731756810355271
 40
0.1027106265344394
 40
0.13118854350615
 40
0.162007084233717
 40
0.1913066163794406
 40
0.2192081798403552
 40
0.2458270635842287
 40
0.2712729133982803
 40
0.2956467241176109
 40
0.3190214273424182
 40
0.3414879881761728
 40
0.3631375873486661
 40
0.3840544844932038
 40
0.404315929712331
 40
0.4239945338127786
 40
0.4437253118904286
 40
0.463973656592598
 40
0.4847541535182702
 40
0.5024941485172435
 40
0.5206336109577664
 40
0.5391902320007756
 40
0.553394611964256
 40
0.5678538516108631
 40
0.5825803097127852
 40
0.5981090873079339
 40
0.6148366664086232
 40
0.6327716126387178
 40
0.6519267077818153
 40
0.6723184416688992
 40
0.6939657595097195
 40
0.7168876232392091
 40
0.7410985872606515
 40
0.766601212187346
 40
0.7933740593378193
 40
0.8213538016145892
 40
0.8504098838948017
 40
0.8803107875360234
 40
0.9106967247045766
 40
0.941099136865385
 40
0.9710096116727807
 40
1.0
 40
1.0
 40
1.0
 40
1.0
 10
34.40914044076813
 20
341.7860785773755
 30
0.0
 10
34.4075873952637
 20
341.7669756433742
 30
0.0
 10
34.40301142538074
 20
341.6873094828507
 30
0.0
 10
34.39784846529036
 20
341.4532741086311
 30
0.0
 10
34.39430198412462
 20
340.9723636447216
 30
0.0
 10
34.39255170965252
 20
340.2722509895496
 30
0.0
 10
34.39115222447739
 20
339.3469340939497
 30
0.0
 10
34.38998200108129
 20
338.174190363999
 30
0.0
 10
34.3889694417901
 20
336.7131119612777
 30
0.0
 10
34.38804799174504
 20
335.01494748438
 30
0.0
 10
34.38713268749582
 20
333.0801541541522
 30
0.0
 10
34.38616408957884
 20
330.9127968863655
 30
0.0
 10
34.38511141383355
 20
328.5176501420257
 30
0.0
 10
34.3839668072657
 20
325.9159406018101
 30
0.0
 10
34.38273608286395
 20
323.1186379978403
 30
0.0
 10
34.38142390631696
 20
320.137408755542
 30
0.0
 10
34.38003571488696
 20
316.9847463093246
 30
0.0
 10
34.37857722390046
 20
313.6739573472877
 30
0.0
 10
34.37703977247154
 20
310.1855502562114
 30
0.0
 10
34.37539923381609
 20
306.4652423163346
 30
0.0
 10
34.37362592720756
 20
302.4462236199246
 30
0.0
 10
34.37181515251221
 20
298.3447940452555
 30
0.0
 10
34.36999052536385
 20
294.2144495565908
 30
0.0
 10
34.36817337944656
 20
290.1033803316342
 30
0.0
 10
34.36642009064439
 20
286.1391583986835
 30
0.0
 10
34.36475568167481
 20
282.3780158137753
 30
0.0
 10
34.36319989594501
 20
278.8640283126703
 30
0.0
 10
34.36157370716504
 20
275.1932193009961
 30
0.0
 10
34.3598456282071
 20
271.2935016853795
 30
0.0
 10
34.35798723298841
 20
267.0940581075531
 30
0.0
 10
34.35599639107465
 20
262.5718843894556
 30
0.0
 10
34.35389322456248
 20
257.7423409201271
 30
0.0
 10
34.35170679712262
 20
252.6277370637351
 30
0.0
 10
34.34947275732707
 20
247.2581477246389
 30
0.0
 10
34.34724487727915
 20
241.6721837878068
 30
0.0
 10
34.34498671769757
 20
235.9175576459625
 30
0.0
 10
34.34209935716309
 20
230.0514030216285
 30
0.0
 10
34.33659173614586
 20
224.1401479070948
 30
0.0
 10
34.32382625382631
 20
218.259235329526
 30
0.0
 10
34.29453104211775
 20
212.4909724210838
 30
0.0
 10
34.23267164070209
 20
206.9257018034942
 30
0.0
 10
34.11078921982852
 20
201.6391115115771
 30
0.0
 10
33.91039255209656
 20
196.738422684319
 30
0.0
 10
33.60635539102333
 20
192.1174289933716
 30
0.0
 10
33.4196591608289
 20
189.4698291514685
 30
0.0
 10
33.30802775280799
 20
187.9327107400734
 30
0.0
  0
ARC
  5
240
330
231
100
AcDbEntity
  8
DV3_Default
 62
     7
100
AcDbCircle
 10
49.7573904643
 20
342.6136469604
 30
0.0
 40
15.80452696699603
100
AcDbArc
 50
108.6013590332
 51
140.4660444453
  0
SPLINE
  5
241
330
231
100
AcDbEntity
  8
DV3_Default
 62
     7
100
AcDbSpline
210
0.0
220
0.0
230
1.0
 70
     8
 71
     3
 72
    55
 73
    51
 74
     0
 42
0.000000001
 43
0.0000000001
 40
0.0
 40
0.0
 40
0.0
 40
0.0
 40
0.0271521414458656
 40
0.0545592440319239
 40
0.0817838248959404
 40
0.1083554488042703
 40
0.1338653161671124
 40
0.158006106933
 40
0.1805762879210778
 40
0.2014581353915985
 40
0.2205888082517497
 40
0.2379389497471083
 40
0.2536201890006224
 40
0.2688232327891927
 40
0.2888176131776159
 40
0.3085011989697631
 40
0.3278826181600324
 40
0.3469744977064407
 40
0.3657922709903045
 40
0.3843630374920927
 40
0.4029011264704069
 40
0.421505751663267
 40
0.4402030302523867
 40
0.4590224890231601
 40
0.4779974089284318
 40
0.4971629776146194
 40
0.5163255703190458
 40
0.5353617196001612
 40
0.5543014359765582
 40
0.5769406729036234
 40
0.5995295970984559
 40
0.6221103161812018
 40
0.6445562512600936
 40
0.6667121602277006
 40
0.6939766323438791
 40
0.720715676418952
 40
0.7468496427599868
 40
0.7723881348779549
 40
0.7859983292987283
 40
0.8007584118129025
 40
0.8167378100765069
 40
0.8340145212296751
 40
0.8526760980465717
 40
0.8728207142051686
 40
0.8945583148640243
 40
0.9180118678184606
 40
0.9405961746627028
 40
0.9647777834336404
 40
0.9906776479941081
 40
1.0
 40
1.0
 40
1.0
 40
1.0
 10
65.33208169275035
 20
187.9330904176716
 30
0.0
 10
65.22672517440881
 20
189.3920933982283
 30
0.0
 10
65.05225832871325
 20
191.8759276409493
 30
0.0
 10
64.76507693219757
 20
196.1548708283748
 30
0.0
 10
64.56996983889921
 20
200.5709432781618
 30
0.0
 10
64.44467376720506
 20
205.1965595551675
 30
0.0
 10
64.37477925606944
 20
209.9164205316554
 30
0.0
 10
64.33769567466268
 20
214.6483352211763
 30
0.0
 10
64.31873431485255
 20
219.3034257302874
 30
0.0
 10
64.30918567493458
 20
223.8045810432351
 30
0.0
 10
64.30427140352008
 20
228.0852122852925
 30
0.0
 10
64.30149867143368
 20
232.0989565660399
 30
0.0
 10
64.29962146953007
 20
235.9058069532589
 30
0.0
 10
64.29795219181523
 20
240.0035347416355
 30
0.0
 10
64.29625264330704
 20
244.5147604880562
 30
0.0
 10
64.29438608819615
 20
249.4593223414656
 30
0.0
 10
64.29251470389192
 20
254.3942341545657
 30
0.0
 10
64.29065030935134
 20
259.2969075042793
 30
0.0
 10
64.28880238144285
 20
264.1469362258815
 30
0.0
 10
64.28697277664678
 20
268.9419671413933
 30
0.0
 10
64.28516048760413
 20
273.6876559912466
 30
0.0
 10
64.2833638308746
 20
278.3889637165505
 30
0.0
 10
64.28158744775297
 20
283.0339402029245
 30
0.0
 10
64.27983843103785
 20
287.6043305668338
 30
0.0
 10
64.27812383415446
 20
292.081971972389
 30
0.0
 10
64.2764574012083
 20
296.4312860379878
 30
0.0
 10
64.27485618424025
 20
300.6080326938172
 30
0.0
 10
64.27333484616813
 20
304.5743523924041
 30
0.0
 10
64.2718047455861
 20
308.5616606423735
 30
0.0
 10
64.27028738903772
 20
312.5139480413923
 30
0.0
 10
64.26880708287764
 20
316.36810460479
 30
0.0
 10
64.2674557778698
 20
319.8851767443354
 30
0.0
 10
64.26623637194228
 20
323.0581243233846
 30
0.0
 10
64.26505973469344
 20
326.1192530900821
 30
0.0
 10
64.26395736965448
 20
328.9868421359473
 30
0.0
 10
64.2629528669749
 20
331.5998959292206
 30
0.0
 10
64.26210904297902
 20
333.7948222493363
 30
0.0
 10
64.26150351347191
 20
335.3705122863345
 30
0.0
 10
64.26107531145232
 20
336.4844645788332
 30
0.0
 10
64.2606486945771
 20
337.2927935898849
 30
0.0
 10
64.25988172845106
 20
338.0554397915724
 30
0.0
 10
64.25841278433944
 20
338.7608709877493
 30
0.0
 10
64.25575410299267
 20
339.3984908794383
 30
0.0
 10
64.25129122698911
 20
339.957910895109
 30
0.0
 10
64.24428150097816
 20
340.4295380216116
 30
0.0
 10
64.23425482361515
 20
340.7903574353776
 30
0.0
 10
64.22073087548425
 20
341.0482408689697
 30
0.0
 10
64.20330160408386
 20
341.2108748624626
 30
0.0
 10
64.18598381083868
 20
341.2673418580977
 30
0.0
 10
64.17443167449208
 20
341.2747740822272
 30
0.0
 10
64.17128423215514
 20
341.2750469719096
 30
0.0
  0
ARC
  5
242
330
231
100
AcDbEntity
  8
DV3_Default
 62
     7
100
AcDbCircle
 10
48.867728073
 20
342.5959713472
 30
0.0
 40
15.82517844838024
100
AcDbArc
 50
39.5547967511
 51
71.3743236959
  0
LINE
  5
243
330
231
100
AcDbEntity
  8
DV3_Default
 62
     7
100
AcDbLine
 10
94.1185555487
 20
367.1463343559
 30
0.0
 11
94.1185555487
 21
319.5496820219
 31
0.0
  0
ELLIPSE
  5
244
330
231
100
AcDbEntity
  8
DV3_Default
 62
     7
100
AcDbEllipse
 10
140.9972789097
 20
343.2749657937
 30
0.0
 11
1.40321169034334
 21
22.5990999121979
 31
0.0
210
0.0
220
0.0
230
1.0
 40
0.1059303317
 41
3.819124575768686
 42
4.592803162820358
  0
ARC
  5
245
330
231
100
AcDbEntity
  8
DV3_Default
 62
     7
100
AcDbCircle
 10
137.2290278476
 20
343.934941701
 30
0.0
 40
1.403980060827834
100
AcDbArc
 50
317.9792303202
 51
355.3380023712
  0
ARC
  5
246
330
231
100
AcDbEntity
  8
DV3_Default
 62
     7
100
AcDbCircle
 10
142.7939353858
 20
363.6369786175
 30
0.0
 40
0.517897889063311
100
AcDbArc
 50
350.7373672096
 51
8.0257070006
  0
ELLIPSE
  5
247
330
231
100
AcDbEntity
  8
DV3_Default
 62
     7
100
AcDbEllipse
 10
143.0070598098
 20
363.5695202938
 30
0.0
 11
-0.2919512770083579
 21
0.06902500673829587
 31
0.0
210
0.0
220
0.0
230
1.0
 40
0.8662062688
 41
3.14130952044227
 42
3.347155838116045
  0
ARC
  5
248
330
231
100
AcDbEntity
  8
DV3_Default
 62
     7
100
AcDbCircle
 10
139.9069798173
 20
351.4046094841
 30
0.0
 40
0.5179201836025095
100
AcDbArc
 50
345.9358323342
 51
352.8551610947
  0
SPLINE
  5
249
330
231
100
AcDbEntity
  8
DV3_Default
 62
     7
100
AcDbSpline
210
0.0
220
0.0
230
1.0
 70
     8
 71
     3
 72
     8
 73
     4
 74
     0
 42
0.000000001
 43
0.0000000001
 40
0.0
 40
0.0
 40
0.0
 40
0.0
 40
1.0
 40
1.0
 40
1.0
 40
1.0
 10
140.4208783015848
 20
351.34019159484
 30
0.0
 10
140.4211959010028
 20
351.3365470174839
 30
0.0
 10
140.4209325863431
 20
351.3330056410674
 30
0.0
 10
140.4201059456727
 20
351.3296057165306
 30
0.0
  0
LINE
  5
24A
330
231
100
AcDbEntity
  8
DV3_Default
 62
     7
100
AcDbLine
 10
138.2408655207
 20
319.7329785985
 30
0.0
 11
138.6294955245
 21
319.7363701211
 31
0.0
  0
LINE
  5
24B
330
231
100
AcDbEntity
  8
DV3_Default
 62
     7
100
AcDbLine
 10
141.4025833166
 20
366.9354458862
 30
0.0
 11
94.3203008558
 21
367.3463267405
 31
0.0
  0
ARC
  5
24C
330
231
100
AcDbEntity
  8
DV3_Default
 62
     7
100
AcDbCircle
 10
94.3185555487
 20
319.5496820219
 30
0.0
 40
0.1999999999999988
100
AcDbArc
 50
180.0
 51
270.5000000001
  0
ARC
  5
24D
330
231
100
AcDbEntity
  8
DV3_Default
 62
     7
100
AcDbCircle
 10
94.3185555487
 20
367.1463343559
 30
0.0
 40
0.1999999999999938
100
AcDbArc
 50
89.4999999999
 51
180.0
  0
SPLINE
  5
24E
330
231
100
AcDbEntity
  8
DV3_Default
 62
     7
100
AcDbSpline
210
0.0
220
0.0
230
1.0
 70
     8
 71
     3
 72
    18
 73
    14
 74
     0
 42
0.000000001
 43
0.0000000001
 40
0.0
 40
0.0
 40
0.0
 40
0.0
 40
0.0550960344068628
 40
0.1136022017841771
 40
0.1770225103503381
 40
0.253963976101126
 40
0.3576753585070332
 40
0.4972237454687424
 40
0.6164371403890149
 40
0.7423416183488094
 40
0.8647149549364521
 40
0.9852507452547237
 40
1.0
 40
1.0
 40
1.0
 40
1.0
 10
138.6338096396894
 20
319.7407962657495
 30
0.0
 10
138.7785361569741
 20
319.7542381476982
 30
0.0
 10
139.0275732476039
 20
319.7789035106898
 30
0.0
 10
139.3655743778433
 20
319.9587781865895
 30
0.0
 10
139.6331717906579
 20
320.1869495623711
 30
0.0
 10
139.8785339423903
 20
320.4917157641518
 30
0.0
 10
140.1321707276259
 20
320.9280966566445
 30
0.0
 10
140.384684340628
 20
321.5170410265961
 30
0.0
 10
140.6407167344456
 20
322.2746589139816
 30
0.0
 10
140.8812862268866
 20
323.126067888158
 30
0.0
 10
141.1167657413546
 20
324.1078985780671
 30
0.0
 10
141.2870053287217
 20
324.8867842368108
 30
0.0
 10
141.3670844751819
 20
325.3131225367148
 30
0.0
 10
141.3772408073294
 20
325.3672525139958
 30
0.0
  0
SPLINE
  5
24F
330
231
100
AcDbEntity
  8
DV3_Default
 62
     7
100
AcDbSpline
210
0.0
220
0.0
230
1.0
 70
     8
 71
     3
 72
    16
 73
    12
 74
     0
 42
0.000000001
 43
0.0000000001
 40
0.0
 40
0.0
 40
0.0
 40
0.0
 40
0.0351739723092425
 40
0.2105807030080499
 40
0.3896886496019308
 40
0.5785852464177198
 40
0.7013845734556489
 40
0.7984532176504339
 40
0.8849477884892913
 40
0.9667137536199825
 40
1.0
 40
1.0
 40
1.0
 40
1.0
 10
143.3001119648289
 20
363.7505410472922
 30
0.0
 10
143.2904339583513
 20
363.8155154173172
 30
0.0
 10
143.2405856387791
 20
364.148017434236
 30
0.0
 10
143.1266932054735
 20
364.7364340330139
 30
0.0
 10
142.9509909583189
 20
365.4122257873385
 30
0.0
 10
142.7552811004246
 20
365.9264326156668
 30
0.0
 10
142.5296708397492
 20
366.3139306453544
 30
0.0
 10
142.280901366182
 20
366.5994693805381
 30
0.0
 10
141.9702971652909
 20
366.8134515955176
 30
0.0
 10
141.6408951917396
 20
366.9355741160084
 30
0.0
 10
141.4636238820956
 20
366.9226924899862
 30
0.0
 10
141.4029989174117
 20
366.9180210635443
 30
0.0
  0
LINE
  5
250
330
231
100
AcDbEntity
  8
DV3_Default
 62
     7
100
AcDbLine
 10
143.306367367
 20
363.7093233428
 30
0.0
 11
143.3001119648
 21
363.7505410473
 31
0.0
  0
ARC
  5
251
330
231
100
AcDbEntity
  8
DV3_Default
 62
     7
100
AcDbCircle
 10
141.8104378968
 20
328.3992987283
 30
0.0
 40
14.83775013414112
100
AcDbArc
 50
111.35728012
 51
135.3593010512
  0
ARC
  5
252
330
231
100
AcDbEntity
  8
DV3_Default
 62
     7
100
AcDbCircle
 10
188.4155158695
 20
211.6660159892
 30
0.0
 40
140.5453005035768
100
AcDbArc
 50
110.9341391786
 51
111.7212203339
  0
SPLINE
  5
253
330
231
100
AcDbEntity
  8
DV3_Default
 62
     7
100
AcDbSpline
210
0.0
220
0.0
230
1.0
 70
     8
 71
     3
 72
     8
 73
     4
 74
     0
 42
0.000000001
 43
0.0000000001
 40
0.0
 40
0.0
 40
0.0
 40
0.0
 40
1.0
 40
1.0
 40
1.0
 40
1.0
 10
138.5932963248329
 20
343.6119847731258
 30
0.0
 10
139.065686105996
 20
345.6041855437339
 30
0.0
 10
139.6713548871926
 20
348.159793982794
 30
0.0
 10
140.4103026684225
 20
351.2788100903063
 30
0.0
  0
ARC
  5
254
330
231
100
AcDbEntity
  8
DV3_Default
 62
     7
100
AcDbCircle
 10
138.0895977421
 20
343.209540389
 30
0.0
 40
0.2999999999998094
100
AcDbArc
 50
291.9635548006
 51
322.2642205139
  0
LINE
  5
255
330
231
100
AcDbEntity
  8
DV3_Default
 62
     7
100
AcDbLine
 10
140.4196097959
 20
351.3297474504
 30
0.0
 11
143.2986872628
 21
363.5005121912
 31
0.0
  0
ARC
  5
256
330
231
100
AcDbEntity
  8
DV3_Default
 62
     7
100
AcDbCircle
 10
30.0117837508
 20
355.3222032759
 30
0.0
 40
114.6117177935896
100
AcDbArc
 50
354.3651097715
 51
359.7701861248
  0
ARC
  5
257
330
231
100
AcDbEntity
  8
DV3_Default
 62
     7
100
AcDbCircle
 10
128.2870353109
 20
284.2913934772
 30
0.0
 40
1.417288688006306
100
AcDbArc
 50
320.2347705737
 51
350.7763545514
  0
ARC
  5
258
330
231
100
AcDbEntity
  8
DV3_Default
 62
     7
100
AcDbCircle
 10
-51317.3749438114
 20
12648.1862626525
 30
0.0
 40
52911.92298106026
100
AcDbArc
 50
346.4865482638
 51
346.5533648506
  0
SPLINE
  5
259
330
231
100
AcDbEntity
  8
DV3_Default
 62
     7
100
AcDbSpline
210
0.0
220
0.0
230
1.0
 70
     8
 71
     3
 72
    11
 73
     7
 74
     0
 42
0.000000001
 43
0.0000000001
 40
0.0
 40
0.0
 40
0.0
 40
0.0
 40
0.9561441605484042
 40
0.9561441605484042
 40
0.9561441605484042
 40
0.9999999999999999
 40
0.9999999999999999
 40
0.9999999999999999
 40
0.9999999999999999
 10
144.0631807736172
 20
344.0146334789283
 30
0.0
 10
144.0589122357908
 20
344.0003269365602
 30
0.0
 10
144.0525884389185
 20
343.9864870847273
 30
0.0
 10
144.044270098022
 20
343.973431084211
 30
0.0
 10
144.0438885574156
 20
343.9728322395115
 30
0.0
 10
144.043502845757
 20
343.9722350395244
 30
0.0
 10
144.0431129685651
 20
343.9716395032004
 30
0.0
  0
SPLINE
  5
25A
330
231
100
AcDbEntity
  8
DV3_Default
 62
     7
100
AcDbSpline
210
0.0
220
0.0
230
1.0
 70
     8
 71
     5
 72
    16
 73
    10
 74
     0
 42
0.000000001
 43
0.0000000001
 40
0.0
 40
0.0
 40
0.0
 40
0.0
 40
0.0
 40
0.0
 40
0.2080302696773738
 40
0.4160605393547476
 40
0.6240908090321214
 40
0.8321210787094953
 40
1.0
 40
1.0
 40
1.0
 40
1.0
 40
1.0
 40
1.0
 10
129.3764652141435
 20
283.3848342065589
 30
0.0
 10
129.3756961489657
 20
283.3734071169465
 30
0.0
 10
129.3734082787031
 20
283.3509143322077
 30
0.0
 10
129.3679039221466
 20
283.3182531208597
 30
0.0
 10
129.3566093745647
 20
283.2769577064826
 30
0.0
 10
129.3371609446387
 20
283.2311567442121
 30
0.0
 10
129.3176770552128
 20
283.1979353291877
 30
0.0
 10
129.3012692542836
 20
283.1751833360526
 30
0.0
 10
129.2899077847709
 20
283.1612817463823
 30
0.0
 10
129.284678660197
 20
283.1552239613491
 30
0.0
  0
ARC
  5
25B
330
231
100
AcDbEntity
  8
DV3_Default
 62
     7
100
AcDbCircle
 10
96.7123630236
 20
355.6356805215
 30
0.0
 40
47.91645507200761
100
AcDbArc
 50
359.075429555
 51
8.7615393251
  0
LINE
  5
25C
330
231
100
AcDbEntity
  8
DV3_Default
 62
     7
100
AcDbLine
 10
144.0696748567
 20
362.9344336036
 30
0.0
 11
144.0697715633
 21
362.9416967675
 31
0.0
  0
ARC
  5
25D
330
231
100
AcDbEntity
  8
DV3_Default
 62
     7
100
AcDbCircle
 10
143.4019357545
 20
363.0068801055
 30
0.0
 40
0.6710192796907122
100
AcDbArc
 50
354.4263751175
 51
10.224737342
  0
ARC
  5
25E
330
231
100
AcDbEntity
  8
DV3_Default
 62
     7
100
AcDbCircle
 10
129.97118081
 20
289.0117205264
 30
0.0
 40
7.407514124275222
100
AcDbArc
 50
171.5261626144
 51
179.5471155509
  0
ARC
  5
25F
330
231
100
AcDbEntity
  8
DV3_Default
 62
     7
100
AcDbCircle
 10
129.8440011335
 20
289.080793512
 30
0.0
 40
7.281863958455676
100
AcDbArc
 50
179.9865487099
 51
227.210332176
  0
SPLINE
  5
260
330
231
100
AcDbEntity
  8
DV3_Default
 62
     7
100
AcDbSpline
210
0.0
220
0.0
230
1.0
 70
     8
 71
     3
 72
    17
 73
    13
 74
     0
 42
0.000000001
 43
0.0000000001
 40
0.0
 40
0.0
 40
0.0
 40
0.0
 40
0.151249606206796
 40
0.2648683568347499
 40
0.3593746920752303
 40
0.4640193804655922
 40
0.5556688167714886
 40
0.6499346285269735
 40
0.7581076439584703
 40
0.8296842720632434
 40
0.8903607337324789
 40
1.0
 40
1.0
 40
1.0
 40
1.0
 10
124.8973211838188
 20
283.7369397874869
 30
0.0
 10
125.1317155527393
 20
283.5261353300594
 30
0.0
 10
125.4800830003016
 20
283.2198923797013
 30
0.0
 10
126.0629753854848
 20
282.8713253201104
 30
0.0
 10
126.5779686482627
 20
282.6483110748121
 30
0.0
 10
127.0687127272128
 20
282.5131481424965
 30
0.0
 10
127.550663294875
 20
282.4572229638073
 30
0.0
 10
128.0180846797383
 20
282.4766029997055
 30
0.0
 10
128.4221986007468
 20
282.5718919463012
 30
0.0
 10
128.7355963097173
 20
282.7085945792024
 30
0.0
 10
129.0302153962057
 20
282.8899736783984
 30
0.0
 10
129.1751529825228
 20
283.0392016265325
 30
0.0
 10
129.2846410653288
 20
283.1552279157361
 30
0.0
  0
ARC
  5
261
330
231
100
AcDbEntity
  8
DV3_Default
 62
     7
100
AcDbCircle
 10
143.3692595778
 20
363.0309495915
 30
0.0
 40
0.6996536534854721
100
AcDbArc
 50
7.8092361159
 51
51.946488345
  0
ARC
  5
262
330
231
100
AcDbEntity
  8
DV3_Default
 62
     7
100
AcDbCircle
 10
143.1241622106
 20
362.6219700115
 30
0.0
 40
1.173436509423978
100
AcDbArc
 50
54.1312538483
 51
81.5625098058
  0
ARC
  5
263
330
231
100
AcDbEntity
  8
DV3_Default
 62
     7
100
AcDbCircle
 10
11915.3844084404
 20
-1505.7774971613
 30
0.0
 40
11928.70577637225
100
AcDbArc
 50
171.1118396975
 51
171.3411234714
  0
LINE
  5
264
330
231
100
AcDbEntity
  8
DV3_Default
 62
     7
100
AcDbLine
 10
93.8185555487
 20
320.3478378307
 30
0.0
 11
94.1185555487
 21
320.3478378307
 31
0.0
  0
LINE
  5
265
330
231
100
AcDbEntity
  8
DV3_Default
 62
     7
100
AcDbLine
 10
94.1185555487
 20
366.3478378307
 30
0.0
 11
93.8185555487
 21
366.3478378307
 31
0.0
  0
ARC
  5
266
330
231
100
AcDbEntity
  8
DV3_Default
 62
     7
100
AcDbCircle
 10
49.5112851452
 20
141.1822030705
 30
0.0
 40
33.74183127316742
100
AcDbArc
 50
125.3836200553
 51
269.7157724308
  0
ARC
  5
267
330
231
100
AcDbEntity
  8
DV3_Default
 62
     7
100
AcDbCircle
 10
49.1597127634
 20
141.1821155042
 30
0.0
 40
33.7418312686342
100
AcDbArc
 50
270.3127674561
 51
54.5592539847
  0
SPLINE
  5
268
330
231
100
AcDbEntity
  8
DV3_Default
 62
     7
100
AcDbSpline
210
0.0
220
0.0
230
1.0
 70
     8
 71
     3
 72
    30
 73
    26
 74
     0
 42
0.000000001
 43
0.0000000001
 40
0.0
 40
0.0
 40
0.0
 40
0.0
 40
0.0115596492590641
 40
0.0572505773113102
 40
0.1000600177507085
 40
0.1374069264959207
 40
0.1672856806533603
 40
0.1882835339241773
 40
0.2059013351454839
 40
0.2584686490515813
 40
0.3174233755615228
 40
0.3755327580150076
 40
0.437961483898733
 40
0.5047059442028674
 40
0.5728656867144908
 40
0.6169857237274196
 40
0.6566058744222785
 40
0.6953466483255064
 40
0.7409325773961151
 40
0.796671508569411
 40
0.8582655936916445
 40
0.9111000555708977
 40
0.9561824258138172
 40
0.9989428135033089
 40
1.0
 40
1.0
 40
1.0
 40
1.0
 10
33.30585005279784
 20
186.8030477660464
 30
0.0
 10
33.29912055729717
 20
186.7052915440584
 30
0.0
 10
33.26564684744657
 20
186.2247034122676
 30
0.0
 10
33.19976026777441
 20
185.3391536765905
 30
0.0
 10
33.1106217825282
 20
184.2736788894317
 30
0.0
 10
33.02533679591964
 20
183.3545799899537
 30
0.0
 10
32.9525111146938
 20
182.6336026180878
 30
0.0
 10
32.89437972072738
 20
182.091986744527
 30
0.0
 10
32.81615269694665
 20
181.3943217783028
 30
0.0
 10
32.69944909646871
 20
180.4308260842931
 30
0.0
 10
32.53506176535717
 20
179.2199170625726
 30
0.0
 10
32.34828971032942
 20
177.9908029435456
 30
0.0
 10
32.14094636065538
 20
176.7688294951576
 30
0.0
 10
31.90894326601877
 20
175.545734798069
 30
0.0
 10
31.68617107063049
 20
174.4943836470328
 30
0.0
 10
31.49017915738607
 20
173.6463863890389
 30
0.0
 10
31.32963880428841
 20
172.9939380043823
 30
0.0
 10
31.1676043544419
 20
172.3713684661483
 30
0.0
 10
30.98381220937177
 20
171.7050262542706
 30
0.0
 10
30.7679229311305
 20
170.9737379362548
 30
0.0
 10
30.53935662140564
 20
170.2569781142215
 30
0.0
 10
30.32345545284192
 20
169.6285478083299
 30
0.0
 10
30.13699076186064
 20
169.1190326591717
 30
0.0
 10
30.02450667941939
 20
168.8282149878009
 30
0.0
 10
29.9705239741503
 20
168.6921883446247
 30
0.0
 10
29.9692223785422
 20
168.6889106688587
 30
0.0
  0
SPLINE
  5
269
330
231
100
AcDbEntity
  8
DV3_Default
 62
     7
100
AcDbSpline
210
0.0
220
0.0
230
1.0
 70
     8
 71
     3
 72
    32
 73
    28
 74
     0
 42
0.000000001
 43
0.0000000001
 40
0.0
 40
0.0
 40
0.0
 40
0.0
 40
0.0104082188218255
 40
0.0437529618980289
 40
0.0779671132872636
 40
0.1190855448780066
 40
0.1681224848344264
 40
0.2310957166308682
 40
0.2846798274166995
 40
0.3294070110985996
 40
0.3720423003477053
 40
0.4202673264109807
 40
0.4882747870198125
 40
0.5547389930668397
 40
0.616822810303177
 40
0.6744890298903228
 40
0.7268822204759603
 40
0.74477799717911
 40
0.7619931646239546
 40
0.7785436258987395
 40
0.794445268210452
 40
0.8119175770836797
 40
0.8366270898726166
 40
0.8741110543632626
 40
0.9184437549958896
 40
0.9665828964108213
 40
1.0
 40
1.0
 40
1.0
 40
1.0
 10
68.72527485361049
 20
168.6721129115433
 30
0.0
 10
68.71223851225305
 20
168.7048678954714
 30
0.0
 10
68.65708683964769
 20
168.8443385936172
 30
0.0
 10
68.55593608108983
 20
169.107076681381
 30
0.0
 10
68.40995358444651
 20
169.5030760676016
 30
0.0
 10
68.2387567187361
 20
169.9908924045866
 30
0.0
 10
68.02775736743126
 20
170.6291662720828
 30
0.0
 10
67.80231623529335
 20
171.3637616917845
 30
0.0
 10
67.585495347456
 20
172.1283538534997
 30
0.0
 10
67.39751930129809
 20
172.8380234220942
 30
0.0
 10
67.21597947080429
 20
173.5681471318872
 30
0.0
 10
67.0063670706115
 20
174.4714412538683
 30
0.0
 10
66.77445189243296
 20
175.5670212999166
 30
0.0
 10
66.53895548591868
 20
176.812252366528
 30
0.0
 10
66.32910988340949
 20
178.0551674452801
 30
0.0
 10
66.1470427706026
 20
179.2615349164633
 30
0.0
 10
66.02065459923138
 20
180.1950789173019
 30
0.0
 10
65.9380429093469
 20
180.851330985299
 30
0.0
 10
65.89041684159059
 20
181.2441760246786
 30
0.0
 10
65.84565373884391
 20
181.6273762642276
 30
0.0
 10
65.80177216938846
 20
182.0170216164592
 30
0.0
 10
65.75147340222217
 20
182.4811256934265
 30
0.0
 10
65.68345532083214
 20
183.1412439251544
 30
0.0
 10
65.59751234407423
 20
184.0440830795793
 30
0.0
 10
65.50181758154075
 20
185.1629460673903
 30
0.0
 10
65.41623742292188
 20
186.2977739009176
 30
0.0
 10
65.36956060796237
 20
186.9831275037175
 30
0.0
 10
65.34876096864508
 20
187.2939007188877
 30
0.0
  0
LINE
  5
26A
330
231
100
AcDbEntity
  8
DV3_Default
 62
     7
100
AcDbLine
 10
93.8185555487
 20
319.6939916768
 30
0.0
 11
94.1185555487
 21
319.6478378307
 31
0.0
  0
LINE
  5
26B
330
231
100
AcDbEntity
  8
DV3_Default
 62
     7
100
AcDbLine
 10
121.6819314966
 20
319.3652802842
 30
0.0
 11
127.2539113775
 21
320.1471681721
 31
0.0
  0
ARC
  5
26C
330
231
100
AcDbEntity
  8
DV3_Default
 62
     7
100
AcDbCircle
 10
121.4538457202
 20
320.8478378307
 30
0.0
 40
1.500000000000001
100
AcDbArc
 50
270.0
 51
278.7461622626
  0
LINE
  5
26D
330
231
100
AcDbEntity
  8
DV3_Default
 62
     7
100
AcDbLine
 10
94.3203008558
 20
319.3496896373
 30
0.0
 11
121.4538457202
 21
319.3478378307
 31
0.0
  0
LINE
  5
26E
330
231
100
AcDbEntity
  8
DV3_Default
 62
     7
100
AcDbLine
 10
94.1185555487
 20
367.0478378307
 30
0.0
 11
93.8185555487
 21
367.0016839845
 31
0.0
  0
LINE
  5
26F
330
231
100
AcDbEntity
  8
DV3_Default
 62
     7
100
AcDbLine
 10
141.3772408073
 20
325.367252514
 30
0.0
 11
141.4046932306
 21
325.5743240838
 31
0.0
  0
LINE
  5
270
330
231
100
AcDbEntity
  8
DV3_Default
 62
     7
100
AcDbLine
 10
129.9207462679
 20
337.2818526338
 30
0.0
 11
131.2529764908
 21
338.8251722027
 31
0.0
  0
ENDBLK
  5
272
330
231
100
AcDbEntity
  8
0
100
AcDbBlockEnd
  0
ENDSEC
  0
SECTION
  2
ENTITIES
  0
INSERT
  5
70
330
1F
100
AcDbEntity
  8
Default
100
AcDbBlockReference
  2
SEANNOT_GROUP
 10
0.0
 20
0.0
 30
0.0
  0
INSERT
  5
76
330
1F
100
AcDbEntity
  8
Default
100
AcDbBlockReference
  2
SEANNOT_GROUP1
 10
0.0
 20
0.0
 30
0.0
  0
INSERT
  5
7C
330
1F
100
AcDbEntity
  8
Default
100
AcDbBlockReference
  2
SEANNOT_GROUP2
 10
0.0
 20
0.0
 30
0.0
  0
INSERT
  5
82
330
1F
100
AcDbEntity
  8
Default
100
AcDbBlockReference
  2
SEANNOT_GROUP3
 10
0.0
 20
0.0
 30
0.0
  0
INSERT
  5
8C
330
1F
100
AcDbEntity
  8
Default
100
AcDbBlockReference
  2
SEANNOT_GROUP4
 10
0.0
 20
0.0
 30
0.0
  0
INSERT
  5
92
330
1F
100
AcDbEntity
  8
Default
100
AcDbBlockReference
  2
SEANNOT_GROUP5
 10
0.0
 20
0.0
 30
0.0
  0
INSERT
  5
98
330
1F
100
AcDbEntity
  8
Default
100
AcDbBlockReference
  2
SE
 10
0.0
 20
0.0
 30
0.0
  0
INSERT
  5
162
330
1F
100
AcDbEntity
  8
Default
100
AcDbBlockReference
  2
SE1
 10
0.0
 20
0.0
 30
0.0
  0
INSERT
  5
232
330
1F
100
AcDbEntity
  8
Default
100
AcDbBlockReference
  2
SE2
 10
0.0
 20
0.0
 30
0.0
  0
MTEXT
  5
273
330
1F
100
AcDbEntity
  8
Default
100
AcDbMText
 10
5.9362635081
 20
63.4225120485
 30
0.0
 40
10.0
 41
113.8626497168
 46
65.4545454545
 71
     1
 72
     1
  1
{\fArial Narrow|b0||i0||c0|p34;\C7;\H10.;\W1.;Grohe AG\P}{\fArial Narrow|b0||i0||c0|p34;\C7;\H10.;\W1.;\P}{\fArial Narrow|b0||i0||c0|p34;\C7;\H10.;\W1.;ecn:\P}{\fArial Narrow|b0||i0||c0|p34;\C7;\H10.;\W1.;unit: mm}
 73
     1
 44
1.0
1001
ACAD
1000
ACAD_MTEXT_DEFINED_HEIGHT_BEGIN
1070
    46
1040
65.4545454545
1000
ACAD_MTEXT_DEFINED_HEIGHT_END
  0
LINE
  5
274
330
1F
100
AcDbEntity
  8
Default
 62
     7
100
AcDbLine
 10
0.0
 20
0.0
 30
0.0
 11
100.0
 21
0.0
 31
0.0
  0
LINE
  5
275
330
1F
100
AcDbEntity
  8
Default
 62
     7
100
AcDbLine
 10
0.0
 20
0.0
 30
0.0
 11
0.0
 21
100.0
 31
0.0
  0
MTEXT
  5
276
330
1F
100
AcDbEntity
  8
Default
100
AcDbMText
 10
24.3923665681
 20
-8.2375342018
 30
0.0
 40
10.0
 41
35.00001
 46
16.3636363636
 71
     1
 72
     1
  1
{\fArial Narrow|b0||i0||c0|p34;\C7;\H10.;\W0.82;100 mm}
 73
     1
 44
1.0
1001
ACAD
1000
ACAD_MTEXT_DEFINED_HEIGHT_BEGIN
1070
    46
1040
16.3636363636
1000
ACAD_MTEXT_DEFINED_HEIGHT_END
  0
MTEXT
  5
277
330
1F
100
AcDbEntity
  8
Default
100
AcDbMText
 10
-17.6150308803
 20
24.6231930421
 30
0.0
 40
10.0
 41
35.00001
 46
16.3636363636
 71
     1
 72
     1
  1
{\fArial Narrow|b0||i0||c0|p34;\C7;\H10.;\W0.82;100 mm}
 11
6.123233995736766E-17
 21
1.0
 31
0.0
 73
     1
 44
1.0
1001
ACAD
1000
ACAD_MTEXT_DEFINED_HEIGHT_BEGIN
1070
    46
1040
16.3636363636
1000
ACAD_MTEXT_DEFINED_HEIGHT_END
  0
MTEXT
  5
278
330
1F
100
AcDbEntity
  8
Default
100
AcDbMText
 10
28.4878128572
 20
24.8634936442
 30
0.0
 40
10.0
 41
86.691737001
 46
16.3636363636
 71
     4
 72
     1
  1
{\fArial Narrow|b0||i0||c0|p34;\C7;\H10.;\W1.;244328}
 73
     1
 44
1.0
1001
ACAD
1000
ACAD_MTEXT_DEFINED_HEIGHT_BEGIN
1070
    46
1040
16.3636363636
1000
ACAD_MTEXT_DEFINED_HEIGHT_END
  0
MTEXT
  5
279
330
1F
100
AcDbEntity
  8
Default
100
AcDbMText
 10
5.9012241913
 20
41.4970052916
 30
0.0
 40
10.0
 41
109.9146987306
 46
16.3636363636
 71
     4
 72
     1
  1
{\fArial Narrow|b0||i0||c0|p34;\C7;\H10.;\W1.;30368002}
 73
     1
 44
1.0
1001
ACAD
1000
ACAD_MTEXT_DEFINED_HEIGHT_BEGIN
1070
    46
1040
16.3636363636
1000
ACAD_MTEXT_DEFINED_HEIGHT_END
  0
ENDSEC
  0
SECTION
  2
OBJECTS
  0
DICTIONARY
  5
C
330
0
100
AcDbDictionary
281
     1
  3
ACAD_DETAILVIEWSTYLE
350
2B5
  3
ACAD_GROUP
350
D
  3
ACAD_LAYOUT
350
1A
  3
ACAD_MATERIAL
350
43
  3
ACAD_MLEADERSTYLE
350
6B
  3
ACAD_MLINESTYLE
350
17
  3
ACAD_PLOTSETTINGS
350
19
  3
ACAD_PLOTSTYLENAME
350
E
  3
ACAD_SCALELIST
350
47
  3
ACAD_SECTIONVIEWSTYLE
350
2B6
  3
ACAD_TABLESTYLE
350
69
  3
ACAD_VISUALSTYLE
350
2A
  3
ACDB_RECOMPOSE_DATA
350
2B2
  3
AcDbVariableDictionary
350
27A
  0
SUN
  5
6D
330
29
100
AcDbSun
 90
        1
290
     0
 63
     7
421
 16777215
 40
1.0
291
     1
 91
  2455826
 92
 54000000
292
     0
 70
     2
 71
   256
280
     1
  0
DICTIONARY
  5
2B5
102
{ACAD_REACTORS
330
C
102
}
330
C
100
AcDbDictionary
281
     1
  0
DICTIONARY
  5
D
102
{ACAD_REACTORS
330
C
102
}
330
C
100
AcDbDictionary
281
     1
  0
DICTIONARY
  5
1A
102
{ACAD_REACTORS
330
C
102
}
330
C
100
AcDbDictionary
281
     1
  3
Layout1
350
1E
  3
Model
350
22
  0
DICTIONARY
  5
43
102
{ACAD_REACTORS
330
C
102
}
330
C
100
AcDbDictionary
281
     1
  3
ByBlock
350
45
  3
ByLayer
350
44
  3
Global
350
46
  0
DICTIONARY
  5
6B
102
{ACAD_REACTORS
330
C
102
}
330
C
100
AcDbDictionary
281
     1
  3
Standard
350
6C
  0
DICTIONARY
  5
17
102
{ACAD_REACTORS
330
C
102
}
330
C
100
AcDbDictionary
281
     1
  3
Standard
350
18
  0
DICTIONARY
  5
19
102
{ACAD_REACTORS
330
C
102
}
330
C
100
AcDbDictionary
281
     1
  0
ACDBDICTIONARYWDFLT
  5
E
102
{ACAD_REACTORS
330
C
102
}
330
C
100
AcDbDictionary
281
     1
  3
Normal
350
F
100
AcDbDictionaryWithDefault
340
F
  0
DICTIONARY
  5
47
102
{ACAD_REACTORS
330
C
102
}
330
C
100
AcDbDictionary
281
     1
  3
A0
350
48
  3
A1
350
49
  3
A2
350
4A
  3
A3
350
4B
  3
A4
350
4C
  3
A5
350
4D
  3
A6
350
4E
  3
A7
350
4F
  3
A8
350
50
  3
A9
350
51
  3
B0
350
52
  3
B1
350
53
  3
B2
350
54
  3
B3
350
55
  3
B4
350
56
  3
B5
350
57
  3
B6
350
58
  3
B7
350
59
  3
B8
350
5A
  3
B9
350
5B
  3
C0
350
5C
  3
C1
350
5D
  3
C2
350
5E
  3
C3
350
5F
  3
C4
350
60
  3
C5
350
61
  3
C6
350
62
  3
C7
350
63
  3
C8
350
64
  3
C9
350
65
  3
D0
350
66
  3
D1
350
67
  3
D2
350
68
  0
DICTIONARY
  5
2B6
102
{ACAD_REACTORS
330
C
102
}
330
C
100
AcDbDictionary
281
     1
  0
DICTIONARY
  5
69
102
{ACAD_REACTORS
330
C
102
}
330
C
100
AcDbDictionary
281
     1
  3
Standard
350
6A
  0
DICTIONARY
  5
2A
102
{ACAD_REACTORS
330
C
102
}
330
C
100
AcDbDictionary
281
     1
  3
2dWireframe
350
2F
  3
Basic
350
32
  3
Brighten
350
36
  3
ColorChange
350
3A
  3
Conceptual
350
34
  3
Dim
350
35
  3
EdgeColorOff
350
3D
  3
Facepattern
350
39
  3
Flat
350
2B
  3
FlatWithEdges
350
2C
  3
Gouraud
350
2D
  3
GouraudWithEdges
350
2E
  3
Hidden
350
31
  3
JitterOff
350
3B
  3
Linepattern
350
38
  3
OverhangOff
350
3C
  3
Realistic
350
33
  3
Shaded
350
42
  3
Shaded with edges
350
41
  3
Shades of Gray
350
3E
  3
Sketchy
350
3F
  3
Thicken
350
37
  3
Wireframe
350
30
  3
X-Ray
350
40
  0
XRECORD
  5
2B2
102
{ACAD_REACTORS
330
C
102
}
330
C
100
AcDbXrecord
280
     1
 90
        1
330
6A
  0
DICTIONARY
  5
27A
102
{ACAD_REACTORS
330
C
102
}
330
C
100
AcDbDictionary
281
     1
  3
CANNOSCALE
350
27B
  3
CENTEREXE
350
2B7
  3
CENTERLTYPEFILE
350
2B8
  3
CMLEADERSTYLE
350
2B4
  3
CTABLESTYLE
350
2B3
  3
XCLIPFRAME
350
27C
  0
LAYOUT
  5
1E
102
{ACAD_REACTORS
330
1A
102
}
330
1A
100
AcDbPlotSettings
  1

  2
none_device
  4

  6

 40
0.0
 41
0.0
 42
0.0
 43
0.0
 44
0.0
 45
0.0
 46
0.0
 47
0.0
 48
0.0
 49
0.0
140
0.0
141
0.0
142
1.0
143
1.0
 70
   688
 72
     1
 73
     0
 74
     5
  7

 75
    16
 76
     0
 77
     2
 78
   300
147
1.0
148
0.0
149
0.0
100
AcDbLayout
  1
Layout1
 70
     1
 71
     1
 10
0.0
 20
0.0
 11
3000.0
 21
4500.0
 12
0.0
 22
0.0
 32
0.0
 14
0.0
 24
0.0
 34
0.0
 15
3000.0
 25
4500.0
 35
0.0
146
0.0
 13
0.0
 23
0.0
 33
0.0
 16
1.0
 26
0.0
 36
0.0
 17
0.0
 27
1.0
 37
0.0
 76
     0
330
1B
  0
LAYOUT
  5
22
102
{ACAD_REACTORS
330
1A
102
}
330
1A
100
AcDbPlotSettings
  1

  2
none_device
  4
Letter_(8.50_x_11.00_Inches)
  6

 40
6.35
 41
6.35
 42
6.35000508
 43
6.35000508
 44
215.9
 45
279.4
 46
0.0
 47
0.0
 48
0.0
 49
0.0
140
0.0
141
0.0
142
1.0
143
1.0
 70
  1712
 72
     1
 73
     0
 74
     0
  7

 75
     0
 76
     0
 77
     2
 78
   300
147
1.0
148
0.0
149
0.0
100
AcDbLayout
  1
Model
 70
     1
 71
     0
 10
0.0
 20
0.0
 11
3000.0
 21
4500.0
 12
0.0
 22
0.0
 32
0.0
 14
0.0
 24
0.0
 34
0.0
 15
3000.0
 25
4500.0
 35
0.0
146
0.0
 13
0.0
 23
0.0
 33
0.0
 16
1.0
 26
0.0
 36
0.0
 17
0.0
 27
1.0
 37
0.0
 76
     0
330
1F
331
29
  0
MATERIAL
  5
45
102
{ACAD_REACTORS
330
43
102
}
330
43
100
AcDbMaterial
  1
ByBlock
 72
     1
 94
      127
  0
MATERIAL
  5
44
102
{ACAD_REACTORS
330
43
102
}
330
43
100
AcDbMaterial
  1
ByLayer
 72
     1
 94
      127
  0
MATERIAL
  5
46
102
{ACAD_REACTORS
330
43
102
}
330
43
100
AcDbMaterial
  1
Global
 72
     1
 94
      127
  0
MLEADERSTYLE
  5
6C
102
{ACAD_REACTORS
330
6B
102
}
102
{ACAD_XDICTIONARY
360
2B0
102
}
330
6B
100
AcDbMLeaderStyle
170
     2
171
     1
172
     0
 90
        2
 40
0.0
 41
0.0
173
     1
 91
-1056964608
340
14
 92
       -2
290
     1
 42
2.0
291
     1
 43
8.0
  3
Standard
341
0
 44
4.0
300

342
11
174
     1
178
     6
175
     1
176
     0
 93
-1056964608
 45
4.0
292
     0
297
     0
 46
4.0
343
0
 94
-1056964608
 47
1.0
 49
1.0
140
1.0
293
     1
141
0.0
294
     1
177
     0
142
1.0
295
     0
296
     0
143
3.75
1001
ACAD_MLEADERVER
1070
     2
  0
MLINESTYLE
  5
18
102
{ACAD_REACTORS
330
17
102
}
330
17
100
AcDbMlineStyle
  2
Standard
 70
     0
  3

 62
   256
 51
90.0
 52
90.0
 71
     2
 49
0.5
 62
   256
  6
BYLAYER
 49
-0.5
 62
   256
  6
BYLAYER
  0
ACDBPLACEHOLDER
  5
F
102
{ACAD_REACTORS
330
E
102
}
330
E
  0
SCALE
  5
48
102
{ACAD_REACTORS
330
47
102
}
330
47
100
AcDbScale
 70
     0
300
1:1
140
1.0
141
1.0
290
     1
  0
SCALE
  5
49
102
{ACAD_REACTORS
330
47
102
}
330
47
100
AcDbScale
 70
     0
300
1:2
140
1.0
141
2.0
290
     0
  0
SCALE
  5
4A
102
{ACAD_REACTORS
330
47
102
}
330
47
100
AcDbScale
 70
     0
300
1:4
140
1.0
141
4.0
290
     0
  0
SCALE
  5
4B
102
{ACAD_REACTORS
330
47
102
}
330
47
100
AcDbScale
 70
     0
300
1:5
140
1.0
141
5.0
290
     0
  0
SCALE
  5
4C
102
{ACAD_REACTORS
330
47
102
}
330
47
100
AcDbScale
 70
     0
300
1:8
140
1.0
141
8.0
290
     0
  0
SCALE
  5
4D
102
{ACAD_REACTORS
330
47
102
}
330
47
100
AcDbScale
 70
     0
300
1:10
140
1.0
141
10.0
290
     0
  0
SCALE
  5
4E
102
{ACAD_REACTORS
330
47
102
}
330
47
100
AcDbScale
 70
     0
300
1:16
140
1.0
141
16.0
290
     0
  0
SCALE
  5
4F
102
{ACAD_REACTORS
330
47
102
}
330
47
100
AcDbScale
 70
     0
300
1:20
140
1.0
141
20.0
290
     0
  0
SCALE
  5
50
102
{ACAD_REACTORS
330
47
102
}
330
47
100
AcDbScale
 70
     0
300
1:30
140
1.0
141
30.0
290
     0
  0
SCALE
  5
51
102
{ACAD_REACTORS
330
47
102
}
330
47
100
AcDbScale
 70
     0
300
1:40
140
1.0
141
40.0
290
     0
  0
SCALE
  5
52
102
{ACAD_REACTORS
330
47
102
}
330
47
100
AcDbScale
 70
     0
300
1:50
140
1.0
141
50.0
290
     0
  0
SCALE
  5
53
102
{ACAD_REACTORS
330
47
102
}
330
47
100
AcDbScale
 70
     0
300
1:100
140
1.0
141
100.0
290
     0
  0
SCALE
  5
54
102
{ACAD_REACTORS
330
47
102
}
330
47
100
AcDbScale
 70
     0
300
2:1
140
2.0
141
1.0
290
     0
  0
SCALE
  5
55
102
{ACAD_REACTORS
330
47
102
}
330
47
100
AcDbScale
 70
     0
300
4:1
140
4.0
141
1.0
290
     0
  0
SCALE
  5
56
102
{ACAD_REACTORS
330
47
102
}
330
47
100
AcDbScale
 70
     0
300
8:1
140
8.0
141
1.0
290
     0
  0
SCALE
  5
57
102
{ACAD_REACTORS
330
47
102
}
330
47
100
AcDbScale
 70
     0
300
10:1
140
10.0
141
1.0
290
     0
  0
SCALE
  5
58
102
{ACAD_REACTORS
330
47
102
}
330
47
100
AcDbScale
 70
     0
300
100:1
140
100.0
141
1.0
290
     0
  0
SCALE
  5
59
102
{ACAD_REACTORS
330
47
102
}
330
47
100
AcDbScale
 70
     0
300
1/128" = 1'-0"
140
0.0078125
141
12.0
290
     0
  0
SCALE
  5
5A
102
{ACAD_REACTORS
330
47
102
}
330
47
100
AcDbScale
 70
     0
300
1/64" = 1'-0"
140
0.015625
141
12.0
290
     0
  0
SCALE
  5
5B
102
{ACAD_REACTORS
330
47
102
}
330
47
100
AcDbScale
 70
     0
300
1/32" = 1'-0"
140
0.03125
141
12.0
290
     0
  0
SCALE
  5
5C
102
{ACAD_REACTORS
330
47
102
}
330
47
100
AcDbScale
 70
     0
300
1/16" = 1'-0"
140
0.0625
141
12.0
290
     0
  0
SCALE
  5
5D
102
{ACAD_REACTORS
330
47
102
}
330
47
100
AcDbScale
 70
     0
300
3/32" = 1'-0"
140
0.09375
141
12.0
290
     0
  0
SCALE
  5
5E
102
{ACAD_REACTORS
330
47
102
}
330
47
100
AcDbScale
 70
     0
300
1/8" = 1'-0"
140
0.125
141
12.0
290
     0
  0
SCALE
  5
5F
102
{ACAD_REACTORS
330
47
102
}
330
47
100
AcDbScale
 70
     0
300
3/16" = 1'-0"
140
0.1875
141
12.0
290
     0
  0
SCALE
  5
60
102
{ACAD_REACTORS
330
47
102
}
330
47
100
AcDbScale
 70
     0
300
1/4" = 1'-0"
140
0.25
141
12.0
290
     0
  0
SCALE
  5
61
102
{ACAD_REACTORS
330
47
102
}
330
47
100
AcDbScale
 70
     0
300
3/8" = 1'-0"
140
0.375
141
12.0
290
     0
  0
SCALE
  5
62
102
{ACAD_REACTORS
330
47
102
}
330
47
100
AcDbScale
 70
     0
300
1/2" = 1'-0"
140
0.5
141
12.0
290
     0
  0
SCALE
  5
63
102
{ACAD_REACTORS
330
47
102
}
330
47
100
AcDbScale
 70
     0
300
3/4" = 1'-0"
140
0.75
141
12.0
290
     0
  0
SCALE
  5
64
102
{ACAD_REACTORS
330
47
102
}
330
47
100
AcDbScale
 70
     0
300
1" = 1'-0"
140
1.0
141
12.0
290
     0
  0
SCALE
  5
65
102
{ACAD_REACTORS
330
47
102
}
330
47
100
AcDbScale
 70
     0
300
1-1/2" = 1'-0"
140
1.5
141
12.0
290
     0
  0
SCALE
  5
66
102
{ACAD_REACTORS
330
47
102
}
330
47
100
AcDbScale
 70
     0
300
3" = 1'-0"
140
3.0
141
12.0
290
     0
  0
SCALE
  5
67
102
{ACAD_REACTORS
330
47
102
}
330
47
100
AcDbScale
 70
     0
300
6" = 1'-0"
140
6.0
141
12.0
290
     0
  0
SCALE
  5
68
102
{ACAD_REACTORS
330
47
102
}
330
47
100
AcDbScale
 70
     0
300
1'-0" = 1'-0"
140
12.0
141
12.0
290
     0
  0
TABLESTYLE
  5
6A
102
{ACAD_REACTORS
330
69
102
}
102
{ACAD_XDICTIONARY
360
2AD
102
}
330
69
100
AcDbTableStyle
  3
Standard
 70
     0
 71
     0
 40
0.06
 41
0.06
280
     0
281
     0
  7
Standard
140
4.5
170
     2
 62
     0
 63
   257
283
     0
 90
        4
 91
        0
  1

274
    -2
284
     1
 64
     0
275
    -2
285
     1
 65
     0
276
    -2
286
     1
 66
     0
277
    -2
287
     1
 67
     0
278
    -2
288
     1
 68
     0
279
    -2
289
     1
 69
     0
  7
Standard
140
6.0
170
     5
 62
     0
 63
   257
283
     0
 90
        4
 91
        0
  1

274
    -2
284
     1
 64
     0
275
    -2
285
     1
 65
     0
276
    -2
286
     1
 66
     0
277
    -2
287
     1
 67
     0
278
    -2
288
     1
 68
     0
279
    -2
289
     1
 69
     0
  7
Standard
140
4.5
170
     5
 62
     0
 63
   257
283
     0
 90
        4
 91
        0
  1

274
    -2
284
     1
 64
     0
275
    -2
285
     1
 65
     0
276
    -2
286
     1
 66
     0
277
    -2
287
     1
 67
     0
278
    -2
288
     1
 68
     0
279
    -2
289
     1
 69
     0
  0
VISUALSTYLE
  5
2F
102
{ACAD_REACTORS
330
2A
102
}
102
{ACAD_XDICTIONARY
360
285
102
}
330
2A
100
AcDbVisualStyle
  2
2dWireframe
 70
     4
 71
     0
 72
     2
 73
     0
 90
        0
 40
0.6
 41
30.0
 62
     5
 63
     7
421
 16777215
 74
     1
 91
        4
 64
     7
 65
   257
 75
     1
175
     1
 42
1.0
 92
        0
 66
   257
 43
1.0
 76
     1
 77
     6
 78
     2
 67
     7
 79
     5
170
     0
171
     0
290
     0
174
     0
 93
        1
 44
0.0
173
     0
291
     0
 45
0.0
  0
VISUALSTYLE
  5
32
102
{ACAD_REACTORS
330
2A
102
}
102
{ACAD_XDICTIONARY
360
28B
102
}
330
2A
100
AcDbVisualStyle
  2
Basic
 70
     7
 71
     1
 72
     0
 73
     1
 90
        0
 40
0.6
 41
30.0
 62
     5
 63
     7
421
 16777215
 74
     0
 91
        4
 64
     7
 65
   257
 75
     1
175
     1
 42
1.0
 92
        8
 66
     7
 43
1.0
 76
     1
 77
     6
 78
     2
 67
     7
 79
     5
170
     0
171
     0
290
     0
174
     0
 93
        1
 44
0.0
173
     0
291
     1
 45
0.0
  0
VISUALSTYLE
  5
36
102
{ACAD_REACTORS
330
2A
102
}
102
{ACAD_XDICTIONARY
360
293
102
}
330
2A
100
AcDbVisualStyle
  2
Brighten
 70
    12
 71
     2
 72
     2
 73
     0
 90
        0
 40
0.6
 41
30.0
 62
     5
 63
     7
421
 16777215
 74
     1
 91
        4
 64
     7
 65
   257
 75
     1
175
     1
 42
1.0
 92
        8
 66
     7
 43
1.0
 76
     1
 77
     6
 78
     2
 67
     7
 79
     5
170
     0
171
     0
290
     0
174
     0
 93
        1
 44
50.0
173
     0
291
     1
 45
0.0
  0
VISUALSTYLE
  5
3A
102
{ACAD_REACTORS
330
2A
102
}
102
{ACAD_XDICTIONARY
360
29B
102
}
330
2A
100
AcDbVisualStyle
  2
ColorChange
 70
    16
 71
     2
 72
     2
 73
     3
 90
        0
 40
0.6
 41
30.0
 62
     5
 63
     8
421
  8421504
 74
     1
 91
        4
 64
     7
 65
   257
 75
     1
175
     1
 42
1.0
 92
        8
 66
     8
424
  8421504
 43
1.0
 76
     1
 77
     6
 78
     2
 67
     7
 79
     5
170
     0
171
     0
290
     0
174
     0
 93
        1
 44
0.0
173
     0
291
     1
 45
0.0
  0
VISUALSTYLE
  5
34
102
{ACAD_REACTORS
330
2A
102
}
102
{ACAD_XDICTIONARY
360
28F
102
}
330
2A
100
AcDbVisualStyle
  2
Conceptual
 70
     9
 71
     3
 72
     2
 73
     0
 90
        0
 40
0.6
 41
30.0
 62
     5
 63
     7
421
 16777215
 74
     2
 91
        2
 64
     7
 65
   257
 75
     1
175
     1
 42
179.0
 92
        8
 66
     7
 43
1.0
 76
     1
 77
     6
 78
     2
 67
     7
 79
     3
170
     0
171
     0
290
     0
174
     0
 93
        1
 44
0.0
173
     0
291
     0
 45
0.0
  0
VISUALSTYLE
  5
35
102
{ACAD_REACTORS
330
2A
102
}
102
{ACAD_XDICTIONARY
360
291
102
}
330
2A
100
AcDbVisualStyle
  2
Dim
 70
    11
 71
     2
 72
     2
 73
     0
 90
        0
 40
0.6
 41
30.0
 62
     5
 63
     7
421
 16777215
 74
     1
 91
        4
 64
     7
 65
   257
 75
     1
175
     1
 42
1.0
 92
        8
 66
     7
 43
1.0
 76
     1
 77
     6
 78
     2
 67
     7
 79
     5
170
     0
171
     0
290
     0
174
     0
 93
        1
 44
-50.0
173
     0
291
     1
 45
0.0
  0
VISUALSTYLE
  5
3D
102
{ACAD_REACTORS
330
2A
102
}
102
{ACAD_XDICTIONARY
360
2A1
102
}
330
2A
100
AcDbVisualStyle
  2
EdgeColorOff
 70
    22
 71
     2
 72
     2
 73
     0
 90
        0
 40
0.6
 41
30.0
 62
     5
 63
     7
421
 16777215
 74
     1
 91
        4
 64
     7
 65
   257
 75
     1
175
     1
 42
1.0
 92
        8
 66
     7
 43
1.0
 76
     1
 77
     6
 78
     2
 67
     7
 79
     5
170
     0
171
     0
290
     0
174
     0
 93
        1
 44
0.0
173
     0
291
     1
 45
0.0
  0
VISUALSTYLE
  5
39
102
{ACAD_REACTORS
330
2A
102
}
102
{ACAD_XDICTIONARY
360
299
102
}
330
2A
100
AcDbVisualStyle
  2
Facepattern
 70
    15
 71
     2
 72
     2
 73
     0
 90
        0
 40
0.6
 41
30.0
 62
     5
 63
     7
421
 16777215
 74
     1
 91
        4
 64
     7
 65
   257
 75
     1
175
     1
 42
1.0
 92
        8
 66
     7
 43
1.0
 76
     1
 77
     6
 78
     2
 67
     7
 79
     5
170
     0
171
     0
290
     0
174
     0
 93
        1
 44
0.0
173
     0
291
     1
 45
0.0
  0
VISUALSTYLE
  5
2B
102
{ACAD_REACTORS
330
2A
102
}
102
{ACAD_XDICTIONARY
360
27D
102
}
330
2A
100
AcDbVisualStyle
  2
Flat
 70
     0
 71
     2
 72
     1
 73
     1
 90
        2
 40
0.6
 41
30.0
 62
     5
 63
     7
421
 16777215
 74
     0
 91
        0
 64
     7
 65
   257
 75
     1
175
     1
 42
1.0
 92
        8
 66
     7
 43
1.0
 76
     1
 77
     6
 78
     2
 67
     7
 79
     5
170
     0
171
     0
290
     0
174
     0
 93
       13
 44
0.0
173
     0
291
     1
 45
0.0
  0
VISUALSTYLE
  5
2C
102
{ACAD_REACTORS
330
2A
102
}
102
{ACAD_XDICTIONARY
360
27F
102
}
330
2A
100
AcDbVisualStyle
  2
FlatWithEdges
 70
     1
 71
     2
 72
     1
 73
     1
 90
        2
 40
0.6
 41
30.0
 62
     5
 63
     7
421
 16777215
 74
     1
 91
        0
 64
     7
 65
   257
 75
     1
175
     1
 42
1.0
 92
        0
 66
   257
 43
1.0
 76
     1
 77
     6
 78
     2
 67
     7
 79
     5
170
     0
171
     0
290
     0
174
     0
 93
       13
 44
0.0
173
     0
291
     1
 45
0.0
  0
VISUALSTYLE
  5
2D
102
{ACAD_REACTORS
330
2A
102
}
102
{ACAD_XDICTIONARY
360
281
102
}
330
2A
100
AcDbVisualStyle
  2
Gouraud
 70
     2
 71
     2
 72
     2
 73
     1
 90
        2
 40
0.6
 41
30.0
 62
     5
 63
     7
421
 16777215
 74
     0
 91
        0
 64
     7
 65
   257
 75
     1
175
     1
 42
1.0
 92
        0
 66
     7
 43
1.0
 76
     1
 77
     6
 78
     2
 67
     7
 79
     5
170
     0
171
     0
290
     0
174
     0
 93
       13
 44
0.0
173
     0
291
     1
 45
0.0
  0
VISUALSTYLE
  5
2E
102
{ACAD_REACTORS
330
2A
102
}
102
{ACAD_XDICTIONARY
360
283
102
}
330
2A
100
AcDbVisualStyle
  2
GouraudWithEdges
 70
     3
 71
     2
 72
     2
 73
     1
 90
        2
 40
0.6
 41
30.0
 62
     5
 63
     7
421
 16777215
 74
     1
 91
        0
 64
     7
 65
   257
 75
     1
175
     1
 42
1.0
 92
        0
 66
   257
 43
1.0
 76
     1
 77
     6
 78
     2
 67
     7
 79
     5
170
     0
171
     0
290
     0
174
     0
 93
       13
 44
0.0
173
     0
291
     1
 45
0.0
  0
VISUALSTYLE
  5
31
102
{ACAD_REACTORS
330
2A
102
}
102
{ACAD_XDICTIONARY
360
289
102
}
330
2A
100
AcDbVisualStyle
  2
Hidden
 70
     6
 71
     1
 72
     2
 73
     2
 90
        0
 40
0.6
 41
30.0
 62
     5
 63
     7
421
 16777215
 74
     2
 91
        2
 64
     7
 65
   257
 75
     2
175
     1
 42
40.0
 92
        0
 66
   257
 43
1.0
 76
     1
 77
     6
 78
     2
 67
     7
 79
     3
170
     0
171
     0
290
     0
174
     0
 93
        1
 44
0.0
173
     0
291
     0
 45
0.0
  0
VISUALSTYLE
  5
3B
102
{ACAD_REACTORS
330
2A
102
}
102
{ACAD_XDICTIONARY
360
29D
102
}
330
2A
100
AcDbVisualStyle
  2
JitterOff
 70
    20
 71
     2
 72
     2
 73
     0
 90
        0
 40
0.6
 41
30.0
 62
     5
 63
     7
421
 16777215
 74
     1
 91
        4
 64
     7
 65
   257
 75
     1
175
     1
 42
1.0
 92
       10
 66
     7
 43
1.0
 76
     1
 77
     6
 78
     2
 67
     7
 79
     5
170
     0
171
     0
290
     0
174
     0
 93
        1
 44
0.0
173
     0
291
     1
 45
0.0
  0
VISUALSTYLE
  5
38
102
{ACAD_REACTORS
330
2A
102
}
102
{ACAD_XDICTIONARY
360
297
102
}
330
2A
100
AcDbVisualStyle
  2
Linepattern
 70
    14
 71
     2
 72
     2
 73
     0
 90
        0
 40
0.6
 41
30.0
 62
     5
 63
     7
421
 16777215
 74
     1
 91
        4
 64
     7
 65
   257
 75
     7
175
     7
 42
1.0
 92
        8
 66
     7
 43
1.0
 76
     1
 77
     6
 78
     2
 67
     7
 79
     5
170
     0
171
     0
290
     0
174
     0
 93
        1
 44
0.0
173
     0
291
     1
 45
0.0
  0
VISUALSTYLE
  5
3C
102
{ACAD_REACTORS
330
2A
102
}
102
{ACAD_XDICTIONARY
360
29F
102
}
330
2A
100
AcDbVisualStyle
  2
OverhangOff
 70
    21
 71
     2
 72
     2
 73
     0
 90
        0
 40
0.6
 41
30.0
 62
     5
 63
     7
421
 16777215
 74
     1
 91
        4
 64
     7
 65
   257
 75
     1
175
     1
 42
1.0
 92
        9
 66
     7
 43
1.0
 76
     1
 77
     6
 78
     2
 67
     7
 79
     5
170
     0
171
     0
290
     0
174
     0
 93
        1
 44
0.0
173
     0
291
     1
 45
0.0
  0
VISUALSTYLE
  5
33
102
{ACAD_REACTORS
330
2A
102
}
102
{ACAD_XDICTIONARY
360
28D
102
}
330
2A
100
AcDbVisualStyle
  2
Realistic
 70
     8
 71
     2
 72
     3
 73
     0
 90
        2
 40
0.6
 41
30.0
 62
     5
 63
     7
421
 16777215
 74
     0
 91
        0
 64
     7
 65
   257
 75
     1
175
     1
 42
1.0
 92
        8
 66
   257
 43
1.0
 76
     1
 77
     6
 78
     2
 67
     7
 79
     3
170
     0
171
     0
290
     0
174
     0
 93
       13
 44
0.0
173
     0
291
     0
 45
0.0
  0
VISUALSTYLE
  5
42
102
{ACAD_REACTORS
330
2A
102
}
102
{ACAD_XDICTIONARY
360
2AB
102
}
330
2A
100
AcDbVisualStyle
  2
Shaded
 70
    27
 71
     2
 72
     2
 73
     1
 90
        2
 40
0.6
 41
30.0
 62
     5
 63
     7
421
 16777215
 74
     0
 91
        4
 64
     7
 65
   257
 75
     1
175
     1
 42
1.0
 92
        8
 66
   257
 43
1.0
 76
     1
 77
     6
 78
     2
 67
     8
425
  7895160
 79
     3
170
     0
171
     0
290
     0
174
     0
 93
        5
 44
0.0
173
     0
291
     0
 45
0.0
  0
VISUALSTYLE
  5
41
102
{ACAD_REACTORS
330
2A
102
}
102
{ACAD_XDICTIONARY
360
2A9
102
}
330
2A
100
AcDbVisualStyle
  2
Shaded with edges
 70
    26
 71
     2
 72
     2
 73
     1
 90
        2
 40
0.6
 41
30.0
 62
     5
 63
     7
421
 16777215
 74
     1
 91
       10
 64
     7
 65
   257
 75
     2
175
     1
 42
1.0
 92
        8
 66
   257
 43
1.0
 76
     1
 77
     6
 78
     2
 67
     7
 79
     3
170
     0
171
     0
290
     0
174
     0
 93
        5
 44
0.0
173
     0
291
     0
 45
0.0
  0
VISUALSTYLE
  5
3E
102
{ACAD_REACTORS
330
2A
102
}
102
{ACAD_XDICTIONARY
360
2A3
102
}
330
2A
100
AcDbVisualStyle
  2
Shades of Gray
 70
    23
 71
     2
 72
     2
 73
     3
 90
        0
 40
0.6
 41
30.0
 62
     5
 63
     7
421
 16777215
 74
     2
 91
        2
 64
     7
 65
     7
 75
     1
175
     1
 42
40.0
 92
        8
 66
     7
 43
1.0
 76
     1
 77
     6
 78
     2
 67
     7
 79
     3
170
     0
171
     0
290
     0
174
     0
 93
        1
 44
0.0
173
     0
291
     0
 45
0.0
  0
VISUALSTYLE
  5
3F
102
{ACAD_REACTORS
330
2A
102
}
102
{ACAD_XDICTIONARY
360
2A5
102
}
330
2A
100
AcDbVisualStyle
  2
Sketchy
 70
    24
 71
     1
 72
     2
 73
     2
 90
        0
 40
0.6
 41
30.0
 62
     5
 63
     7
421
 16777215
 74
     2
 91
        2
 64
     7
 65
     7
 75
     1
175
     1
 42
40.0
 92
       11
 66
     7
 43
1.0
 76
     1
 77
     6
 78
     2
 67
     7
 79
     6
170
     0
171
     0
290
     0
174
     0
 93
        1
 44
0.0
173
     0
291
     0
 45
0.0
  0
VISUALSTYLE
  5
37
102
{ACAD_REACTORS
330
2A
102
}
102
{ACAD_XDICTIONARY
360
295
102
}
330
2A
100
AcDbVisualStyle
  2
Thicken
 70
    13
 71
     2
 72
     2
 73
     0
 90
        0
 40
0.6
 41
30.0
 62
     5
 63
     7
421
 16777215
 74
     1
 91
        4
 64
     7
 65
   257
 75
     1
175
     1
 42
1.0
 92
       12
 66
     7
 43
1.0
 76
     1
 77
     6
 78
     2
 67
     7
 79
     5
170
     0
171
     0
290
     0
174
     0
 93
        1
 44
0.0
173
     0
291
     1
 45
0.0
  0
VISUALSTYLE
  5
30
102
{ACAD_REACTORS
330
2A
102
}
102
{ACAD_XDICTIONARY
360
287
102
}
330
2A
100
AcDbVisualStyle
  2
Wireframe
 70
     5
 71
     0
 72
     2
 73
     0
 90
        0
 40
0.6
 41
30.0
 62
     5
 63
     7
421
 16777215
 74
     1
 91
        4
 64
     7
 65
   257
 75
     1
175
     1
 42
1.0
 92
        0
 66
   257
 43
1.0
 76
     1
 77
     6
 78
     2
 67
     7
 79
     3
170
     0
171
     0
290
     0
174
     0
 93
        1
 44
0.0
173
     0
291
     0
 45
0.0
  0
VISUALSTYLE
  5
40
102
{ACAD_REACTORS
330
2A
102
}
102
{ACAD_XDICTIONARY
360
2A7
102
}
330
2A
100
AcDbVisualStyle
  2
X-Ray
 70
    25
 71
     2
 72
     2
 73
     1
 90
        1
 40
0.5
 41
30.0
 62
     5
 63
     7
421
 16777215
 74
     1
 91
        0
 64
     7
 65
   257
 75
     1
175
     1
 42
1.0
 92
        8
 66
     7
 43
1.0
 76
     1
 77
     6
 78
     2
 67
     7
 79
     3
170
     0
171
     0
290
     0
174
     0
 93
       13
 44
0.0
173
     0
291
     0
 45
0.0
  0
DICTIONARYVAR
  5
27B
102
{ACAD_REACTORS
330
27A
102
}
330
27A
100
DictionaryVariables
280
     0
  1
1:1
  0
DICTIONARYVAR
  5
2B7
102
{ACAD_REACTORS
330
27A
102
}
330
27A
100
DictionaryVariables
280
     0
  1
3.500000
  0
DICTIONARYVAR
  5
2B8
102
{ACAD_REACTORS
330
27A
102
}
330
27A
100
DictionaryVariables
280
     0
  1
acadiso.lin
  0
DICTIONARYVAR
  5
2B4
102
{ACAD_REACTORS
330
27A
102
}
330
27A
100
DictionaryVariables
280
     0
  1
Standard
  0
DICTIONARYVAR
  5
2B3
102
{ACAD_REACTORS
330
27A
102
}
330
27A
100
DictionaryVariables
280
     0
  1
Standard
  0
DICTIONARYVAR
  5
27C
102
{ACAD_REACTORS
330
27A
102
}
330
27A
100
DictionaryVariables
280
     0
  1
2
  0
DICTIONARY
  5
2B0
330
6C
100
AcDbDictionary
280
     1
281
     1
  3
ACAD_XREC_ROUNDTRIP
360
2B1
  0
DICTIONARY
  5
2AD
330
6A
100
AcDbDictionary
280
     1
281
     1
  3
ACAD_ROUNDTRIP_2008_TABLESTYLE_CELLSTYLEMAP
360
2AE
  0
DICTIONARY
  5
285
330
2F
100
AcDbDictionary
280
     1
281
     1
  3
ACAD_XREC_ROUNDTRIP
360
286
  0
DICTIONARY
  5
28B
330
32
100
AcDbDictionary
280
     1
281
     1
  3
ACAD_XREC_ROUNDTRIP
360
28C
  0
DICTIONARY
  5
293
330
36
100
AcDbDictionary
280
     1
281
     1
  3
ACAD_XREC_ROUNDTRIP
360
294
  0
DICTIONARY
  5
29B
330
3A
100
AcDbDictionary
280
     1
281
     1
  3
ACAD_XREC_ROUNDTRIP
360
29C
  0
DICTIONARY
  5
28F
330
34
100
AcDbDictionary
280
     1
281
     1
  3
ACAD_XREC_ROUNDTRIP
360
290
  0
DICTIONARY
  5
291
330
35
100
AcDbDictionary
280
     1
281
     1
  3
ACAD_XREC_ROUNDTRIP
360
292
  0
DICTIONARY
  5
2A1
330
3D
100
AcDbDictionary
280
     1
281
     1
  3
ACAD_XREC_ROUNDTRIP
360
2A2
  0
DICTIONARY
  5
299
330
39
100
AcDbDictionary
280
     1
281
     1
  3
ACAD_XREC_ROUNDTRIP
360
29A
  0
DICTIONARY
  5
27D
330
2B
100
AcDbDictionary
280
     1
281
     1
  3
ACAD_XREC_ROUNDTRIP
360
27E
  0
DICTIONARY
  5
27F
330
2C
100
AcDbDictionary
280
     1
281
     1
  3
ACAD_XREC_ROUNDTRIP
360
280
  0
DICTIONARY
  5
281
330
2D
100
AcDbDictionary
280
     1
281
     1
  3
ACAD_XREC_ROUNDTRIP
360
282
  0
DICTIONARY
  5
283
330
2E
100
AcDbDictionary
280
     1
281
     1
  3
ACAD_XREC_ROUNDTRIP
360
284
  0
DICTIONARY
  5
289
330
31
100
AcDbDictionary
280
     1
281
     1
  3
ACAD_XREC_ROUNDTRIP
360
28A
  0
DICTIONARY
  5
29D
330
3B
100
AcDbDictionary
280
     1
281
     1
  3
ACAD_XREC_ROUNDTRIP
360
29E
  0
DICTIONARY
  5
297
330
38
100
AcDbDictionary
280
     1
281
     1
  3
ACAD_XREC_ROUNDTRIP
360
298
  0
DICTIONARY
  5
29F
330
3C
100
AcDbDictionary
280
     1
281
     1
  3
ACAD_XREC_ROUNDTRIP
360
2A0
  0
DICTIONARY
  5
28D
330
33
100
AcDbDictionary
280
     1
281
     1
  3
ACAD_XREC_ROUNDTRIP
360
28E
  0
DICTIONARY
  5
2AB
330
42
100
AcDbDictionary
280
     1
281
     1
  3
ACAD_XREC_ROUNDTRIP
360
2AC
  0
DICTIONARY
  5
2A9
330
41
100
AcDbDictionary
280
     1
281
     1
  3
ACAD_XREC_ROUNDTRIP
360
2AA
  0
DICTIONARY
  5
2A3
330
3E
100
AcDbDictionary
280
     1
281
     1
  3
ACAD_XREC_ROUNDTRIP
360
2A4
  0
DICTIONARY
  5
2A5
330
3F
100
AcDbDictionary
280
     1
281
     1
  3
ACAD_XREC_ROUNDTRIP
360
2A6
  0
DICTIONARY
  5
295
330
37
100
AcDbDictionary
280
     1
281
     1
  3
ACAD_XREC_ROUNDTRIP
360
296
  0
DICTIONARY
  5
287
330
30
100
AcDbDictionary
280
     1
281
     1
  3
ACAD_XREC_ROUNDTRIP
360
288
  0
DICTIONARY
  5
2A7
330
40
100
AcDbDictionary
280
     1
281
     1
  3
ACAD_XREC_ROUNDTRIP
360
2A8
  0
XRECORD
  5
2B1
102
{ACAD_REACTORS
330
2B0
102
}
330
2B0
100
AcDbXrecord
280
     1
102
ACAD_ROUNDTRIP_2010_MLEADER_STYLE
  0
CELLSTYLEMAP
  5
2AE
102
{ACAD_REACTORS
330
2AD
102
}
330
2AD
100
AcDbCellStyleMap
 90
        3
300
CELLSTYLE
  1
TABLEFORMAT_BEGIN
 90
        5
170
     1
 91
        0
 92
    32768
 62
   257
 93
        1
300
CONTENTFORMAT
  1
CONTENTFORMAT_BEGIN
 90
        0
 91
        0
 92
        4
 93
        0
300

 40
0.0
140
1.0
 94
        5
 62
     0
340
11
144
6.0
309
CONTENTFORMAT_END
171
     1
301
MARGIN
  1
CELLMARGIN_BEGIN
 40
1.5
 40
1.5
 40
1.5
 40
1.5
 40
1.5
 40
1.5
309
CELLMARGIN_END
 94
        6
 95
        1
302
GRIDFORMAT
  1
GRIDFORMAT_BEGIN
 90
        0
 91
        1
 62
     0
 92
       -2
340
14
 93
        0
 40
0.045
309
GRIDFORMAT_END
 95
        2
302
GRIDFORMAT
  1
GRIDFORMAT_BEGIN
 90
        0
 91
        1
 62
     0
 92
       -2
340
14
 93
        0
 40
0.045
309
GRIDFORMAT_END
 95
        4
302
GRIDFORMAT
  1
GRIDFORMAT_BEGIN
 90
        0
 91
        1
 62
     0
 92
       -2
340
14
 93
        0
 40
0.045
309
GRIDFORMAT_END
 95
        8
302
GRIDFORMAT
  1
GRIDFORMAT_BEGIN
 90
        0
 91
        1
 62
     0
 92
       -2
340
14
 93
        0
 40
0.045
309
GRIDFORMAT_END
 95
       16
302
GRIDFORMAT
  1
GRIDFORMAT_BEGIN
 90
        0
 91
        1
 62
     0
 92
       -2
340
14
 93
        0
 40
0.045
309
GRIDFORMAT_END
 95
       32
302
GRIDFORMAT
  1
GRIDFORMAT_BEGIN
 90
        0
 91
        1
 62
     0
 92
       -2
340
14
 93
        0
 40
0.045
309
GRIDFORMAT_END
309
TABLEFORMAT_END
  1
CELLSTYLE_BEGIN
 90
        1
 91
        1
300
_TITLE
309
CELLSTYLE_END
300
CELLSTYLE
  1
TABLEFORMAT_BEGIN
 90
        5
170
     1
 91
        0
 92
        0
 62
   257
 93
        1
300
CONTENTFORMAT
  1
CONTENTFORMAT_BEGIN
 90
        0
 91
        0
 92
        4
 93
        0
300

 40
0.0
140
1.0
 94
        5
 62
     0
340
11
144
4.5
309
CONTENTFORMAT_END
171
     1
301
MARGIN
  1
CELLMARGIN_BEGIN
 40
1.5
 40
1.5
 40
1.5
 40
1.5
 40
1.5
 40
1.5
309
CELLMARGIN_END
 94
        6
 95
        1
302
GRIDFORMAT
  1
GRIDFORMAT_BEGIN
 90
        0
 91
        1
 62
     0
 92
       -2
340
14
 93
        0
 40
0.045
309
GRIDFORMAT_END
 95
        2
302
GRIDFORMAT
  1
GRIDFORMAT_BEGIN
 90
        0
 91
        1
 62
     0
 92
       -2
340
14
 93
        0
 40
0.045
309
GRIDFORMAT_END
 95
        4
302
GRIDFORMAT
  1
GRIDFORMAT_BEGIN
 90
        0
 91
        1
 62
     0
 92
       -2
340
14
 93
        0
 40
0.045
309
GRIDFORMAT_END
 95
        8
302
GRIDFORMAT
  1
GRIDFORMAT_BEGIN
 90
        0
 91
        1
 62
     0
 92
       -2
340
14
 93
        0
 40
0.045
309
GRIDFORMAT_END
 95
       16
302
GRIDFORMAT
  1
GRIDFORMAT_BEGIN
 90
        0
 91
        1
 62
     0
 92
       -2
340
14
 93
        0
 40
0.045
309
GRIDFORMAT_END
 95
       32
302
GRIDFORMAT
  1
GRIDFORMAT_BEGIN
 90
        0
 91
        1
 62
     0
 92
       -2
340
14
 93
        0
 40
0.045
309
GRIDFORMAT_END
309
TABLEFORMAT_END
  1
CELLSTYLE_BEGIN
 90
        2
 91
        1
300
_HEADER
309
CELLSTYLE_END
300
CELLSTYLE
  1
TABLEFORMAT_BEGIN
 90
        5
170
     1
 91
        0
 92
        0
 62
   257
 93
        1
300
CONTENTFORMAT
  1
CONTENTFORMAT_BEGIN
 90
        0
 91
        0
 92
        4
 93
        0
300

 40
0.0
140
1.0
 94
        2
 62
     0
340
11
144
4.5
309
CONTENTFORMAT_END
171
     1
301
MARGIN
  1
CELLMARGIN_BEGIN
 40
1.5
 40
1.5
 40
1.5
 40
1.5
 40
1.5
 40
1.5
309
CELLMARGIN_END
 94
        6
 95
        1
302
GRIDFORMAT
  1
GRIDFORMAT_BEGIN
 90
        0
 91
        1
 62
     0
 92
       -2
340
14
 93
        0
 40
0.045
309
GRIDFORMAT_END
 95
        2
302
GRIDFORMAT
  1
GRIDFORMAT_BEGIN
 90
        0
 91
        1
 62
     0
 92
       -2
340
14
 93
        0
 40
0.045
309
GRIDFORMAT_END
 95
        4
302
GRIDFORMAT
  1
GRIDFORMAT_BEGIN
 90
        0
 91
        1
 62
     0
 92
       -2
340
14
 93
        0
 40
0.045
309
GRIDFORMAT_END
 95
        8
302
GRIDFORMAT
  1
GRIDFORMAT_BEGIN
 90
        0
 91
        1
 62
     0
 92
       -2
340
14
 93
        0
 40
0.045
309
GRIDFORMAT_END
 95
       16
302
GRIDFORMAT
  1
GRIDFORMAT_BEGIN
 90
        0
 91
        1
 62
     0
 92
       -2
340
14
 93
        0
 40
0.045
309
GRIDFORMAT_END
 95
       32
302
GRIDFORMAT
  1
GRIDFORMAT_BEGIN
 90
        0
 91
        1
 62
     0
 92
       -2
340
14
 93
        0
 40
0.045
309
GRIDFORMAT_END
309
TABLEFORMAT_END
  1
CELLSTYLE_BEGIN
 90
        3
 91
        2
300
_DATA
309
CELLSTYLE_END
  0
XRECORD
  5
286
102
{ACAD_REACTORS
330
285
102
}
330
285
100
AcDbXrecord
280
     1
102
RTVSPropertyOp0
 70
     1
102
RTVSPropertyOp1
 70
     1
102
RTVSPropertyOp2
 70
     1
102
RTVSPropertyOp3
 70
     1
102
RTVSPropertyOp4
 70
     1
102
RTVSPropertyOp5
 70
     1
102
RTVSPropertyOp6
 70
     1
102
RTVSPropertyOp7
 70
     1
102
RTVSPropertyOp8
 70
     1
102
RTVSPropertyOp9
 70
     1
102
RTVSPropertyOp10
 70
     1
102
RTVSPropertyOp11
 70
     1
102
RTVSPropertyOp12
 70
     1
102
RTVSPropertyOp13
 70
     1
102
RTVSPropertyOp14
 70
     1
102
RTVSPropertyOp15
 70
     1
102
RTVSPropertyOp16
 70
     1
102
RTVSPropertyOp17
 70
     1
102
RTVSPropertyOp18
 70
     1
102
RTVSPropertyOp19
 70
     1
102
RTVSPropertyOp20
 70
     1
102
RTVSPropertyOp21
 70
     1
102
RTVSPropertyOp22
 70
     1
102
RTVSPropertyOp23
 70
     1
102
RTVSPropertyOp24
 70
     1
102
RTVSPropertyOp25
 70
     1
102
RTVSPropertyOp26
 70
     1
102
RTVSPropertyOp27
 70
     1
102
RTVSPropertyOp28
 70
     1
102
RTVSPropertyOp29
 70
     1
102
RTVSPropertyOp30
 70
     1
102
RTVSPropertyOp31
 70
     1
102
RTVSPropertyOp32
 70
     1
102
RTVSPropertyOp33
 70
     1
102
RTVSPropertyOp34
 70
     1
102
RTVSPropertyOp35
 70
     1
102
RTVSPropertyOp36
 70
     1
102
RTVSPropertyOp37
 70
     1
102
RTVSPropertyOp38
 70
     1
102
RTVSPropertyOp39
 70
     1
102
RTVSPropertyOp40
 70
     1
102
RTVSPropertyOp41
 70
     1
102
RTVSPropertyOp42
 70
     1
102
RTVSPropertyOp43
 70
     1
102
RTVSPropertyOp44
 70
     1
102
RTVSPropertyOp45
 70
     1
102
RTVSPropertyOp46
 70
     1
102
RTVSPropertyOp47
 70
     1
102
RTVSPropertyOp48
 70
     1
102
RTVSPropertyOp49
 70
     1
102
RTVSPropertyOp50
 70
     1
102
RTVSPropertyOp51
 70
     0
102
RTVSPropertyOp52
 70
     0
102
RTVSPropertyOp53
 70
     1
102
RTVSPropertyOp54
 70
     1
102
RTVSPropertyOp55
 70
     1
102
RTVSPropertyOp56
 70
     1
102
RTVSPropertyOp57
 70
     1
102
RTVSPost2010Prop28
280
     1
102
RTVSPost2010PropOp28
 70
     1
102
RTVSPost2010Prop29
280
     1
102
RTVSPost2010PropOp29
 70
     1
102
RTVSPost2010Prop30
280
     0
102
RTVSPost2010PropOp30
 70
     1
102
RTVSPost2010Prop31
280
     0
102
RTVSPost2010PropOp31
 70
     1
102
RTVSPost2010Prop32
280
     0
102
RTVSPost2010PropOp32
 70
     1
102
RTVSPost2010Prop33
280
     0
102
RTVSPost2010PropOp33
 70
     1
102
RTVSPost2010Prop34
280
     0
102
RTVSPost2010PropOp34
 70
     1
102
RTVSPost2010Prop35
280
     0
102
RTVSPost2010PropOp35
 70
     1
102
RTVSPost2010Prop36
280
     0
102
RTVSPost2010PropOp36
 70
     1
102
RTVSPost2010Prop37
 90
       50
102
RTVSPost2010PropOp37
 70
     1
102
RTVSPost2010Prop38
140
0.0
102
RTVSPost2010PropOp38
 70
     1
102
RTVSPost2010Prop39
140
1.0
102
RTVSPost2010PropOp39
 70
     1
102
RTVSPost2010Prop40
 90
        0
102
RTVSPost2010PropOp40
 70
     1
102
RTVSPost2010Prop41ColorIndex
 90
       18
102
RTVSPost2010Prop41ColorRGB
 90
        0
102
RTVSPost2010PropOp41
 70
     1
102
RTVSPost2010Prop42
 90
       50
102
RTVSPost2010PropOp42
 70
     1
102
RTVSPost2010Prop43
 90
        3
102
RTVSPost2010PropOp43
 70
     1
102
RTVSPost2010Prop44ColorIndex
 90
        5
102
RTVSPost2010Prop44ColorRGB
 90
      255
102
RTVSPost2010PropOp44
 70
     1
102
RTVSPost2010Prop45
280
     0
102
RTVSPost2010PropOp45
 70
     1
102
RTVSPost2010Prop46
 90
       50
102
RTVSPost2010PropOp46
 70
     1
102
RTVSPost2010Prop47
 90
       50
102
RTVSPost2010PropOp47
 70
     1
102
RTVSPost2010Prop48
 90
       50
102
RTVSPost2010PropOp48
 70
     1
102
RTVSPost2010Prop49
280
     0
102
RTVSPost2010PropOp49
 70
     1
102
RTVSPost2010Prop50
 90
       50
102
RTVSPost2010PropOp50
 70
     1
102
RTVSPost2010Prop51ColorIndex
 90
      256
102
RTVSPost2010Prop51ColorRGB
 90
-16777216
102
RTVSPost2010PropOp51
 70
     0
102
RTVSPost2010Prop52
140
1.0
102
RTVSPost2010PropOp52
 70
     0
102
RTVSPost2010Prop53
 90
        2
102
RTVSPost2010PropOp53
 70
     1
102
RTVSPost2010Prop54
  1
strokes_ogs.tif
102
RTVSPost2010PropOp54
 70
     1
102
RTVSPost2010Prop55
280
     0
102
RTVSPost2010PropOp55
 70
     1
102
RTVSPost2010Prop56
140
1.0
102
RTVSPost2010PropOp56
 70
     1
102
RTVSPost2010Prop57
140
1.0
102
RTVSPost2010PropOp57
 70
     1
  0
XRECORD
  5
28C
102
{ACAD_REACTORS
330
28B
102
}
330
28B
100
AcDbXrecord
280
     1
102
RTVSPropertyOp0
 70
     1
102
RTVSPropertyOp1
 70
     1
102
RTVSPropertyOp2
 70
     1
102
RTVSPropertyOp3
 70
     1
102
RTVSPropertyOp4
 70
     1
102
RTVSPropertyOp5
 70
     1
102
RTVSPropertyOp6
 70
     1
102
RTVSPropertyOp7
 70
     1
102
RTVSPropertyOp8
 70
     1
102
RTVSPropertyOp9
 70
     1
102
RTVSPropertyOp10
 70
     1
102
RTVSPropertyOp11
 70
     1
102
RTVSPropertyOp12
 70
     1
102
RTVSPropertyOp13
 70
     1
102
RTVSPropertyOp14
 70
     1
102
RTVSPropertyOp15
 70
     1
102
RTVSPropertyOp16
 70
     1
102
RTVSPropertyOp17
 70
     1
102
RTVSPropertyOp18
 70
     1
102
RTVSPropertyOp19
 70
     1
102
RTVSPropertyOp20
 70
     1
102
RTVSPropertyOp21
 70
     1
102
RTVSPropertyOp22
 70
     1
102
RTVSPropertyOp23
 70
     1
102
RTVSPropertyOp24
 70
     1
102
RTVSPropertyOp25
 70
     1
102
RTVSPropertyOp26
 70
     1
102
RTVSPropertyOp27
 70
     1
102
RTVSPropertyOp28
 70
     1
102
RTVSPropertyOp29
 70
     1
102
RTVSPropertyOp30
 70
     1
102
RTVSPropertyOp31
 70
     1
102
RTVSPropertyOp32
 70
     1
102
RTVSPropertyOp33
 70
     1
102
RTVSPropertyOp34
 70
     1
102
RTVSPropertyOp35
 70
     1
102
RTVSPropertyOp36
 70
     1
102
RTVSPropertyOp37
 70
     1
102
RTVSPropertyOp38
 70
     1
102
RTVSPropertyOp39
 70
     1
102
RTVSPropertyOp40
 70
     1
102
RTVSPropertyOp41
 70
     1
102
RTVSPropertyOp42
 70
     1
102
RTVSPropertyOp43
 70
     1
102
RTVSPropertyOp44
 70
     1
102
RTVSPropertyOp45
 70
     1
102
RTVSPropertyOp46
 70
     1
102
RTVSPropertyOp47
 70
     1
102
RTVSPropertyOp48
 70
     1
102
RTVSPropertyOp49
 70
     1
102
RTVSPropertyOp50
 70
     1
102
RTVSPropertyOp51
 70
     0
102
RTVSPropertyOp52
 70
     0
102
RTVSPropertyOp53
 70
     1
102
RTVSPropertyOp54
 70
     1
102
RTVSPropertyOp55
 70
     1
102
RTVSPropertyOp56
 70
     1
102
RTVSPropertyOp57
 70
     1
102
RTVSPost2010Prop28
280
     0
102
RTVSPost2010PropOp28
 70
     1
102
RTVSPost2010Prop29
280
     1
102
RTVSPost2010PropOp29
 70
     1
102
RTVSPost2010Prop30
280
     1
102
RTVSPost2010PropOp30
 70
     1
102
RTVSPost2010Prop31
280
     0
102
RTVSPost2010PropOp31
 70
     1
102
RTVSPost2010Prop32
280
     0
102
RTVSPost2010PropOp32
 70
     1
102
RTVSPost2010Prop33
280
     0
102
RTVSPost2010PropOp33
 70
     1
102
RTVSPost2010Prop34
280
     0
102
RTVSPost2010PropOp34
 70
     1
102
RTVSPost2010Prop35
280
     0
102
RTVSPost2010PropOp35
 70
     1
102
RTVSPost2010Prop36
280
     0
102
RTVSPost2010PropOp36
 70
     1
102
RTVSPost2010Prop37
 90
       50
102
RTVSPost2010PropOp37
 70
     1
102
RTVSPost2010Prop38
140
0.0
102
RTVSPost2010PropOp38
 70
     1
102
RTVSPost2010Prop39
140
1.0
102
RTVSPost2010PropOp39
 70
     1
102
RTVSPost2010Prop40
 90
        0
102
RTVSPost2010PropOp40
 70
     1
102
RTVSPost2010Prop41ColorIndex
 90
       18
102
RTVSPost2010Prop41ColorRGB
 90
        0
102
RTVSPost2010PropOp41
 70
     1
102
RTVSPost2010Prop42
 90
       50
102
RTVSPost2010PropOp42
 70
     1
102
RTVSPost2010Prop43
 90
        3
102
RTVSPost2010PropOp43
 70
     1
102
RTVSPost2010Prop44ColorIndex
 90
        5
102
RTVSPost2010Prop44ColorRGB
 90
      255
102
RTVSPost2010PropOp44
 70
     1
102
RTVSPost2010Prop45
280
     0
102
RTVSPost2010PropOp45
 70
     1
102
RTVSPost2010Prop46
 90
       50
102
RTVSPost2010PropOp46
 70
     1
102
RTVSPost2010Prop47
 90
       50
102
RTVSPost2010PropOp47
 70
     1
102
RTVSPost2010Prop48
 90
       50
102
RTVSPost2010PropOp48
 70
     1
102
RTVSPost2010Prop49
280
     0
102
RTVSPost2010PropOp49
 70
     1
102
RTVSPost2010Prop50
 90
       50
102
RTVSPost2010PropOp50
 70
     1
102
RTVSPost2010Prop51ColorIndex
 90
      256
102
RTVSPost2010Prop51ColorRGB
 90
-16777216
102
RTVSPost2010PropOp51
 70
     0
102
RTVSPost2010Prop52
140
1.0
102
RTVSPost2010PropOp52
 70
     0
102
RTVSPost2010Prop53
 90
        2
102
RTVSPost2010PropOp53
 70
     1
102
RTVSPost2010Prop54
  1
strokes_ogs.tif
102
RTVSPost2010PropOp54
 70
     1
102
RTVSPost2010Prop55
280
     0
102
RTVSPost2010PropOp55
 70
     1
102
RTVSPost2010Prop56
140
1.0
102
RTVSPost2010PropOp56
 70
     1
102
RTVSPost2010Prop57
140
1.0
102
RTVSPost2010PropOp57
 70
     1
  0
XRECORD
  5
294
102
{ACAD_REACTORS
330
293
102
}
330
293
100
AcDbXrecord
280
     1
102
RTVSPropertyOp0
 70
     1
102
RTVSPropertyOp1
 70
     1
102
RTVSPropertyOp2
 70
     1
102
RTVSPropertyOp3
 70
     1
102
RTVSPropertyOp4
 70
     1
102
RTVSPropertyOp5
 70
     1
102
RTVSPropertyOp6
 70
     1
102
RTVSPropertyOp7
 70
     1
102
RTVSPropertyOp8
 70
     1
102
RTVSPropertyOp9
 70
     1
102
RTVSPropertyOp10
 70
     1
102
RTVSPropertyOp11
 70
     1
102
RTVSPropertyOp12
 70
     1
102
RTVSPropertyOp13
 70
     1
102
RTVSPropertyOp14
 70
     1
102
RTVSPropertyOp15
 70
     1
102
RTVSPropertyOp16
 70
     1
102
RTVSPropertyOp17
 70
     1
102
RTVSPropertyOp18
 70
     1
102
RTVSPropertyOp19
 70
     1
102
RTVSPropertyOp20
 70
     1
102
RTVSPropertyOp21
 70
     1
102
RTVSPropertyOp22
 70
     1
102
RTVSPropertyOp23
 70
     1
102
RTVSPropertyOp24
 70
     1
102
RTVSPropertyOp25
 70
     1
102
RTVSPropertyOp26
 70
     1
102
RTVSPropertyOp27
 70
     1
102
RTVSPropertyOp28
 70
     1
102
RTVSPropertyOp29
 70
     1
102
RTVSPropertyOp30
 70
     1
102
RTVSPropertyOp31
 70
     1
102
RTVSPropertyOp32
 70
     1
102
RTVSPropertyOp33
 70
     1
102
RTVSPropertyOp34
 70
     1
102
RTVSPropertyOp35
 70
     1
102
RTVSPropertyOp36
 70
     1
102
RTVSPropertyOp37
 70
     1
102
RTVSPropertyOp38
 70
     1
102
RTVSPropertyOp39
 70
     1
102
RTVSPropertyOp40
 70
     1
102
RTVSPropertyOp41
 70
     1
102
RTVSPropertyOp42
 70
     1
102
RTVSPropertyOp43
 70
     1
102
RTVSPropertyOp44
 70
     1
102
RTVSPropertyOp45
 70
     1
102
RTVSPropertyOp46
 70
     1
102
RTVSPropertyOp47
 70
     1
102
RTVSPropertyOp48
 70
     1
102
RTVSPropertyOp49
 70
     1
102
RTVSPropertyOp50
 70
     1
102
RTVSPropertyOp51
 70
     0
102
RTVSPropertyOp52
 70
     0
102
RTVSPropertyOp53
 70
     1
102
RTVSPropertyOp54
 70
     1
102
RTVSPropertyOp55
 70
     1
102
RTVSPropertyOp56
 70
     1
102
RTVSPropertyOp57
 70
     1
102
RTVSPost2010Prop28
280
     0
102
RTVSPost2010PropOp28
 70
     1
102
RTVSPost2010Prop29
280
     1
102
RTVSPost2010PropOp29
 70
     1
102
RTVSPost2010Prop30
280
     1
102
RTVSPost2010PropOp30
 70
     1
102
RTVSPost2010Prop31
280
     0
102
RTVSPost2010PropOp31
 70
     1
102
RTVSPost2010Prop32
280
     0
102
RTVSPost2010PropOp32
 70
     1
102
RTVSPost2010Prop33
280
     0
102
RTVSPost2010PropOp33
 70
     1
102
RTVSPost2010Prop34
280
     0
102
RTVSPost2010PropOp34
 70
     1
102
RTVSPost2010Prop35
280
     0
102
RTVSPost2010PropOp35
 70
     1
102
RTVSPost2010Prop36
280
     0
102
RTVSPost2010PropOp36
 70
     1
102
RTVSPost2010Prop37
 90
       50
102
RTVSPost2010PropOp37
 70
     1
102
RTVSPost2010Prop38
140
0.0
102
RTVSPost2010PropOp38
 70
     1
102
RTVSPost2010Prop39
140
1.0
102
RTVSPost2010PropOp39
 70
     1
102
RTVSPost2010Prop40
 90
        0
102
RTVSPost2010PropOp40
 70
     1
102
RTVSPost2010Prop41ColorIndex
 90
       18
102
RTVSPost2010Prop41ColorRGB
 90
        0
102
RTVSPost2010PropOp41
 70
     1
102
RTVSPost2010Prop42
 90
       50
102
RTVSPost2010PropOp42
 70
     1
102
RTVSPost2010Prop43
 90
        3
102
RTVSPost2010PropOp43
 70
     1
102
RTVSPost2010Prop44ColorIndex
 90
        5
102
RTVSPost2010Prop44ColorRGB
 90
      255
102
RTVSPost2010PropOp44
 70
     1
102
RTVSPost2010Prop45
280
     0
102
RTVSPost2010PropOp45
 70
     1
102
RTVSPost2010Prop46
 90
       50
102
RTVSPost2010PropOp46
 70
     1
102
RTVSPost2010Prop47
 90
       50
102
RTVSPost2010PropOp47
 70
     1
102
RTVSPost2010Prop48
 90
       50
102
RTVSPost2010PropOp48
 70
     1
102
RTVSPost2010Prop49
280
     0
102
RTVSPost2010PropOp49
 70
     1
102
RTVSPost2010Prop50
 90
       50
102
RTVSPost2010PropOp50
 70
     1
102
RTVSPost2010Prop51ColorIndex
 90
      256
102
RTVSPost2010Prop51ColorRGB
 90
-16777216
102
RTVSPost2010PropOp51
 70
     0
102
RTVSPost2010Prop52
140
1.0
102
RTVSPost2010PropOp52
 70
     0
102
RTVSPost2010Prop53
 90
        2
102
RTVSPost2010PropOp53
 70
     1
102
RTVSPost2010Prop54
  1
strokes_ogs.tif
102
RTVSPost2010PropOp54
 70
     1
102
RTVSPost2010Prop55
280
     0
102
RTVSPost2010PropOp55
 70
     1
102
RTVSPost2010Prop56
140
1.0
102
RTVSPost2010PropOp56
 70
     1
102
RTVSPost2010Prop57
140
1.0
102
RTVSPost2010PropOp57
 70
     1
  0
XRECORD
  5
29C
102
{ACAD_REACTORS
330
29B
102
}
330
29B
100
AcDbXrecord
280
     1
102
RTVSPropertyOp0
 70
     1
102
RTVSPropertyOp1
 70
     1
102
RTVSPropertyOp2
 70
     1
102
RTVSPropertyOp3
 70
     1
102
RTVSPropertyOp4
 70
     1
102
RTVSPropertyOp5
 70
     1
102
RTVSPropertyOp6
 70
     1
102
RTVSPropertyOp7
 70
     1
102
RTVSPropertyOp8
 70
     1
102
RTVSPropertyOp9
 70
     1
102
RTVSPropertyOp10
 70
     1
102
RTVSPropertyOp11
 70
     1
102
RTVSPropertyOp12
 70
     1
102
RTVSPropertyOp13
 70
     1
102
RTVSPropertyOp14
 70
     1
102
RTVSPropertyOp15
 70
     1
102
RTVSPropertyOp16
 70
     1
102
RTVSPropertyOp17
 70
     1
102
RTVSPropertyOp18
 70
     1
102
RTVSPropertyOp19
 70
     1
102
RTVSPropertyOp20
 70
     1
102
RTVSPropertyOp21
 70
     1
102
RTVSPropertyOp22
 70
     1
102
RTVSPropertyOp23
 70
     1
102
RTVSPropertyOp24
 70
     1
102
RTVSPropertyOp25
 70
     1
102
RTVSPropertyOp26
 70
     1
102
RTVSPropertyOp27
 70
     1
102
RTVSPropertyOp28
 70
     1
102
RTVSPropertyOp29
 70
     1
102
RTVSPropertyOp30
 70
     1
102
RTVSPropertyOp31
 70
     1
102
RTVSPropertyOp32
 70
     1
102
RTVSPropertyOp33
 70
     1
102
RTVSPropertyOp34
 70
     1
102
RTVSPropertyOp35
 70
     1
102
RTVSPropertyOp36
 70
     1
102
RTVSPropertyOp37
 70
     1
102
RTVSPropertyOp38
 70
     1
102
RTVSPropertyOp39
 70
     1
102
RTVSPropertyOp40
 70
     1
102
RTVSPropertyOp41
 70
     1
102
RTVSPropertyOp42
 70
     1
102
RTVSPropertyOp43
 70
     1
102
RTVSPropertyOp44
 70
     1
102
RTVSPropertyOp45
 70
     1
102
RTVSPropertyOp46
 70
     1
102
RTVSPropertyOp47
 70
     1
102
RTVSPropertyOp48
 70
     1
102
RTVSPropertyOp49
 70
     1
102
RTVSPropertyOp50
 70
     1
102
RTVSPropertyOp51
 70
     0
102
RTVSPropertyOp52
 70
     0
102
RTVSPropertyOp53
 70
     1
102
RTVSPropertyOp54
 70
     1
102
RTVSPropertyOp55
 70
     1
102
RTVSPropertyOp56
 70
     1
102
RTVSPropertyOp57
 70
     1
102
RTVSPost2010Prop28
280
     0
102
RTVSPost2010PropOp28
 70
     1
102
RTVSPost2010Prop29
280
     1
102
RTVSPost2010PropOp29
 70
     1
102
RTVSPost2010Prop30
280
     1
102
RTVSPost2010PropOp30
 70
     1
102
RTVSPost2010Prop31
280
     0
102
RTVSPost2010PropOp31
 70
     1
102
RTVSPost2010Prop32
280
     0
102
RTVSPost2010PropOp32
 70
     1
102
RTVSPost2010Prop33
280
     0
102
RTVSPost2010PropOp33
 70
     1
102
RTVSPost2010Prop34
280
     0
102
RTVSPost2010PropOp34
 70
     1
102
RTVSPost2010Prop35
280
     0
102
RTVSPost2010PropOp35
 70
     1
102
RTVSPost2010Prop36
280
     0
102
RTVSPost2010PropOp36
 70
     1
102
RTVSPost2010Prop37
 90
       50
102
RTVSPost2010PropOp37
 70
     1
102
RTVSPost2010Prop38
140
0.0
102
RTVSPost2010PropOp38
 70
     1
102
RTVSPost2010Prop39
140
1.0
102
RTVSPost2010PropOp39
 70
     1
102
RTVSPost2010Prop40
 90
        0
102
RTVSPost2010PropOp40
 70
     1
102
RTVSPost2010Prop41ColorIndex
 90
       18
102
RTVSPost2010Prop41ColorRGB
 90
        0
102
RTVSPost2010PropOp41
 70
     1
102
RTVSPost2010Prop42
 90
       50
102
RTVSPost2010PropOp42
 70
     1
102
RTVSPost2010Prop43
 90
        3
102
RTVSPost2010PropOp43
 70
     1
102
RTVSPost2010Prop44ColorIndex
 90
        5
102
RTVSPost2010Prop44ColorRGB
 90
      255
102
RTVSPost2010PropOp44
 70
     1
102
RTVSPost2010Prop45
280
     0
102
RTVSPost2010PropOp45
 70
     1
102
RTVSPost2010Prop46
 90
       50
102
RTVSPost2010PropOp46
 70
     1
102
RTVSPost2010Prop47
 90
       50
102
RTVSPost2010PropOp47
 70
     1
102
RTVSPost2010Prop48
 90
       50
102
RTVSPost2010PropOp48
 70
     1
102
RTVSPost2010Prop49
280
     0
102
RTVSPost2010PropOp49
 70
     1
102
RTVSPost2010Prop50
 90
       50
102
RTVSPost2010PropOp50
 70
     1
102
RTVSPost2010Prop51ColorIndex
 90
      256
102
RTVSPost2010Prop51ColorRGB
 90
-16777216
102
RTVSPost2010PropOp51
 70
     0
102
RTVSPost2010Prop52
140
1.0
102
RTVSPost2010PropOp52
 70
     0
102
RTVSPost2010Prop53
 90
        2
102
RTVSPost2010PropOp53
 70
     1
102
RTVSPost2010Prop54
  1
strokes_ogs.tif
102
RTVSPost2010PropOp54
 70
     1
102
RTVSPost2010Prop55
280
     0
102
RTVSPost2010PropOp55
 70
     1
102
RTVSPost2010Prop56
140
1.0
102
RTVSPost2010PropOp56
 70
     1
102
RTVSPost2010Prop57
140
1.0
102
RTVSPost2010PropOp57
 70
     1
  0
XRECORD
  5
290
102
{ACAD_REACTORS
330
28F
102
}
330
28F
100
AcDbXrecord
280
     1
102
RTVSPropertyOp0
 70
     1
102
RTVSPropertyOp1
 70
     1
102
RTVSPropertyOp2
 70
     1
102
RTVSPropertyOp3
 70
     1
102
RTVSPropertyOp4
 70
     1
102
RTVSPropertyOp5
 70
     1
102
RTVSPropertyOp6
 70
     1
102
RTVSPropertyOp7
 70
     1
102
RTVSPropertyOp8
 70
     1
102
RTVSPropertyOp9
 70
     1
102
RTVSPropertyOp10
 70
     1
102
RTVSPropertyOp11
 70
     1
102
RTVSPropertyOp12
 70
     1
102
RTVSPropertyOp13
 70
     1
102
RTVSPropertyOp14
 70
     1
102
RTVSPropertyOp15
 70
     1
102
RTVSPropertyOp16
 70
     1
102
RTVSPropertyOp17
 70
     1
102
RTVSPropertyOp18
 70
     1
102
RTVSPropertyOp19
 70
     1
102
RTVSPropertyOp20
 70
     1
102
RTVSPropertyOp21
 70
     1
102
RTVSPropertyOp22
 70
     1
102
RTVSPropertyOp23
 70
     1
102
RTVSPropertyOp24
 70
     1
102
RTVSPropertyOp25
 70
     1
102
RTVSPropertyOp26
 70
     1
102
RTVSPropertyOp27
 70
     1
102
RTVSPropertyOp28
 70
     1
102
RTVSPropertyOp29
 70
     1
102
RTVSPropertyOp30
 70
     1
102
RTVSPropertyOp31
 70
     1
102
RTVSPropertyOp32
 70
     1
102
RTVSPropertyOp33
 70
     1
102
RTVSPropertyOp34
 70
     1
102
RTVSPropertyOp35
 70
     1
102
RTVSPropertyOp36
 70
     1
102
RTVSPropertyOp37
 70
     1
102
RTVSPropertyOp38
 70
     1
102
RTVSPropertyOp39
 70
     1
102
RTVSPropertyOp40
 70
     1
102
RTVSPropertyOp41
 70
     1
102
RTVSPropertyOp42
 70
     1
102
RTVSPropertyOp43
 70
     1
102
RTVSPropertyOp44
 70
     1
102
RTVSPropertyOp45
 70
     1
102
RTVSPropertyOp46
 70
     1
102
RTVSPropertyOp47
 70
     1
102
RTVSPropertyOp48
 70
     1
102
RTVSPropertyOp49
 70
     1
102
RTVSPropertyOp50
 70
     1
102
RTVSPropertyOp51
 70
     0
102
RTVSPropertyOp52
 70
     0
102
RTVSPropertyOp53
 70
     1
102
RTVSPropertyOp54
 70
     1
102
RTVSPropertyOp55
 70
     1
102
RTVSPropertyOp56
 70
     1
102
RTVSPropertyOp57
 70
     1
102
RTVSPost2010Prop28
280
     0
102
RTVSPost2010PropOp28
 70
     1
102
RTVSPost2010Prop29
280
     1
102
RTVSPost2010PropOp29
 70
     1
102
RTVSPost2010Prop30
280
     1
102
RTVSPost2010PropOp30
 70
     1
102
RTVSPost2010Prop31
280
     0
102
RTVSPost2010PropOp31
 70
     1
102
RTVSPost2010Prop32
280
     0
102
RTVSPost2010PropOp32
 70
     1
102
RTVSPost2010Prop33
280
     0
102
RTVSPost2010PropOp33
 70
     1
102
RTVSPost2010Prop34
280
     0
102
RTVSPost2010PropOp34
 70
     1
102
RTVSPost2010Prop35
280
     0
102
RTVSPost2010PropOp35
 70
     1
102
RTVSPost2010Prop36
280
     0
102
RTVSPost2010PropOp36
 70
     1
102
RTVSPost2010Prop37
 90
       50
102
RTVSPost2010PropOp37
 70
     1
102
RTVSPost2010Prop38
140
0.0
102
RTVSPost2010PropOp38
 70
     1
102
RTVSPost2010Prop39
140
1.0
102
RTVSPost2010PropOp39
 70
     1
102
RTVSPost2010Prop40
 90
        0
102
RTVSPost2010PropOp40
 70
     1
102
RTVSPost2010Prop41ColorIndex
 90
       18
102
RTVSPost2010Prop41ColorRGB
 90
        0
102
RTVSPost2010PropOp41
 70
     1
102
RTVSPost2010Prop42
 90
       50
102
RTVSPost2010PropOp42
 70
     1
102
RTVSPost2010Prop43
 90
        3
102
RTVSPost2010PropOp43
 70
     1
102
RTVSPost2010Prop44ColorIndex
 90
        5
102
RTVSPost2010Prop44ColorRGB
 90
      255
102
RTVSPost2010PropOp44
 70
     1
102
RTVSPost2010Prop45
280
     0
102
RTVSPost2010PropOp45
 70
     1
102
RTVSPost2010Prop46
 90
       50
102
RTVSPost2010PropOp46
 70
     1
102
RTVSPost2010Prop47
 90
       50
102
RTVSPost2010PropOp47
 70
     1
102
RTVSPost2010Prop48
 90
       50
102
RTVSPost2010PropOp48
 70
     1
102
RTVSPost2010Prop49
280
     0
102
RTVSPost2010PropOp49
 70
     1
102
RTVSPost2010Prop50
 90
       50
102
RTVSPost2010PropOp50
 70
     1
102
RTVSPost2010Prop51ColorIndex
 90
      256
102
RTVSPost2010Prop51ColorRGB
 90
-16777216
102
RTVSPost2010PropOp51
 70
     0
102
RTVSPost2010Prop52
140
1.0
102
RTVSPost2010PropOp52
 70
     0
102
RTVSPost2010Prop53
 90
        2
102
RTVSPost2010PropOp53
 70
     1
102
RTVSPost2010Prop54
  1
strokes_ogs.tif
102
RTVSPost2010PropOp54
 70
     1
102
RTVSPost2010Prop55
280
     0
102
RTVSPost2010PropOp55
 70
     1
102
RTVSPost2010Prop56
140
1.0
102
RTVSPost2010PropOp56
 70
     1
102
RTVSPost2010Prop57
140
1.0
102
RTVSPost2010PropOp57
 70
     1
  0
XRECORD
  5
292
102
{ACAD_REACTORS
330
291
102
}
330
291
100
AcDbXrecord
280
     1
102
RTVSPropertyOp0
 70
     1
102
RTVSPropertyOp1
 70
     1
102
RTVSPropertyOp2
 70
     1
102
RTVSPropertyOp3
 70
     1
102
RTVSPropertyOp4
 70
     1
102
RTVSPropertyOp5
 70
     1
102
RTVSPropertyOp6
 70
     1
102
RTVSPropertyOp7
 70
     1
102
RTVSPropertyOp8
 70
     1
102
RTVSPropertyOp9
 70
     1
102
RTVSPropertyOp10
 70
     1
102
RTVSPropertyOp11
 70
     1
102
RTVSPropertyOp12
 70
     1
102
RTVSPropertyOp13
 70
     1
102
RTVSPropertyOp14
 70
     1
102
RTVSPropertyOp15
 70
     1
102
RTVSPropertyOp16
 70
     1
102
RTVSPropertyOp17
 70
     1
102
RTVSPropertyOp18
 70
     1
102
RTVSPropertyOp19
 70
     1
102
RTVSPropertyOp20
 70
     1
102
RTVSPropertyOp21
 70
     1
102
RTVSPropertyOp22
 70
     1
102
RTVSPropertyOp23
 70
     1
102
RTVSPropertyOp24
 70
     1
102
RTVSPropertyOp25
 70
     1
102
RTVSPropertyOp26
 70
     1
102
RTVSPropertyOp27
 70
     1
102
RTVSPropertyOp28
 70
     1
102
RTVSPropertyOp29
 70
     1
102
RTVSPropertyOp30
 70
     1
102
RTVSPropertyOp31
 70
     1
102
RTVSPropertyOp32
 70
     1
102
RTVSPropertyOp33
 70
     1
102
RTVSPropertyOp34
 70
     1
102
RTVSPropertyOp35
 70
     1
102
RTVSPropertyOp36
 70
     1
102
RTVSPropertyOp37
 70
     1
102
RTVSPropertyOp38
 70
     1
102
RTVSPropertyOp39
 70
     1
102
RTVSPropertyOp40
 70
     1
102
RTVSPropertyOp41
 70
     1
102
RTVSPropertyOp42
 70
     1
102
RTVSPropertyOp43
 70
     1
102
RTVSPropertyOp44
 70
     1
102
RTVSPropertyOp45
 70
     1
102
RTVSPropertyOp46
 70
     1
102
RTVSPropertyOp47
 70
     1
102
RTVSPropertyOp48
 70
     1
102
RTVSPropertyOp49
 70
     1
102
RTVSPropertyOp50
 70
     1
102
RTVSPropertyOp51
 70
     0
102
RTVSPropertyOp52
 70
     0
102
RTVSPropertyOp53
 70
     1
102
RTVSPropertyOp54
 70
     1
102
RTVSPropertyOp55
 70
     1
102
RTVSPropertyOp56
 70
     1
102
RTVSPropertyOp57
 70
     1
102
RTVSPost2010Prop28
280
     0
102
RTVSPost2010PropOp28
 70
     1
102
RTVSPost2010Prop29
280
     1
102
RTVSPost2010PropOp29
 70
     1
102
RTVSPost2010Prop30
280
     1
102
RTVSPost2010PropOp30
 70
     1
102
RTVSPost2010Prop31
280
     0
102
RTVSPost2010PropOp31
 70
     1
102
RTVSPost2010Prop32
280
     0
102
RTVSPost2010PropOp32
 70
     1
102
RTVSPost2010Prop33
280
     0
102
RTVSPost2010PropOp33
 70
     1
102
RTVSPost2010Prop34
280
     0
102
RTVSPost2010PropOp34
 70
     1
102
RTVSPost2010Prop35
280
     0
102
RTVSPost2010PropOp35
 70
     1
102
RTVSPost2010Prop36
280
     0
102
RTVSPost2010PropOp36
 70
     1
102
RTVSPost2010Prop37
 90
       50
102
RTVSPost2010PropOp37
 70
     1
102
RTVSPost2010Prop38
140
0.0
102
RTVSPost2010PropOp38
 70
     1
102
RTVSPost2010Prop39
140
1.0
102
RTVSPost2010PropOp39
 70
     1
102
RTVSPost2010Prop40
 90
        0
102
RTVSPost2010PropOp40
 70
     1
102
RTVSPost2010Prop41ColorIndex
 90
       18
102
RTVSPost2010Prop41ColorRGB
 90
        0
102
RTVSPost2010PropOp41
 70
     1
102
RTVSPost2010Prop42
 90
       50
102
RTVSPost2010PropOp42
 70
     1
102
RTVSPost2010Prop43
 90
        3
102
RTVSPost2010PropOp43
 70
     1
102
RTVSPost2010Prop44ColorIndex
 90
        5
102
RTVSPost2010Prop44ColorRGB
 90
      255
102
RTVSPost2010PropOp44
 70
     1
102
RTVSPost2010Prop45
280
     0
102
RTVSPost2010PropOp45
 70
     1
102
RTVSPost2010Prop46
 90
       50
102
RTVSPost2010PropOp46
 70
     1
102
RTVSPost2010Prop47
 90
       50
102
RTVSPost2010PropOp47
 70
     1
102
RTVSPost2010Prop48
 90
       50
102
RTVSPost2010PropOp48
 70
     1
102
RTVSPost2010Prop49
280
     0
102
RTVSPost2010PropOp49
 70
     1
102
RTVSPost2010Prop50
 90
       50
102
RTVSPost2010PropOp50
 70
     1
102
RTVSPost2010Prop51ColorIndex
 90
      256
102
RTVSPost2010Prop51ColorRGB
 90
-16777216
102
RTVSPost2010PropOp51
 70
     0
102
RTVSPost2010Prop52
140
1.0
102
RTVSPost2010PropOp52
 70
     0
102
RTVSPost2010Prop53
 90
        2
102
RTVSPost2010PropOp53
 70
     1
102
RTVSPost2010Prop54
  1
strokes_ogs.tif
102
RTVSPost2010PropOp54
 70
     1
102
RTVSPost2010Prop55
280
     0
102
RTVSPost2010PropOp55
 70
     1
102
RTVSPost2010Prop56
140
1.0
102
RTVSPost2010PropOp56
 70
     1
102
RTVSPost2010Prop57
140
1.0
102
RTVSPost2010PropOp57
 70
     1
  0
XRECORD
  5
2A2
102
{ACAD_REACTORS
330
2A1
102
}
330
2A1
100
AcDbXrecord
280
     1
102
RTVSPropertyOp0
 70
     0
102
RTVSPropertyOp1
 70
     0
102
RTVSPropertyOp2
 70
     0
102
RTVSPropertyOp3
 70
     0
102
RTVSPropertyOp4
 70
     0
102
RTVSPropertyOp5
 70
     0
102
RTVSPropertyOp6
 70
     0
102
RTVSPropertyOp7
 70
     0
102
RTVSPropertyOp8
 70
     0
102
RTVSPropertyOp9
 70
     0
102
RTVSPropertyOp10
 70
     0
102
RTVSPropertyOp11
 70
     0
102
RTVSPropertyOp12
 70
     0
102
RTVSPropertyOp13
 70
     0
102
RTVSPropertyOp14
 70
     2
102
RTVSPropertyOp15
 70
     0
102
RTVSPropertyOp16
 70
     0
102
RTVSPropertyOp17
 70
     0
102
RTVSPropertyOp18
 70
     0
102
RTVSPropertyOp19
 70
     0
102
RTVSPropertyOp20
 70
     0
102
RTVSPropertyOp21
 70
     0
102
RTVSPropertyOp22
 70
     0
102
RTVSPropertyOp23
 70
     0
102
RTVSPropertyOp24
 70
     0
102
RTVSPropertyOp25
 70
     0
102
RTVSPropertyOp26
 70
     0
102
RTVSPropertyOp27
 70
     0
102
RTVSPropertyOp28
 70
     0
102
RTVSPropertyOp29
 70
     0
102
RTVSPropertyOp30
 70
     0
102
RTVSPropertyOp31
 70
     0
102
RTVSPropertyOp32
 70
     0
102
RTVSPropertyOp33
 70
     0
102
RTVSPropertyOp34
 70
     0
102
RTVSPropertyOp35
 70
     0
102
RTVSPropertyOp36
 70
     0
102
RTVSPropertyOp37
 70
     0
102
RTVSPropertyOp38
 70
     0
102
RTVSPropertyOp39
 70
     0
102
RTVSPropertyOp40
 70
     0
102
RTVSPropertyOp41
 70
     0
102
RTVSPropertyOp42
 70
     0
102
RTVSPropertyOp43
 70
     0
102
RTVSPropertyOp44
 70
     0
102
RTVSPropertyOp45
 70
     0
102
RTVSPropertyOp46
 70
     0
102
RTVSPropertyOp47
 70
     0
102
RTVSPropertyOp48
 70
     0
102
RTVSPropertyOp49
 70
     0
102
RTVSPropertyOp50
 70
     0
102
RTVSPropertyOp51
 70
     0
102
RTVSPropertyOp52
 70
     0
102
RTVSPropertyOp53
 70
     0
102
RTVSPropertyOp54
 70
     0
102
RTVSPropertyOp55
 70
     0
102
RTVSPropertyOp56
 70
     0
102
RTVSPropertyOp57
 70
     0
102
RTVSPost2010Prop28
280
     0
102
RTVSPost2010PropOp28
 70
     0
102
RTVSPost2010Prop29
280
     1
102
RTVSPost2010PropOp29
 70
     0
102
RTVSPost2010Prop30
280
     1
102
RTVSPost2010PropOp30
 70
     0
102
RTVSPost2010Prop31
280
     0
102
RTVSPost2010PropOp31
 70
     0
102
RTVSPost2010Prop32
280
     0
102
RTVSPost2010PropOp32
 70
     0
102
RTVSPost2010Prop33
280
     0
102
RTVSPost2010PropOp33
 70
     0
102
RTVSPost2010Prop34
280
     0
102
RTVSPost2010PropOp34
 70
     0
102
RTVSPost2010Prop35
280
     0
102
RTVSPost2010PropOp35
 70
     0
102
RTVSPost2010Prop36
280
     0
102
RTVSPost2010PropOp36
 70
     0
102
RTVSPost2010Prop37
 90
       50
102
RTVSPost2010PropOp37
 70
     0
102
RTVSPost2010Prop38
140
0.0
102
RTVSPost2010PropOp38
 70
     0
102
RTVSPost2010Prop39
140
1.0
102
RTVSPost2010PropOp39
 70
     0
102
RTVSPost2010Prop40
 90
        0
102
RTVSPost2010PropOp40
 70
     0
102
RTVSPost2010Prop41ColorIndex
 90
       18
102
RTVSPost2010Prop41ColorRGB
 90
        0
102
RTVSPost2010PropOp41
 70
     0
102
RTVSPost2010Prop42
 90
       50
102
RTVSPost2010PropOp42
 70
     0
102
RTVSPost2010Prop43
 90
        3
102
RTVSPost2010PropOp43
 70
     0
102
RTVSPost2010Prop44ColorIndex
 90
        5
102
RTVSPost2010Prop44ColorRGB
 90
      255
102
RTVSPost2010PropOp44
 70
     0
102
RTVSPost2010Prop45
280
     0
102
RTVSPost2010PropOp45
 70
     0
102
RTVSPost2010Prop46
 90
       50
102
RTVSPost2010PropOp46
 70
     0
102
RTVSPost2010Prop47
 90
       50
102
RTVSPost2010PropOp47
 70
     0
102
RTVSPost2010Prop48
 90
       50
102
RTVSPost2010PropOp48
 70
     0
102
RTVSPost2010Prop49
280
     0
102
RTVSPost2010PropOp49
 70
     0
102
RTVSPost2010Prop50
 90
       50
102
RTVSPost2010PropOp50
 70
     0
102
RTVSPost2010Prop51ColorIndex
 90
      256
102
RTVSPost2010Prop51ColorRGB
 90
-16777216
102
RTVSPost2010PropOp51
 70
     0
102
RTVSPost2010Prop52
140
1.0
102
RTVSPost2010PropOp52
 70
     0
102
RTVSPost2010Prop53
 90
        2
102
RTVSPost2010PropOp53
 70
     0
102
RTVSPost2010Prop54
  1
strokes_ogs.tif
102
RTVSPost2010PropOp54
 70
     0
102
RTVSPost2010Prop55
280
     0
102
RTVSPost2010PropOp55
 70
     0
102
RTVSPost2010Prop56
140
1.0
102
RTVSPost2010PropOp56
 70
     0
102
RTVSPost2010Prop57
140
1.0
102
RTVSPost2010PropOp57
 70
     0
  0
XRECORD
  5
29A
102
{ACAD_REACTORS
330
299
102
}
330
299
100
AcDbXrecord
280
     1
102
RTVSPropertyOp0
 70
     1
102
RTVSPropertyOp1
 70
     1
102
RTVSPropertyOp2
 70
     1
102
RTVSPropertyOp3
 70
     1
102
RTVSPropertyOp4
 70
     1
102
RTVSPropertyOp5
 70
     1
102
RTVSPropertyOp6
 70
     1
102
RTVSPropertyOp7
 70
     1
102
RTVSPropertyOp8
 70
     1
102
RTVSPropertyOp9
 70
     1
102
RTVSPropertyOp10
 70
     1
102
RTVSPropertyOp11
 70
     1
102
RTVSPropertyOp12
 70
     1
102
RTVSPropertyOp13
 70
     1
102
RTVSPropertyOp14
 70
     1
102
RTVSPropertyOp15
 70
     1
102
RTVSPropertyOp16
 70
     1
102
RTVSPropertyOp17
 70
     1
102
RTVSPropertyOp18
 70
     1
102
RTVSPropertyOp19
 70
     1
102
RTVSPropertyOp20
 70
     1
102
RTVSPropertyOp21
 70
     1
102
RTVSPropertyOp22
 70
     1
102
RTVSPropertyOp23
 70
     1
102
RTVSPropertyOp24
 70
     1
102
RTVSPropertyOp25
 70
     1
102
RTVSPropertyOp26
 70
     1
102
RTVSPropertyOp27
 70
     1
102
RTVSPropertyOp28
 70
     1
102
RTVSPropertyOp29
 70
     1
102
RTVSPropertyOp30
 70
     1
102
RTVSPropertyOp31
 70
     1
102
RTVSPropertyOp32
 70
     1
102
RTVSPropertyOp33
 70
     1
102
RTVSPropertyOp34
 70
     1
102
RTVSPropertyOp35
 70
     1
102
RTVSPropertyOp36
 70
     1
102
RTVSPropertyOp37
 70
     1
102
RTVSPropertyOp38
 70
     1
102
RTVSPropertyOp39
 70
     1
102
RTVSPropertyOp40
 70
     1
102
RTVSPropertyOp41
 70
     1
102
RTVSPropertyOp42
 70
     1
102
RTVSPropertyOp43
 70
     1
102
RTVSPropertyOp44
 70
     1
102
RTVSPropertyOp45
 70
     1
102
RTVSPropertyOp46
 70
     1
102
RTVSPropertyOp47
 70
     1
102
RTVSPropertyOp48
 70
     1
102
RTVSPropertyOp49
 70
     1
102
RTVSPropertyOp50
 70
     1
102
RTVSPropertyOp51
 70
     0
102
RTVSPropertyOp52
 70
     0
102
RTVSPropertyOp53
 70
     1
102
RTVSPropertyOp54
 70
     1
102
RTVSPropertyOp55
 70
     1
102
RTVSPropertyOp56
 70
     1
102
RTVSPropertyOp57
 70
     1
102
RTVSPost2010Prop28
280
     0
102
RTVSPost2010PropOp28
 70
     1
102
RTVSPost2010Prop29
280
     1
102
RTVSPost2010PropOp29
 70
     1
102
RTVSPost2010Prop30
280
     1
102
RTVSPost2010PropOp30
 70
     1
102
RTVSPost2010Prop31
280
     0
102
RTVSPost2010PropOp31
 70
     1
102
RTVSPost2010Prop32
280
     0
102
RTVSPost2010PropOp32
 70
     1
102
RTVSPost2010Prop33
280
     0
102
RTVSPost2010PropOp33
 70
     1
102
RTVSPost2010Prop34
280
     0
102
RTVSPost2010PropOp34
 70
     1
102
RTVSPost2010Prop35
280
     0
102
RTVSPost2010PropOp35
 70
     1
102
RTVSPost2010Prop36
280
     0
102
RTVSPost2010PropOp36
 70
     1
102
RTVSPost2010Prop37
 90
       50
102
RTVSPost2010PropOp37
 70
     1
102
RTVSPost2010Prop38
140
0.0
102
RTVSPost2010PropOp38
 70
     1
102
RTVSPost2010Prop39
140
1.0
102
RTVSPost2010PropOp39
 70
     1
102
RTVSPost2010Prop40
 90
        0
102
RTVSPost2010PropOp40
 70
     1
102
RTVSPost2010Prop41ColorIndex
 90
       18
102
RTVSPost2010Prop41ColorRGB
 90
        0
102
RTVSPost2010PropOp41
 70
     1
102
RTVSPost2010Prop42
 90
       50
102
RTVSPost2010PropOp42
 70
     1
102
RTVSPost2010Prop43
 90
        3
102
RTVSPost2010PropOp43
 70
     1
102
RTVSPost2010Prop44ColorIndex
 90
        5
102
RTVSPost2010Prop44ColorRGB
 90
      255
102
RTVSPost2010PropOp44
 70
     1
102
RTVSPost2010Prop45
280
     0
102
RTVSPost2010PropOp45
 70
     1
102
RTVSPost2010Prop46
 90
       50
102
RTVSPost2010PropOp46
 70
     1
102
RTVSPost2010Prop47
 90
       50
102
RTVSPost2010PropOp47
 70
     1
102
RTVSPost2010Prop48
 90
       50
102
RTVSPost2010PropOp48
 70
     1
102
RTVSPost2010Prop49
280
     0
102
RTVSPost2010PropOp49
 70
     1
102
RTVSPost2010Prop50
 90
       50
102
RTVSPost2010PropOp50
 70
     1
102
RTVSPost2010Prop51ColorIndex
 90
      256
102
RTVSPost2010Prop51ColorRGB
 90
-16777216
102
RTVSPost2010PropOp51
 70
     0
102
RTVSPost2010Prop52
140
1.0
102
RTVSPost2010PropOp52
 70
     0
102
RTVSPost2010Prop53
 90
        2
102
RTVSPost2010PropOp53
 70
     1
102
RTVSPost2010Prop54
  1
strokes_ogs.tif
102
RTVSPost2010PropOp54
 70
     1
102
RTVSPost2010Prop55
280
     0
102
RTVSPost2010PropOp55
 70
     1
102
RTVSPost2010Prop56
140
1.0
102
RTVSPost2010PropOp56
 70
     1
102
RTVSPost2010Prop57
140
1.0
102
RTVSPost2010PropOp57
 70
     1
  0
XRECORD
  5
27E
102
{ACAD_REACTORS
330
27D
102
}
330
27D
100
AcDbXrecord
280
     1
102
RTVSPropertyOp0
 70
     1
102
RTVSPropertyOp1
 70
     1
102
RTVSPropertyOp2
 70
     1
102
RTVSPropertyOp3
 70
     1
102
RTVSPropertyOp4
 70
     1
102
RTVSPropertyOp5
 70
     1
102
RTVSPropertyOp6
 70
     1
102
RTVSPropertyOp7
 70
     1
102
RTVSPropertyOp8
 70
     1
102
RTVSPropertyOp9
 70
     1
102
RTVSPropertyOp10
 70
     1
102
RTVSPropertyOp11
 70
     1
102
RTVSPropertyOp12
 70
     1
102
RTVSPropertyOp13
 70
     1
102
RTVSPropertyOp14
 70
     1
102
RTVSPropertyOp15
 70
     1
102
RTVSPropertyOp16
 70
     1
102
RTVSPropertyOp17
 70
     1
102
RTVSPropertyOp18
 70
     1
102
RTVSPropertyOp19
 70
     1
102
RTVSPropertyOp20
 70
     1
102
RTVSPropertyOp21
 70
     1
102
RTVSPropertyOp22
 70
     1
102
RTVSPropertyOp23
 70
     1
102
RTVSPropertyOp24
 70
     1
102
RTVSPropertyOp25
 70
     1
102
RTVSPropertyOp26
 70
     1
102
RTVSPropertyOp27
 70
     1
102
RTVSPropertyOp28
 70
     1
102
RTVSPropertyOp29
 70
     1
102
RTVSPropertyOp30
 70
     1
102
RTVSPropertyOp31
 70
     1
102
RTVSPropertyOp32
 70
     1
102
RTVSPropertyOp33
 70
     1
102
RTVSPropertyOp34
 70
     1
102
RTVSPropertyOp35
 70
     1
102
RTVSPropertyOp36
 70
     1
102
RTVSPropertyOp37
 70
     1
102
RTVSPropertyOp38
 70
     1
102
RTVSPropertyOp39
 70
     1
102
RTVSPropertyOp40
 70
     1
102
RTVSPropertyOp41
 70
     1
102
RTVSPropertyOp42
 70
     1
102
RTVSPropertyOp43
 70
     1
102
RTVSPropertyOp44
 70
     1
102
RTVSPropertyOp45
 70
     1
102
RTVSPropertyOp46
 70
     1
102
RTVSPropertyOp47
 70
     1
102
RTVSPropertyOp48
 70
     1
102
RTVSPropertyOp49
 70
     1
102
RTVSPropertyOp50
 70
     1
102
RTVSPropertyOp51
 70
     0
102
RTVSPropertyOp52
 70
     0
102
RTVSPropertyOp53
 70
     1
102
RTVSPropertyOp54
 70
     1
102
RTVSPropertyOp55
 70
     1
102
RTVSPropertyOp56
 70
     1
102
RTVSPropertyOp57
 70
     1
102
RTVSPost2010Prop28
280
     0
102
RTVSPost2010PropOp28
 70
     1
102
RTVSPost2010Prop29
280
     1
102
RTVSPost2010PropOp29
 70
     1
102
RTVSPost2010Prop30
280
     1
102
RTVSPost2010PropOp30
 70
     1
102
RTVSPost2010Prop31
280
     0
102
RTVSPost2010PropOp31
 70
     1
102
RTVSPost2010Prop32
280
     0
102
RTVSPost2010PropOp32
 70
     1
102
RTVSPost2010Prop33
280
     0
102
RTVSPost2010PropOp33
 70
     1
102
RTVSPost2010Prop34
280
     0
102
RTVSPost2010PropOp34
 70
     1
102
RTVSPost2010Prop35
280
     0
102
RTVSPost2010PropOp35
 70
     1
102
RTVSPost2010Prop36
280
     0
102
RTVSPost2010PropOp36
 70
     1
102
RTVSPost2010Prop37
 90
       50
102
RTVSPost2010PropOp37
 70
     1
102
RTVSPost2010Prop38
140
0.0
102
RTVSPost2010PropOp38
 70
     1
102
RTVSPost2010Prop39
140
1.0
102
RTVSPost2010PropOp39
 70
     1
102
RTVSPost2010Prop40
 90
        0
102
RTVSPost2010PropOp40
 70
     1
102
RTVSPost2010Prop41ColorIndex
 90
       18
102
RTVSPost2010Prop41ColorRGB
 90
        0
102
RTVSPost2010PropOp41
 70
     1
102
RTVSPost2010Prop42
 90
       50
102
RTVSPost2010PropOp42
 70
     1
102
RTVSPost2010Prop43
 90
        3
102
RTVSPost2010PropOp43
 70
     1
102
RTVSPost2010Prop44ColorIndex
 90
        5
102
RTVSPost2010Prop44ColorRGB
 90
      255
102
RTVSPost2010PropOp44
 70
     1
102
RTVSPost2010Prop45
280
     0
102
RTVSPost2010PropOp45
 70
     1
102
RTVSPost2010Prop46
 90
       50
102
RTVSPost2010PropOp46
 70
     1
102
RTVSPost2010Prop47
 90
       50
102
RTVSPost2010PropOp47
 70
     1
102
RTVSPost2010Prop48
 90
       50
102
RTVSPost2010PropOp48
 70
     1
102
RTVSPost2010Prop49
280
     0
102
RTVSPost2010PropOp49
 70
     1
102
RTVSPost2010Prop50
 90
       50
102
RTVSPost2010PropOp50
 70
     1
102
RTVSPost2010Prop51ColorIndex
 90
      256
102
RTVSPost2010Prop51ColorRGB
 90
-16777216
102
RTVSPost2010PropOp51
 70
     0
102
RTVSPost2010Prop52
140
1.0
102
RTVSPost2010PropOp52
 70
     0
102
RTVSPost2010Prop53
 90
        2
102
RTVSPost2010PropOp53
 70
     1
102
RTVSPost2010Prop54
  1
strokes_ogs.tif
102
RTVSPost2010PropOp54
 70
     1
102
RTVSPost2010Prop55
280
     0
102
RTVSPost2010PropOp55
 70
     1
102
RTVSPost2010Prop56
140
1.0
102
RTVSPost2010PropOp56
 70
     1
102
RTVSPost2010Prop57
140
1.0
102
RTVSPost2010PropOp57
 70
     1
  0
XRECORD
  5
280
102
{ACAD_REACTORS
330
27F
102
}
330
27F
100
AcDbXrecord
280
     1
102
RTVSPropertyOp0
 70
     1
102
RTVSPropertyOp1
 70
     1
102
RTVSPropertyOp2
 70
     1
102
RTVSPropertyOp3
 70
     1
102
RTVSPropertyOp4
 70
     1
102
RTVSPropertyOp5
 70
     1
102
RTVSPropertyOp6
 70
     1
102
RTVSPropertyOp7
 70
     1
102
RTVSPropertyOp8
 70
     1
102
RTVSPropertyOp9
 70
     1
102
RTVSPropertyOp10
 70
     1
102
RTVSPropertyOp11
 70
     1
102
RTVSPropertyOp12
 70
     1
102
RTVSPropertyOp13
 70
     1
102
RTVSPropertyOp14
 70
     1
102
RTVSPropertyOp15
 70
     1
102
RTVSPropertyOp16
 70
     1
102
RTVSPropertyOp17
 70
     1
102
RTVSPropertyOp18
 70
     1
102
RTVSPropertyOp19
 70
     1
102
RTVSPropertyOp20
 70
     1
102
RTVSPropertyOp21
 70
     1
102
RTVSPropertyOp22
 70
     1
102
RTVSPropertyOp23
 70
     1
102
RTVSPropertyOp24
 70
     1
102
RTVSPropertyOp25
 70
     1
102
RTVSPropertyOp26
 70
     1
102
RTVSPropertyOp27
 70
     1
102
RTVSPropertyOp28
 70
     1
102
RTVSPropertyOp29
 70
     1
102
RTVSPropertyOp30
 70
     1
102
RTVSPropertyOp31
 70
     1
102
RTVSPropertyOp32
 70
     1
102
RTVSPropertyOp33
 70
     1
102
RTVSPropertyOp34
 70
     1
102
RTVSPropertyOp35
 70
     1
102
RTVSPropertyOp36
 70
     1
102
RTVSPropertyOp37
 70
     1
102
RTVSPropertyOp38
 70
     1
102
RTVSPropertyOp39
 70
     1
102
RTVSPropertyOp40
 70
     1
102
RTVSPropertyOp41
 70
     1
102
RTVSPropertyOp42
 70
     1
102
RTVSPropertyOp43
 70
     1
102
RTVSPropertyOp44
 70
     1
102
RTVSPropertyOp45
 70
     1
102
RTVSPropertyOp46
 70
     1
102
RTVSPropertyOp47
 70
     1
102
RTVSPropertyOp48
 70
     1
102
RTVSPropertyOp49
 70
     1
102
RTVSPropertyOp50
 70
     1
102
RTVSPropertyOp51
 70
     0
102
RTVSPropertyOp52
 70
     0
102
RTVSPropertyOp53
 70
     1
102
RTVSPropertyOp54
 70
     1
102
RTVSPropertyOp55
 70
     1
102
RTVSPropertyOp56
 70
     1
102
RTVSPropertyOp57
 70
     1
102
RTVSPost2010Prop28
280
     0
102
RTVSPost2010PropOp28
 70
     1
102
RTVSPost2010Prop29
280
     1
102
RTVSPost2010PropOp29
 70
     1
102
RTVSPost2010Prop30
280
     1
102
RTVSPost2010PropOp30
 70
     1
102
RTVSPost2010Prop31
280
     0
102
RTVSPost2010PropOp31
 70
     1
102
RTVSPost2010Prop32
280
     0
102
RTVSPost2010PropOp32
 70
     1
102
RTVSPost2010Prop33
280
     0
102
RTVSPost2010PropOp33
 70
     1
102
RTVSPost2010Prop34
280
     0
102
RTVSPost2010PropOp34
 70
     1
102
RTVSPost2010Prop35
280
     0
102
RTVSPost2010PropOp35
 70
     1
102
RTVSPost2010Prop36
280
     0
102
RTVSPost2010PropOp36
 70
     1
102
RTVSPost2010Prop37
 90
       50
102
RTVSPost2010PropOp37
 70
     1
102
RTVSPost2010Prop38
140
0.0
102
RTVSPost2010PropOp38
 70
     1
102
RTVSPost2010Prop39
140
1.0
102
RTVSPost2010PropOp39
 70
     1
102
RTVSPost2010Prop40
 90
        0
102
RTVSPost2010PropOp40
 70
     1
102
RTVSPost2010Prop41ColorIndex
 90
       18
102
RTVSPost2010Prop41ColorRGB
 90
        0
102
RTVSPost2010PropOp41
 70
     1
102
RTVSPost2010Prop42
 90
       50
102
RTVSPost2010PropOp42
 70
     1
102
RTVSPost2010Prop43
 90
        3
102
RTVSPost2010PropOp43
 70
     1
102
RTVSPost2010Prop44ColorIndex
 90
        5
102
RTVSPost2010Prop44ColorRGB
 90
      255
102
RTVSPost2010PropOp44
 70
     1
102
RTVSPost2010Prop45
280
     0
102
RTVSPost2010PropOp45
 70
     1
102
RTVSPost2010Prop46
 90
       50
102
RTVSPost2010PropOp46
 70
     1
102
RTVSPost2010Prop47
 90
       50
102
RTVSPost2010PropOp47
 70
     1
102
RTVSPost2010Prop48
 90
       50
102
RTVSPost2010PropOp48
 70
     1
102
RTVSPost2010Prop49
280
     0
102
RTVSPost2010PropOp49
 70
     1
102
RTVSPost2010Prop50
 90
       50
102
RTVSPost2010PropOp50
 70
     1
102
RTVSPost2010Prop51ColorIndex
 90
      256
102
RTVSPost2010Prop51ColorRGB
 90
-16777216
102
RTVSPost2010PropOp51
 70
     0
102
RTVSPost2010Prop52
140
1.0
102
RTVSPost2010PropOp52
 70
     0
102
RTVSPost2010Prop53
 90
        2
102
RTVSPost2010PropOp53
 70
     1
102
RTVSPost2010Prop54
  1
strokes_ogs.tif
102
RTVSPost2010PropOp54
 70
     1
102
RTVSPost2010Prop55
280
     0
102
RTVSPost2010PropOp55
 70
     1
102
RTVSPost2010Prop56
140
1.0
102
RTVSPost2010PropOp56
 70
     1
102
RTVSPost2010Prop57
140
1.0
102
RTVSPost2010PropOp57
 70
     1
  0
XRECORD
  5
282
102
{ACAD_REACTORS
330
281
102
}
330
281
100
AcDbXrecord
280
     1
102
RTVSPropertyOp0
 70
     1
102
RTVSPropertyOp1
 70
     1
102
RTVSPropertyOp2
 70
     1
102
RTVSPropertyOp3
 70
     1
102
RTVSPropertyOp4
 70
     1
102
RTVSPropertyOp5
 70
     1
102
RTVSPropertyOp6
 70
     1
102
RTVSPropertyOp7
 70
     1
102
RTVSPropertyOp8
 70
     1
102
RTVSPropertyOp9
 70
     1
102
RTVSPropertyOp10
 70
     1
102
RTVSPropertyOp11
 70
     1
102
RTVSPropertyOp12
 70
     1
102
RTVSPropertyOp13
 70
     1
102
RTVSPropertyOp14
 70
     1
102
RTVSPropertyOp15
 70
     1
102
RTVSPropertyOp16
 70
     1
102
RTVSPropertyOp17
 70
     1
102
RTVSPropertyOp18
 70
     1
102
RTVSPropertyOp19
 70
     1
102
RTVSPropertyOp20
 70
     1
102
RTVSPropertyOp21
 70
     1
102
RTVSPropertyOp22
 70
     1
102
RTVSPropertyOp23
 70
     1
102
RTVSPropertyOp24
 70
     1
102
RTVSPropertyOp25
 70
     1
102
RTVSPropertyOp26
 70
     1
102
RTVSPropertyOp27
 70
     1
102
RTVSPropertyOp28
 70
     1
102
RTVSPropertyOp29
 70
     1
102
RTVSPropertyOp30
 70
     1
102
RTVSPropertyOp31
 70
     1
102
RTVSPropertyOp32
 70
     1
102
RTVSPropertyOp33
 70
     1
102
RTVSPropertyOp34
 70
     1
102
RTVSPropertyOp35
 70
     1
102
RTVSPropertyOp36
 70
     1
102
RTVSPropertyOp37
 70
     1
102
RTVSPropertyOp38
 70
     1
102
RTVSPropertyOp39
 70
     1
102
RTVSPropertyOp40
 70
     1
102
RTVSPropertyOp41
 70
     1
102
RTVSPropertyOp42
 70
     1
102
RTVSPropertyOp43
 70
     1
102
RTVSPropertyOp44
 70
     1
102
RTVSPropertyOp45
 70
     1
102
RTVSPropertyOp46
 70
     1
102
RTVSPropertyOp47
 70
     1
102
RTVSPropertyOp48
 70
     1
102
RTVSPropertyOp49
 70
     1
102
RTVSPropertyOp50
 70
     1
102
RTVSPropertyOp51
 70
     0
102
RTVSPropertyOp52
 70
     0
102
RTVSPropertyOp53
 70
     1
102
RTVSPropertyOp54
 70
     1
102
RTVSPropertyOp55
 70
     1
102
RTVSPropertyOp56
 70
     1
102
RTVSPropertyOp57
 70
     1
102
RTVSPost2010Prop28
280
     0
102
RTVSPost2010PropOp28
 70
     1
102
RTVSPost2010Prop29
280
     1
102
RTVSPost2010PropOp29
 70
     1
102
RTVSPost2010Prop30
280
     1
102
RTVSPost2010PropOp30
 70
     1
102
RTVSPost2010Prop31
280
     0
102
RTVSPost2010PropOp31
 70
     1
102
RTVSPost2010Prop32
280
     0
102
RTVSPost2010PropOp32
 70
     1
102
RTVSPost2010Prop33
280
     0
102
RTVSPost2010PropOp33
 70
     1
102
RTVSPost2010Prop34
280
     0
102
RTVSPost2010PropOp34
 70
     1
102
RTVSPost2010Prop35
280
     0
102
RTVSPost2010PropOp35
 70
     1
102
RTVSPost2010Prop36
280
     0
102
RTVSPost2010PropOp36
 70
     1
102
RTVSPost2010Prop37
 90
       50
102
RTVSPost2010PropOp37
 70
     1
102
RTVSPost2010Prop38
140
0.0
102
RTVSPost2010PropOp38
 70
     1
102
RTVSPost2010Prop39
140
1.0
102
RTVSPost2010PropOp39
 70
     1
102
RTVSPost2010Prop40
 90
        0
102
RTVSPost2010PropOp40
 70
     1
102
RTVSPost2010Prop41ColorIndex
 90
       18
102
RTVSPost2010Prop41ColorRGB
 90
        0
102
RTVSPost2010PropOp41
 70
     1
102
RTVSPost2010Prop42
 90
       50
102
RTVSPost2010PropOp42
 70
     1
102
RTVSPost2010Prop43
 90
        3
102
RTVSPost2010PropOp43
 70
     1
102
RTVSPost2010Prop44ColorIndex
 90
        5
102
RTVSPost2010Prop44ColorRGB
 90
      255
102
RTVSPost2010PropOp44
 70
     1
102
RTVSPost2010Prop45
280
     0
102
RTVSPost2010PropOp45
 70
     1
102
RTVSPost2010Prop46
 90
       50
102
RTVSPost2010PropOp46
 70
     1
102
RTVSPost2010Prop47
 90
       50
102
RTVSPost2010PropOp47
 70
     1
102
RTVSPost2010Prop48
 90
       50
102
RTVSPost2010PropOp48
 70
     1
102
RTVSPost2010Prop49
280
     0
102
RTVSPost2010PropOp49
 70
     1
102
RTVSPost2010Prop50
 90
       50
102
RTVSPost2010PropOp50
 70
     1
102
RTVSPost2010Prop51ColorIndex
 90
      256
102
RTVSPost2010Prop51ColorRGB
 90
-16777216
102
RTVSPost2010PropOp51
 70
     0
102
RTVSPost2010Prop52
140
1.0
102
RTVSPost2010PropOp52
 70
     0
102
RTVSPost2010Prop53
 90
        2
102
RTVSPost2010PropOp53
 70
     1
102
RTVSPost2010Prop54
  1
strokes_ogs.tif
102
RTVSPost2010PropOp54
 70
     1
102
RTVSPost2010Prop55
280
     0
102
RTVSPost2010PropOp55
 70
     1
102
RTVSPost2010Prop56
140
1.0
102
RTVSPost2010PropOp56
 70
     1
102
RTVSPost2010Prop57
140
1.0
102
RTVSPost2010PropOp57
 70
     1
  0
XRECORD
  5
284
102
{ACAD_REACTORS
330
283
102
}
330
283
100
AcDbXrecord
280
     1
102
RTVSPropertyOp0
 70
     1
102
RTVSPropertyOp1
 70
     1
102
RTVSPropertyOp2
 70
     1
102
RTVSPropertyOp3
 70
     1
102
RTVSPropertyOp4
 70
     1
102
RTVSPropertyOp5
 70
     1
102
RTVSPropertyOp6
 70
     1
102
RTVSPropertyOp7
 70
     1
102
RTVSPropertyOp8
 70
     1
102
RTVSPropertyOp9
 70
     1
102
RTVSPropertyOp10
 70
     1
102
RTVSPropertyOp11
 70
     1
102
RTVSPropertyOp12
 70
     1
102
RTVSPropertyOp13
 70
     1
102
RTVSPropertyOp14
 70
     1
102
RTVSPropertyOp15
 70
     1
102
RTVSPropertyOp16
 70
     1
102
RTVSPropertyOp17
 70
     1
102
RTVSPropertyOp18
 70
     1
102
RTVSPropertyOp19
 70
     1
102
RTVSPropertyOp20
 70
     1
102
RTVSPropertyOp21
 70
     1
102
RTVSPropertyOp22
 70
     1
102
RTVSPropertyOp23
 70
     1
102
RTVSPropertyOp24
 70
     1
102
RTVSPropertyOp25
 70
     1
102
RTVSPropertyOp26
 70
     1
102
RTVSPropertyOp27
 70
     1
102
RTVSPropertyOp28
 70
     1
102
RTVSPropertyOp29
 70
     1
102
RTVSPropertyOp30
 70
     1
102
RTVSPropertyOp31
 70
     1
102
RTVSPropertyOp32
 70
     1
102
RTVSPropertyOp33
 70
     1
102
RTVSPropertyOp34
 70
     1
102
RTVSPropertyOp35
 70
     1
102
RTVSPropertyOp36
 70
     1
102
RTVSPropertyOp37
 70
     1
102
RTVSPropertyOp38
 70
     1
102
RTVSPropertyOp39
 70
     1
102
RTVSPropertyOp40
 70
     1
102
RTVSPropertyOp41
 70
     1
102
RTVSPropertyOp42
 70
     1
102
RTVSPropertyOp43
 70
     1
102
RTVSPropertyOp44
 70
     1
102
RTVSPropertyOp45
 70
     1
102
RTVSPropertyOp46
 70
     1
102
RTVSPropertyOp47
 70
     1
102
RTVSPropertyOp48
 70
     1
102
RTVSPropertyOp49
 70
     1
102
RTVSPropertyOp50
 70
     1
102
RTVSPropertyOp51
 70
     0
102
RTVSPropertyOp52
 70
     0
102
RTVSPropertyOp53
 70
     1
102
RTVSPropertyOp54
 70
     1
102
RTVSPropertyOp55
 70
     1
102
RTVSPropertyOp56
 70
     1
102
RTVSPropertyOp57
 70
     1
102
RTVSPost2010Prop28
280
     0
102
RTVSPost2010PropOp28
 70
     1
102
RTVSPost2010Prop29
280
     1
102
RTVSPost2010PropOp29
 70
     1
102
RTVSPost2010Prop30
280
     1
102
RTVSPost2010PropOp30
 70
     1
102
RTVSPost2010Prop31
280
     0
102
RTVSPost2010PropOp31
 70
     1
102
RTVSPost2010Prop32
280
     0
102
RTVSPost2010PropOp32
 70
     1
102
RTVSPost2010Prop33
280
     0
102
RTVSPost2010PropOp33
 70
     1
102
RTVSPost2010Prop34
280
     0
102
RTVSPost2010PropOp34
 70
     1
102
RTVSPost2010Prop35
280
     0
102
RTVSPost2010PropOp35
 70
     1
102
RTVSPost2010Prop36
280
     0
102
RTVSPost2010PropOp36
 70
     1
102
RTVSPost2010Prop37
 90
       50
102
RTVSPost2010PropOp37
 70
     1
102
RTVSPost2010Prop38
140
0.0
102
RTVSPost2010PropOp38
 70
     1
102
RTVSPost2010Prop39
140
1.0
102
RTVSPost2010PropOp39
 70
     1
102
RTVSPost2010Prop40
 90
        0
102
RTVSPost2010PropOp40
 70
     1
102
RTVSPost2010Prop41ColorIndex
 90
       18
102
RTVSPost2010Prop41ColorRGB
 90
        0
102
RTVSPost2010PropOp41
 70
     1
102
RTVSPost2010Prop42
 90
       50
102
RTVSPost2010PropOp42
 70
     1
102
RTVSPost2010Prop43
 90
        3
102
RTVSPost2010PropOp43
 70
     1
102
RTVSPost2010Prop44ColorIndex
 90
        5
102
RTVSPost2010Prop44ColorRGB
 90
      255
102
RTVSPost2010PropOp44
 70
     1
102
RTVSPost2010Prop45
280
     0
102
RTVSPost2010PropOp45
 70
     1
102
RTVSPost2010Prop46
 90
       50
102
RTVSPost2010PropOp46
 70
     1
102
RTVSPost2010Prop47
 90
       50
102
RTVSPost2010PropOp47
 70
     1
102
RTVSPost2010Prop48
 90
       50
102
RTVSPost2010PropOp48
 70
     1
102
RTVSPost2010Prop49
280
     0
102
RTVSPost2010PropOp49
 70
     1
102
RTVSPost2010Prop50
 90
       50
102
RTVSPost2010PropOp50
 70
     1
102
RTVSPost2010Prop51ColorIndex
 90
      256
102
RTVSPost2010Prop51ColorRGB
 90
-16777216
102
RTVSPost2010PropOp51
 70
     0
102
RTVSPost2010Prop52
140
1.0
102
RTVSPost2010PropOp52
 70
     0
102
RTVSPost2010Prop53
 90
        2
102
RTVSPost2010PropOp53
 70
     1
102
RTVSPost2010Prop54
  1
strokes_ogs.tif
102
RTVSPost2010PropOp54
 70
     1
102
RTVSPost2010Prop55
280
     0
102
RTVSPost2010PropOp55
 70
     1
102
RTVSPost2010Prop56
140
1.0
102
RTVSPost2010PropOp56
 70
     1
102
RTVSPost2010Prop57
140
1.0
102
RTVSPost2010PropOp57
 70
     1
  0
XRECORD
  5
28A
102
{ACAD_REACTORS
330
289
102
}
330
289
100
AcDbXrecord
280
     1
102
RTVSPropertyOp0
 70
     1
102
RTVSPropertyOp1
 70
     1
102
RTVSPropertyOp2
 70
     1
102
RTVSPropertyOp3
 70
     1
102
RTVSPropertyOp4
 70
     1
102
RTVSPropertyOp5
 70
     1
102
RTVSPropertyOp6
 70
     1
102
RTVSPropertyOp7
 70
     1
102
RTVSPropertyOp8
 70
     1
102
RTVSPropertyOp9
 70
     1
102
RTVSPropertyOp10
 70
     1
102
RTVSPropertyOp11
 70
     1
102
RTVSPropertyOp12
 70
     1
102
RTVSPropertyOp13
 70
     1
102
RTVSPropertyOp14
 70
     1
102
RTVSPropertyOp15
 70
     1
102
RTVSPropertyOp16
 70
     1
102
RTVSPropertyOp17
 70
     1
102
RTVSPropertyOp18
 70
     1
102
RTVSPropertyOp19
 70
     1
102
RTVSPropertyOp20
 70
     1
102
RTVSPropertyOp21
 70
     1
102
RTVSPropertyOp22
 70
     1
102
RTVSPropertyOp23
 70
     1
102
RTVSPropertyOp24
 70
     1
102
RTVSPropertyOp25
 70
     1
102
RTVSPropertyOp26
 70
     1
102
RTVSPropertyOp27
 70
     1
102
RTVSPropertyOp28
 70
     1
102
RTVSPropertyOp29
 70
     1
102
RTVSPropertyOp30
 70
     1
102
RTVSPropertyOp31
 70
     1
102
RTVSPropertyOp32
 70
     1
102
RTVSPropertyOp33
 70
     1
102
RTVSPropertyOp34
 70
     1
102
RTVSPropertyOp35
 70
     1
102
RTVSPropertyOp36
 70
     1
102
RTVSPropertyOp37
 70
     1
102
RTVSPropertyOp38
 70
     1
102
RTVSPropertyOp39
 70
     1
102
RTVSPropertyOp40
 70
     1
102
RTVSPropertyOp41
 70
     1
102
RTVSPropertyOp42
 70
     1
102
RTVSPropertyOp43
 70
     1
102
RTVSPropertyOp44
 70
     1
102
RTVSPropertyOp45
 70
     1
102
RTVSPropertyOp46
 70
     1
102
RTVSPropertyOp47
 70
     1
102
RTVSPropertyOp48
 70
     1
102
RTVSPropertyOp49
 70
     1
102
RTVSPropertyOp50
 70
     1
102
RTVSPropertyOp51
 70
     0
102
RTVSPropertyOp52
 70
     0
102
RTVSPropertyOp53
 70
     1
102
RTVSPropertyOp54
 70
     1
102
RTVSPropertyOp55
 70
     1
102
RTVSPropertyOp56
 70
     1
102
RTVSPropertyOp57
 70
     1
102
RTVSPost2010Prop28
280
     0
102
RTVSPost2010PropOp28
 70
     1
102
RTVSPost2010Prop29
280
     1
102
RTVSPost2010PropOp29
 70
     1
102
RTVSPost2010Prop30
280
     1
102
RTVSPost2010PropOp30
 70
     1
102
RTVSPost2010Prop31
280
     0
102
RTVSPost2010PropOp31
 70
     1
102
RTVSPost2010Prop32
280
     0
102
RTVSPost2010PropOp32
 70
     1
102
RTVSPost2010Prop33
280
     0
102
RTVSPost2010PropOp33
 70
     1
102
RTVSPost2010Prop34
280
     0
102
RTVSPost2010PropOp34
 70
     1
102
RTVSPost2010Prop35
280
     0
102
RTVSPost2010PropOp35
 70
     1
102
RTVSPost2010Prop36
280
     0
102
RTVSPost2010PropOp36
 70
     1
102
RTVSPost2010Prop37
 90
       50
102
RTVSPost2010PropOp37
 70
     1
102
RTVSPost2010Prop38
140
0.0
102
RTVSPost2010PropOp38
 70
     1
102
RTVSPost2010Prop39
140
1.0
102
RTVSPost2010PropOp39
 70
     1
102
RTVSPost2010Prop40
 90
        0
102
RTVSPost2010PropOp40
 70
     1
102
RTVSPost2010Prop41ColorIndex
 90
       18
102
RTVSPost2010Prop41ColorRGB
 90
        0
102
RTVSPost2010PropOp41
 70
     1
102
RTVSPost2010Prop42
 90
       50
102
RTVSPost2010PropOp42
 70
     1
102
RTVSPost2010Prop43
 90
        3
102
RTVSPost2010PropOp43
 70
     1
102
RTVSPost2010Prop44ColorIndex
 90
        5
102
RTVSPost2010Prop44ColorRGB
 90
      255
102
RTVSPost2010PropOp44
 70
     1
102
RTVSPost2010Prop45
280
     0
102
RTVSPost2010PropOp45
 70
     1
102
RTVSPost2010Prop46
 90
       50
102
RTVSPost2010PropOp46
 70
     1
102
RTVSPost2010Prop47
 90
       50
102
RTVSPost2010PropOp47
 70
     1
102
RTVSPost2010Prop48
 90
       50
102
RTVSPost2010PropOp48
 70
     1
102
RTVSPost2010Prop49
280
     0
102
RTVSPost2010PropOp49
 70
     1
102
RTVSPost2010Prop50
 90
       50
102
RTVSPost2010PropOp50
 70
     1
102
RTVSPost2010Prop51ColorIndex
 90
      256
102
RTVSPost2010Prop51ColorRGB
 90
-16777216
102
RTVSPost2010PropOp51
 70
     0
102
RTVSPost2010Prop52
140
1.0
102
RTVSPost2010PropOp52
 70
     0
102
RTVSPost2010Prop53
 90
        2
102
RTVSPost2010PropOp53
 70
     1
102
RTVSPost2010Prop54
  1
strokes_ogs.tif
102
RTVSPost2010PropOp54
 70
     1
102
RTVSPost2010Prop55
280
     0
102
RTVSPost2010PropOp55
 70
     1
102
RTVSPost2010Prop56
140
1.0
102
RTVSPost2010PropOp56
 70
     1
102
RTVSPost2010Prop57
140
1.0
102
RTVSPost2010PropOp57
 70
     1
  0
XRECORD
  5
29E
102
{ACAD_REACTORS
330
29D
102
}
330
29D
100
AcDbXrecord
280
     1
102
RTVSPropertyOp0
 70
     0
102
RTVSPropertyOp1
 70
     0
102
RTVSPropertyOp2
 70
     0
102
RTVSPropertyOp3
 70
     0
102
RTVSPropertyOp4
 70
     0
102
RTVSPropertyOp5
 70
     0
102
RTVSPropertyOp6
 70
     0
102
RTVSPropertyOp7
 70
     0
102
RTVSPropertyOp8
 70
     0
102
RTVSPropertyOp9
 70
     0
102
RTVSPropertyOp10
 70
     0
102
RTVSPropertyOp11
 70
     0
102
RTVSPropertyOp12
 70
     0
102
RTVSPropertyOp13
 70
     0
102
RTVSPropertyOp14
 70
     2
102
RTVSPropertyOp15
 70
     0
102
RTVSPropertyOp16
 70
     0
102
RTVSPropertyOp17
 70
     0
102
RTVSPropertyOp18
 70
     0
102
RTVSPropertyOp19
 70
     0
102
RTVSPropertyOp20
 70
     0
102
RTVSPropertyOp21
 70
     0
102
RTVSPropertyOp22
 70
     0
102
RTVSPropertyOp23
 70
     0
102
RTVSPropertyOp24
 70
     0
102
RTVSPropertyOp25
 70
     0
102
RTVSPropertyOp26
 70
     0
102
RTVSPropertyOp27
 70
     0
102
RTVSPropertyOp28
 70
     0
102
RTVSPropertyOp29
 70
     0
102
RTVSPropertyOp30
 70
     0
102
RTVSPropertyOp31
 70
     0
102
RTVSPropertyOp32
 70
     0
102
RTVSPropertyOp33
 70
     0
102
RTVSPropertyOp34
 70
     0
102
RTVSPropertyOp35
 70
     0
102
RTVSPropertyOp36
 70
     0
102
RTVSPropertyOp37
 70
     0
102
RTVSPropertyOp38
 70
     0
102
RTVSPropertyOp39
 70
     0
102
RTVSPropertyOp40
 70
     0
102
RTVSPropertyOp41
 70
     0
102
RTVSPropertyOp42
 70
     0
102
RTVSPropertyOp43
 70
     0
102
RTVSPropertyOp44
 70
     0
102
RTVSPropertyOp45
 70
     0
102
RTVSPropertyOp46
 70
     0
102
RTVSPropertyOp47
 70
     0
102
RTVSPropertyOp48
 70
     0
102
RTVSPropertyOp49
 70
     0
102
RTVSPropertyOp50
 70
     0
102
RTVSPropertyOp51
 70
     0
102
RTVSPropertyOp52
 70
     0
102
RTVSPropertyOp53
 70
     0
102
RTVSPropertyOp54
 70
     0
102
RTVSPropertyOp55
 70
     0
102
RTVSPropertyOp56
 70
     0
102
RTVSPropertyOp57
 70
     0
102
RTVSPost2010Prop28
280
     0
102
RTVSPost2010PropOp28
 70
     0
102
RTVSPost2010Prop29
280
     1
102
RTVSPost2010PropOp29
 70
     0
102
RTVSPost2010Prop30
280
     1
102
RTVSPost2010PropOp30
 70
     0
102
RTVSPost2010Prop31
280
     0
102
RTVSPost2010PropOp31
 70
     0
102
RTVSPost2010Prop32
280
     0
102
RTVSPost2010PropOp32
 70
     0
102
RTVSPost2010Prop33
280
     0
102
RTVSPost2010PropOp33
 70
     0
102
RTVSPost2010Prop34
280
     0
102
RTVSPost2010PropOp34
 70
     0
102
RTVSPost2010Prop35
280
     0
102
RTVSPost2010PropOp35
 70
     0
102
RTVSPost2010Prop36
280
     0
102
RTVSPost2010PropOp36
 70
     0
102
RTVSPost2010Prop37
 90
       50
102
RTVSPost2010PropOp37
 70
     0
102
RTVSPost2010Prop38
140
0.0
102
RTVSPost2010PropOp38
 70
     0
102
RTVSPost2010Prop39
140
1.0
102
RTVSPost2010PropOp39
 70
     0
102
RTVSPost2010Prop40
 90
        0
102
RTVSPost2010PropOp40
 70
     0
102
RTVSPost2010Prop41ColorIndex
 90
       18
102
RTVSPost2010Prop41ColorRGB
 90
        0
102
RTVSPost2010PropOp41
 70
     0
102
RTVSPost2010Prop42
 90
       50
102
RTVSPost2010PropOp42
 70
     0
102
RTVSPost2010Prop43
 90
        3
102
RTVSPost2010PropOp43
 70
     0
102
RTVSPost2010Prop44ColorIndex
 90
        5
102
RTVSPost2010Prop44ColorRGB
 90
      255
102
RTVSPost2010PropOp44
 70
     0
102
RTVSPost2010Prop45
280
     0
102
RTVSPost2010PropOp45
 70
     0
102
RTVSPost2010Prop46
 90
       50
102
RTVSPost2010PropOp46
 70
     0
102
RTVSPost2010Prop47
 90
       50
102
RTVSPost2010PropOp47
 70
     0
102
RTVSPost2010Prop48
 90
       50
102
RTVSPost2010PropOp48
 70
     0
102
RTVSPost2010Prop49
280
     0
102
RTVSPost2010PropOp49
 70
     0
102
RTVSPost2010Prop50
 90
       50
102
RTVSPost2010PropOp50
 70
     0
102
RTVSPost2010Prop51ColorIndex
 90
      256
102
RTVSPost2010Prop51ColorRGB
 90
-16777216
102
RTVSPost2010PropOp51
 70
     0
102
RTVSPost2010Prop52
140
1.0
102
RTVSPost2010PropOp52
 70
     0
102
RTVSPost2010Prop53
 90
        2
102
RTVSPost2010PropOp53
 70
     0
102
RTVSPost2010Prop54
  1
strokes_ogs.tif
102
RTVSPost2010PropOp54
 70
     0
102
RTVSPost2010Prop55
280
     0
102
RTVSPost2010PropOp55
 70
     0
102
RTVSPost2010Prop56
140
1.0
102
RTVSPost2010PropOp56
 70
     0
102
RTVSPost2010Prop57
140
1.0
102
RTVSPost2010PropOp57
 70
     0
  0
XRECORD
  5
298
102
{ACAD_REACTORS
330
297
102
}
330
297
100
AcDbXrecord
280
     1
102
RTVSPropertyOp0
 70
     1
102
RTVSPropertyOp1
 70
     1
102
RTVSPropertyOp2
 70
     1
102
RTVSPropertyOp3
 70
     1
102
RTVSPropertyOp4
 70
     1
102
RTVSPropertyOp5
 70
     1
102
RTVSPropertyOp6
 70
     1
102
RTVSPropertyOp7
 70
     1
102
RTVSPropertyOp8
 70
     1
102
RTVSPropertyOp9
 70
     1
102
RTVSPropertyOp10
 70
     1
102
RTVSPropertyOp11
 70
     1
102
RTVSPropertyOp12
 70
     1
102
RTVSPropertyOp13
 70
     1
102
RTVSPropertyOp14
 70
     1
102
RTVSPropertyOp15
 70
     1
102
RTVSPropertyOp16
 70
     1
102
RTVSPropertyOp17
 70
     1
102
RTVSPropertyOp18
 70
     1
102
RTVSPropertyOp19
 70
     1
102
RTVSPropertyOp20
 70
     1
102
RTVSPropertyOp21
 70
     1
102
RTVSPropertyOp22
 70
     1
102
RTVSPropertyOp23
 70
     1
102
RTVSPropertyOp24
 70
     1
102
RTVSPropertyOp25
 70
     1
102
RTVSPropertyOp26
 70
     1
102
RTVSPropertyOp27
 70
     1
102
RTVSPropertyOp28
 70
     1
102
RTVSPropertyOp29
 70
     1
102
RTVSPropertyOp30
 70
     1
102
RTVSPropertyOp31
 70
     1
102
RTVSPropertyOp32
 70
     1
102
RTVSPropertyOp33
 70
     1
102
RTVSPropertyOp34
 70
     1
102
RTVSPropertyOp35
 70
     1
102
RTVSPropertyOp36
 70
     1
102
RTVSPropertyOp37
 70
     1
102
RTVSPropertyOp38
 70
     1
102
RTVSPropertyOp39
 70
     1
102
RTVSPropertyOp40
 70
     1
102
RTVSPropertyOp41
 70
     1
102
RTVSPropertyOp42
 70
     1
102
RTVSPropertyOp43
 70
     1
102
RTVSPropertyOp44
 70
     1
102
RTVSPropertyOp45
 70
     1
102
RTVSPropertyOp46
 70
     1
102
RTVSPropertyOp47
 70
     1
102
RTVSPropertyOp48
 70
     1
102
RTVSPropertyOp49
 70
     1
102
RTVSPropertyOp50
 70
     1
102
RTVSPropertyOp51
 70
     0
102
RTVSPropertyOp52
 70
     0
102
RTVSPropertyOp53
 70
     1
102
RTVSPropertyOp54
 70
     1
102
RTVSPropertyOp55
 70
     1
102
RTVSPropertyOp56
 70
     1
102
RTVSPropertyOp57
 70
     1
102
RTVSPost2010Prop28
280
     0
102
RTVSPost2010PropOp28
 70
     1
102
RTVSPost2010Prop29
280
     1
102
RTVSPost2010PropOp29
 70
     1
102
RTVSPost2010Prop30
280
     1
102
RTVSPost2010PropOp30
 70
     1
102
RTVSPost2010Prop31
280
     0
102
RTVSPost2010PropOp31
 70
     1
102
RTVSPost2010Prop32
280
     0
102
RTVSPost2010PropOp32
 70
     1
102
RTVSPost2010Prop33
280
     0
102
RTVSPost2010PropOp33
 70
     1
102
RTVSPost2010Prop34
280
     0
102
RTVSPost2010PropOp34
 70
     1
102
RTVSPost2010Prop35
280
     0
102
RTVSPost2010PropOp35
 70
     1
102
RTVSPost2010Prop36
280
     0
102
RTVSPost2010PropOp36
 70
     1
102
RTVSPost2010Prop37
 90
       50
102
RTVSPost2010PropOp37
 70
     1
102
RTVSPost2010Prop38
140
0.0
102
RTVSPost2010PropOp38
 70
     1
102
RTVSPost2010Prop39
140
1.0
102
RTVSPost2010PropOp39
 70
     1
102
RTVSPost2010Prop40
 90
        0
102
RTVSPost2010PropOp40
 70
     1
102
RTVSPost2010Prop41ColorIndex
 90
       18
102
RTVSPost2010Prop41ColorRGB
 90
        0
102
RTVSPost2010PropOp41
 70
     1
102
RTVSPost2010Prop42
 90
       50
102
RTVSPost2010PropOp42
 70
     1
102
RTVSPost2010Prop43
 90
        3
102
RTVSPost2010PropOp43
 70
     1
102
RTVSPost2010Prop44ColorIndex
 90
        5
102
RTVSPost2010Prop44ColorRGB
 90
      255
102
RTVSPost2010PropOp44
 70
     1
102
RTVSPost2010Prop45
280
     0
102
RTVSPost2010PropOp45
 70
     1
102
RTVSPost2010Prop46
 90
       50
102
RTVSPost2010PropOp46
 70
     1
102
RTVSPost2010Prop47
 90
       50
102
RTVSPost2010PropOp47
 70
     1
102
RTVSPost2010Prop48
 90
       50
102
RTVSPost2010PropOp48
 70
     1
102
RTVSPost2010Prop49
280
     0
102
RTVSPost2010PropOp49
 70
     1
102
RTVSPost2010Prop50
 90
       50
102
RTVSPost2010PropOp50
 70
     1
102
RTVSPost2010Prop51ColorIndex
 90
      256
102
RTVSPost2010Prop51ColorRGB
 90
-16777216
102
RTVSPost2010PropOp51
 70
     0
102
RTVSPost2010Prop52
140
1.0
102
RTVSPost2010PropOp52
 70
     0
102
RTVSPost2010Prop53
 90
        2
102
RTVSPost2010PropOp53
 70
     1
102
RTVSPost2010Prop54
  1
strokes_ogs.tif
102
RTVSPost2010PropOp54
 70
     1
102
RTVSPost2010Prop55
280
     0
102
RTVSPost2010PropOp55
 70
     1
102
RTVSPost2010Prop56
140
1.0
102
RTVSPost2010PropOp56
 70
     1
102
RTVSPost2010Prop57
140
1.0
102
RTVSPost2010PropOp57
 70
     1
  0
XRECORD
  5
2A0
102
{ACAD_REACTORS
330
29F
102
}
330
29F
100
AcDbXrecord
280
     1
102
RTVSPropertyOp0
 70
     0
102
RTVSPropertyOp1
 70
     0
102
RTVSPropertyOp2
 70
     0
102
RTVSPropertyOp3
 70
     0
102
RTVSPropertyOp4
 70
     0
102
RTVSPropertyOp5
 70
     0
102
RTVSPropertyOp6
 70
     0
102
RTVSPropertyOp7
 70
     0
102
RTVSPropertyOp8
 70
     0
102
RTVSPropertyOp9
 70
     0
102
RTVSPropertyOp10
 70
     0
102
RTVSPropertyOp11
 70
     0
102
RTVSPropertyOp12
 70
     0
102
RTVSPropertyOp13
 70
     0
102
RTVSPropertyOp14
 70
     2
102
RTVSPropertyOp15
 70
     0
102
RTVSPropertyOp16
 70
     0
102
RTVSPropertyOp17
 70
     0
102
RTVSPropertyOp18
 70
     0
102
RTVSPropertyOp19
 70
     0
102
RTVSPropertyOp20
 70
     0
102
RTVSPropertyOp21
 70
     0
102
RTVSPropertyOp22
 70
     0
102
RTVSPropertyOp23
 70
     0
102
RTVSPropertyOp24
 70
     0
102
RTVSPropertyOp25
 70
     0
102
RTVSPropertyOp26
 70
     0
102
RTVSPropertyOp27
 70
     0
102
RTVSPropertyOp28
 70
     0
102
RTVSPropertyOp29
 70
     0
102
RTVSPropertyOp30
 70
     0
102
RTVSPropertyOp31
 70
     0
102
RTVSPropertyOp32
 70
     0
102
RTVSPropertyOp33
 70
     0
102
RTVSPropertyOp34
 70
     0
102
RTVSPropertyOp35
 70
     0
102
RTVSPropertyOp36
 70
     0
102
RTVSPropertyOp37
 70
     0
102
RTVSPropertyOp38
 70
     0
102
RTVSPropertyOp39
 70
     0
102
RTVSPropertyOp40
 70
     0
102
RTVSPropertyOp41
 70
     0
102
RTVSPropertyOp42
 70
     0
102
RTVSPropertyOp43
 70
     0
102
RTVSPropertyOp44
 70
     0
102
RTVSPropertyOp45
 70
     0
102
RTVSPropertyOp46
 70
     0
102
RTVSPropertyOp47
 70
     0
102
RTVSPropertyOp48
 70
     0
102
RTVSPropertyOp49
 70
     0
102
RTVSPropertyOp50
 70
     0
102
RTVSPropertyOp51
 70
     0
102
RTVSPropertyOp52
 70
     0
102
RTVSPropertyOp53
 70
     0
102
RTVSPropertyOp54
 70
     0
102
RTVSPropertyOp55
 70
     0
102
RTVSPropertyOp56
 70
     0
102
RTVSPropertyOp57
 70
     0
102
RTVSPost2010Prop28
280
     0
102
RTVSPost2010PropOp28
 70
     0
102
RTVSPost2010Prop29
280
     1
102
RTVSPost2010PropOp29
 70
     0
102
RTVSPost2010Prop30
280
     1
102
RTVSPost2010PropOp30
 70
     0
102
RTVSPost2010Prop31
280
     0
102
RTVSPost2010PropOp31
 70
     0
102
RTVSPost2010Prop32
280
     0
102
RTVSPost2010PropOp32
 70
     0
102
RTVSPost2010Prop33
280
     0
102
RTVSPost2010PropOp33
 70
     0
102
RTVSPost2010Prop34
280
     0
102
RTVSPost2010PropOp34
 70
     0
102
RTVSPost2010Prop35
280
     0
102
RTVSPost2010PropOp35
 70
     0
102
RTVSPost2010Prop36
280
     0
102
RTVSPost2010PropOp36
 70
     0
102
RTVSPost2010Prop37
 90
       50
102
RTVSPost2010PropOp37
 70
     0
102
RTVSPost2010Prop38
140
0.0
102
RTVSPost2010PropOp38
 70
     0
102
RTVSPost2010Prop39
140
1.0
102
RTVSPost2010PropOp39
 70
     0
102
RTVSPost2010Prop40
 90
        0
102
RTVSPost2010PropOp40
 70
     0
102
RTVSPost2010Prop41ColorIndex
 90
       18
102
RTVSPost2010Prop41ColorRGB
 90
        0
102
RTVSPost2010PropOp41
 70
     0
102
RTVSPost2010Prop42
 90
       50
102
RTVSPost2010PropOp42
 70
     0
102
RTVSPost2010Prop43
 90
        3
102
RTVSPost2010PropOp43
 70
     0
102
RTVSPost2010Prop44ColorIndex
 90
        5
102
RTVSPost2010Prop44ColorRGB
 90
      255
102
RTVSPost2010PropOp44
 70
     0
102
RTVSPost2010Prop45
280
     0
102
RTVSPost2010PropOp45
 70
     0
102
RTVSPost2010Prop46
 90
       50
102
RTVSPost2010PropOp46
 70
     0
102
RTVSPost2010Prop47
 90
       50
102
RTVSPost2010PropOp47
 70
     0
102
RTVSPost2010Prop48
 90
       50
102
RTVSPost2010PropOp48
 70
     0
102
RTVSPost2010Prop49
280
     0
102
RTVSPost2010PropOp49
 70
     0
102
RTVSPost2010Prop50
 90
       50
102
RTVSPost2010PropOp50
 70
     0
102
RTVSPost2010Prop51ColorIndex
 90
      256
102
RTVSPost2010Prop51ColorRGB
 90
-16777216
102
RTVSPost2010PropOp51
 70
     0
102
RTVSPost2010Prop52
140
1.0
102
RTVSPost2010PropOp52
 70
     0
102
RTVSPost2010Prop53
 90
        2
102
RTVSPost2010PropOp53
 70
     0
102
RTVSPost2010Prop54
  1
strokes_ogs.tif
102
RTVSPost2010PropOp54
 70
     0
102
RTVSPost2010Prop55
280
     0
102
RTVSPost2010PropOp55
 70
     0
102
RTVSPost2010Prop56
140
1.0
102
RTVSPost2010PropOp56
 70
     0
102
RTVSPost2010Prop57
140
1.0
102
RTVSPost2010PropOp57
 70
     0
  0
XRECORD
  5
28E
102
{ACAD_REACTORS
330
28D
102
}
330
28D
100
AcDbXrecord
280
     1
102
RTVSPropertyOp0
 70
     1
102
RTVSPropertyOp1
 70
     1
102
RTVSPropertyOp2
 70
     1
102
RTVSPropertyOp3
 70
     1
102
RTVSPropertyOp4
 70
     1
102
RTVSPropertyOp5
 70
     1
102
RTVSPropertyOp6
 70
     1
102
RTVSPropertyOp7
 70
     1
102
RTVSPropertyOp8
 70
     1
102
RTVSPropertyOp9
 70
     1
102
RTVSPropertyOp10
 70
     1
102
RTVSPropertyOp11
 70
     1
102
RTVSPropertyOp12
 70
     1
102
RTVSPropertyOp13
 70
     1
102
RTVSPropertyOp14
 70
     1
102
RTVSPropertyOp15
 70
     1
102
RTVSPropertyOp16
 70
     1
102
RTVSPropertyOp17
 70
     1
102
RTVSPropertyOp18
 70
     1
102
RTVSPropertyOp19
 70
     1
102
RTVSPropertyOp20
 70
     1
102
RTVSPropertyOp21
 70
     1
102
RTVSPropertyOp22
 70
     1
102
RTVSPropertyOp23
 70
     1
102
RTVSPropertyOp24
 70
     1
102
RTVSPropertyOp25
 70
     1
102
RTVSPropertyOp26
 70
     1
102
RTVSPropertyOp27
 70
     1
102
RTVSPropertyOp28
 70
     1
102
RTVSPropertyOp29
 70
     1
102
RTVSPropertyOp30
 70
     1
102
RTVSPropertyOp31
 70
     1
102
RTVSPropertyOp32
 70
     1
102
RTVSPropertyOp33
 70
     1
102
RTVSPropertyOp34
 70
     1
102
RTVSPropertyOp35
 70
     1
102
RTVSPropertyOp36
 70
     1
102
RTVSPropertyOp37
 70
     1
102
RTVSPropertyOp38
 70
     1
102
RTVSPropertyOp39
 70
     1
102
RTVSPropertyOp40
 70
     1
102
RTVSPropertyOp41
 70
     1
102
RTVSPropertyOp42
 70
     1
102
RTVSPropertyOp43
 70
     1
102
RTVSPropertyOp44
 70
     1
102
RTVSPropertyOp45
 70
     1
102
RTVSPropertyOp46
 70
     1
102
RTVSPropertyOp47
 70
     1
102
RTVSPropertyOp48
 70
     1
102
RTVSPropertyOp49
 70
     1
102
RTVSPropertyOp50
 70
     1
102
RTVSPropertyOp51
 70
     0
102
RTVSPropertyOp52
 70
     0
102
RTVSPropertyOp53
 70
     1
102
RTVSPropertyOp54
 70
     1
102
RTVSPropertyOp55
 70
     1
102
RTVSPropertyOp56
 70
     1
102
RTVSPropertyOp57
 70
     1
102
RTVSPost2010Prop28
280
     0
102
RTVSPost2010PropOp28
 70
     1
102
RTVSPost2010Prop29
280
     1
102
RTVSPost2010PropOp29
 70
     1
102
RTVSPost2010Prop30
280
     1
102
RTVSPost2010PropOp30
 70
     1
102
RTVSPost2010Prop31
280
     0
102
RTVSPost2010PropOp31
 70
     1
102
RTVSPost2010Prop32
280
     0
102
RTVSPost2010PropOp32
 70
     1
102
RTVSPost2010Prop33
280
     0
102
RTVSPost2010PropOp33
 70
     1
102
RTVSPost2010Prop34
280
     0
102
RTVSPost2010PropOp34
 70
     1
102
RTVSPost2010Prop35
280
     0
102
RTVSPost2010PropOp35
 70
     1
102
RTVSPost2010Prop36
280
     0
102
RTVSPost2010PropOp36
 70
     1
102
RTVSPost2010Prop37
 90
       50
102
RTVSPost2010PropOp37
 70
     1
102
RTVSPost2010Prop38
140
0.0
102
RTVSPost2010PropOp38
 70
     1
102
RTVSPost2010Prop39
140
1.0
102
RTVSPost2010PropOp39
 70
     1
102
RTVSPost2010Prop40
 90
        0
102
RTVSPost2010PropOp40
 70
     1
102
RTVSPost2010Prop41ColorIndex
 90
       18
102
RTVSPost2010Prop41ColorRGB
 90
        0
102
RTVSPost2010PropOp41
 70
     1
102
RTVSPost2010Prop42
 90
       50
102
RTVSPost2010PropOp42
 70
     1
102
RTVSPost2010Prop43
 90
        3
102
RTVSPost2010PropOp43
 70
     1
102
RTVSPost2010Prop44ColorIndex
 90
        5
102
RTVSPost2010Prop44ColorRGB
 90
      255
102
RTVSPost2010PropOp44
 70
     1
102
RTVSPost2010Prop45
280
     0
102
RTVSPost2010PropOp45
 70
     1
102
RTVSPost2010Prop46
 90
       50
102
RTVSPost2010PropOp46
 70
     1
102
RTVSPost2010Prop47
 90
       50
102
RTVSPost2010PropOp47
 70
     1
102
RTVSPost2010Prop48
 90
       50
102
RTVSPost2010PropOp48
 70
     1
102
RTVSPost2010Prop49
280
     0
102
RTVSPost2010PropOp49
 70
     1
102
RTVSPost2010Prop50
 90
       50
102
RTVSPost2010PropOp50
 70
     1
102
RTVSPost2010Prop51ColorIndex
 90
      256
102
RTVSPost2010Prop51ColorRGB
 90
-16777216
102
RTVSPost2010PropOp51
 70
     0
102
RTVSPost2010Prop52
140
1.0
102
RTVSPost2010PropOp52
 70
     0
102
RTVSPost2010Prop53
 90
        2
102
RTVSPost2010PropOp53
 70
     1
102
RTVSPost2010Prop54
  1
strokes_ogs.tif
102
RTVSPost2010PropOp54
 70
     1
102
RTVSPost2010Prop55
280
     0
102
RTVSPost2010PropOp55
 70
     1
102
RTVSPost2010Prop56
140
1.0
102
RTVSPost2010PropOp56
 70
     1
102
RTVSPost2010Prop57
140
1.0
102
RTVSPost2010PropOp57
 70
     1
  0
XRECORD
  5
2AC
102
{ACAD_REACTORS
330
2AB
102
}
330
2AB
100
AcDbXrecord
280
     1
102
RTVSPropertyOp0
 70
     1
102
RTVSPropertyOp1
 70
     1
102
RTVSPropertyOp2
 70
     1
102
RTVSPropertyOp3
 70
     1
102
RTVSPropertyOp4
 70
     1
102
RTVSPropertyOp5
 70
     1
102
RTVSPropertyOp6
 70
     1
102
RTVSPropertyOp7
 70
     1
102
RTVSPropertyOp8
 70
     1
102
RTVSPropertyOp9
 70
     1
102
RTVSPropertyOp10
 70
     1
102
RTVSPropertyOp11
 70
     1
102
RTVSPropertyOp12
 70
     1
102
RTVSPropertyOp13
 70
     1
102
RTVSPropertyOp14
 70
     1
102
RTVSPropertyOp15
 70
     1
102
RTVSPropertyOp16
 70
     1
102
RTVSPropertyOp17
 70
     1
102
RTVSPropertyOp18
 70
     1
102
RTVSPropertyOp19
 70
     1
102
RTVSPropertyOp20
 70
     1
102
RTVSPropertyOp21
 70
     1
102
RTVSPropertyOp22
 70
     1
102
RTVSPropertyOp23
 70
     1
102
RTVSPropertyOp24
 70
     1
102
RTVSPropertyOp25
 70
     1
102
RTVSPropertyOp26
 70
     1
102
RTVSPropertyOp27
 70
     1
102
RTVSPropertyOp28
 70
     1
102
RTVSPropertyOp29
 70
     1
102
RTVSPropertyOp30
 70
     1
102
RTVSPropertyOp31
 70
     1
102
RTVSPropertyOp32
 70
     1
102
RTVSPropertyOp33
 70
     1
102
RTVSPropertyOp34
 70
     1
102
RTVSPropertyOp35
 70
     1
102
RTVSPropertyOp36
 70
     1
102
RTVSPropertyOp37
 70
     1
102
RTVSPropertyOp38
 70
     1
102
RTVSPropertyOp39
 70
     1
102
RTVSPropertyOp40
 70
     1
102
RTVSPropertyOp41
 70
     1
102
RTVSPropertyOp42
 70
     1
102
RTVSPropertyOp43
 70
     1
102
RTVSPropertyOp44
 70
     1
102
RTVSPropertyOp45
 70
     1
102
RTVSPropertyOp46
 70
     1
102
RTVSPropertyOp47
 70
     1
102
RTVSPropertyOp48
 70
     1
102
RTVSPropertyOp49
 70
     1
102
RTVSPropertyOp50
 70
     1
102
RTVSPropertyOp51
 70
     0
102
RTVSPropertyOp52
 70
     0
102
RTVSPropertyOp53
 70
     1
102
RTVSPropertyOp54
 70
     1
102
RTVSPropertyOp55
 70
     1
102
RTVSPropertyOp56
 70
     1
102
RTVSPropertyOp57
 70
     1
102
RTVSPost2010Prop28
280
     0
102
RTVSPost2010PropOp28
 70
     1
102
RTVSPost2010Prop29
280
     1
102
RTVSPost2010PropOp29
 70
     1
102
RTVSPost2010Prop30
280
     1
102
RTVSPost2010PropOp30
 70
     1
102
RTVSPost2010Prop31
280
     0
102
RTVSPost2010PropOp31
 70
     1
102
RTVSPost2010Prop32
280
     0
102
RTVSPost2010PropOp32
 70
     1
102
RTVSPost2010Prop33
280
     0
102
RTVSPost2010PropOp33
 70
     1
102
RTVSPost2010Prop34
280
     0
102
RTVSPost2010PropOp34
 70
     1
102
RTVSPost2010Prop35
280
     0
102
RTVSPost2010PropOp35
 70
     1
102
RTVSPost2010Prop36
280
     0
102
RTVSPost2010PropOp36
 70
     1
102
RTVSPost2010Prop37
 90
       50
102
RTVSPost2010PropOp37
 70
     1
102
RTVSPost2010Prop38
140
0.0
102
RTVSPost2010PropOp38
 70
     1
102
RTVSPost2010Prop39
140
1.0
102
RTVSPost2010PropOp39
 70
     1
102
RTVSPost2010Prop40
 90
        0
102
RTVSPost2010PropOp40
 70
     1
102
RTVSPost2010Prop41ColorIndex
 90
       18
102
RTVSPost2010Prop41ColorRGB
 90
        0
102
RTVSPost2010PropOp41
 70
     1
102
RTVSPost2010Prop42
 90
       50
102
RTVSPost2010PropOp42
 70
     1
102
RTVSPost2010Prop43
 90
        3
102
RTVSPost2010PropOp43
 70
     1
102
RTVSPost2010Prop44ColorIndex
 90
        5
102
RTVSPost2010Prop44ColorRGB
 90
      255
102
RTVSPost2010PropOp44
 70
     1
102
RTVSPost2010Prop45
280
     0
102
RTVSPost2010PropOp45
 70
     1
102
RTVSPost2010Prop46
 90
       50
102
RTVSPost2010PropOp46
 70
     1
102
RTVSPost2010Prop47
 90
       50
102
RTVSPost2010PropOp47
 70
     1
102
RTVSPost2010Prop48
 90
       50
102
RTVSPost2010PropOp48
 70
     1
102
RTVSPost2010Prop49
280
     0
102
RTVSPost2010PropOp49
 70
     1
102
RTVSPost2010Prop50
 90
       50
102
RTVSPost2010PropOp50
 70
     1
102
RTVSPost2010Prop51ColorIndex
 90
      256
102
RTVSPost2010Prop51ColorRGB
 90
-16777216
102
RTVSPost2010PropOp51
 70
     0
102
RTVSPost2010Prop52
140
1.0
102
RTVSPost2010PropOp52
 70
     0
102
RTVSPost2010Prop53
 90
        2
102
RTVSPost2010PropOp53
 70
     1
102
RTVSPost2010Prop54
  1
strokes_ogs.tif
102
RTVSPost2010PropOp54
 70
     1
102
RTVSPost2010Prop55
280
     0
102
RTVSPost2010PropOp55
 70
     1
102
RTVSPost2010Prop56
140
1.0
102
RTVSPost2010PropOp56
 70
     1
102
RTVSPost2010Prop57
140
1.0
102
RTVSPost2010PropOp57
 70
     1
  0
XRECORD
  5
2AA
102
{ACAD_REACTORS
330
2A9
102
}
330
2A9
100
AcDbXrecord
280
     1
102
RTVSPropertyOp0
 70
     1
102
RTVSPropertyOp1
 70
     1
102
RTVSPropertyOp2
 70
     1
102
RTVSPropertyOp3
 70
     1
102
RTVSPropertyOp4
 70
     1
102
RTVSPropertyOp5
 70
     1
102
RTVSPropertyOp6
 70
     1
102
RTVSPropertyOp7
 70
     1
102
RTVSPropertyOp8
 70
     1
102
RTVSPropertyOp9
 70
     1
102
RTVSPropertyOp10
 70
     1
102
RTVSPropertyOp11
 70
     1
102
RTVSPropertyOp12
 70
     1
102
RTVSPropertyOp13
 70
     1
102
RTVSPropertyOp14
 70
     1
102
RTVSPropertyOp15
 70
     1
102
RTVSPropertyOp16
 70
     1
102
RTVSPropertyOp17
 70
     1
102
RTVSPropertyOp18
 70
     1
102
RTVSPropertyOp19
 70
     1
102
RTVSPropertyOp20
 70
     1
102
RTVSPropertyOp21
 70
     1
102
RTVSPropertyOp22
 70
     1
102
RTVSPropertyOp23
 70
     1
102
RTVSPropertyOp24
 70
     1
102
RTVSPropertyOp25
 70
     1
102
RTVSPropertyOp26
 70
     1
102
RTVSPropertyOp27
 70
     1
102
RTVSPropertyOp28
 70
     1
102
RTVSPropertyOp29
 70
     1
102
RTVSPropertyOp30
 70
     1
102
RTVSPropertyOp31
 70
     1
102
RTVSPropertyOp32
 70
     1
102
RTVSPropertyOp33
 70
     1
102
RTVSPropertyOp34
 70
     1
102
RTVSPropertyOp35
 70
     1
102
RTVSPropertyOp36
 70
     1
102
RTVSPropertyOp37
 70
     1
102
RTVSPropertyOp38
 70
     1
102
RTVSPropertyOp39
 70
     1
102
RTVSPropertyOp40
 70
     1
102
RTVSPropertyOp41
 70
     1
102
RTVSPropertyOp42
 70
     1
102
RTVSPropertyOp43
 70
     1
102
RTVSPropertyOp44
 70
     1
102
RTVSPropertyOp45
 70
     1
102
RTVSPropertyOp46
 70
     1
102
RTVSPropertyOp47
 70
     1
102
RTVSPropertyOp48
 70
     1
102
RTVSPropertyOp49
 70
     1
102
RTVSPropertyOp50
 70
     1
102
RTVSPropertyOp51
 70
     0
102
RTVSPropertyOp52
 70
     0
102
RTVSPropertyOp53
 70
     1
102
RTVSPropertyOp54
 70
     1
102
RTVSPropertyOp55
 70
     1
102
RTVSPropertyOp56
 70
     1
102
RTVSPropertyOp57
 70
     1
102
RTVSPost2010Prop28
280
     0
102
RTVSPost2010PropOp28
 70
     1
102
RTVSPost2010Prop29
280
     1
102
RTVSPost2010PropOp29
 70
     1
102
RTVSPost2010Prop30
280
     1
102
RTVSPost2010PropOp30
 70
     1
102
RTVSPost2010Prop31
280
     0
102
RTVSPost2010PropOp31
 70
     1
102
RTVSPost2010Prop32
280
     0
102
RTVSPost2010PropOp32
 70
     1
102
RTVSPost2010Prop33
280
     0
102
RTVSPost2010PropOp33
 70
     1
102
RTVSPost2010Prop34
280
     0
102
RTVSPost2010PropOp34
 70
     1
102
RTVSPost2010Prop35
280
     0
102
RTVSPost2010PropOp35
 70
     1
102
RTVSPost2010Prop36
280
     0
102
RTVSPost2010PropOp36
 70
     1
102
RTVSPost2010Prop37
 90
       50
102
RTVSPost2010PropOp37
 70
     1
102
RTVSPost2010Prop38
140
0.0
102
RTVSPost2010PropOp38
 70
     1
102
RTVSPost2010Prop39
140
1.0
102
RTVSPost2010PropOp39
 70
     1
102
RTVSPost2010Prop40
 90
        0
102
RTVSPost2010PropOp40
 70
     1
102
RTVSPost2010Prop41ColorIndex
 90
       18
102
RTVSPost2010Prop41ColorRGB
 90
        0
102
RTVSPost2010PropOp41
 70
     1
102
RTVSPost2010Prop42
 90
       50
102
RTVSPost2010PropOp42
 70
     1
102
RTVSPost2010Prop43
 90
        3
102
RTVSPost2010PropOp43
 70
     1
102
RTVSPost2010Prop44ColorIndex
 90
        5
102
RTVSPost2010Prop44ColorRGB
 90
      255
102
RTVSPost2010PropOp44
 70
     1
102
RTVSPost2010Prop45
280
     0
102
RTVSPost2010PropOp45
 70
     1
102
RTVSPost2010Prop46
 90
       50
102
RTVSPost2010PropOp46
 70
     1
102
RTVSPost2010Prop47
 90
       50
102
RTVSPost2010PropOp47
 70
     1
102
RTVSPost2010Prop48
 90
       50
102
RTVSPost2010PropOp48
 70
     1
102
RTVSPost2010Prop49
280
     0
102
RTVSPost2010PropOp49
 70
     1
102
RTVSPost2010Prop50
 90
       50
102
RTVSPost2010PropOp50
 70
     1
102
RTVSPost2010Prop51ColorIndex
 90
      256
102
RTVSPost2010Prop51ColorRGB
 90
-16777216
102
RTVSPost2010PropOp51
 70
     0
102
RTVSPost2010Prop52
140
1.0
102
RTVSPost2010PropOp52
 70
     0
102
RTVSPost2010Prop53
 90
        2
102
RTVSPost2010PropOp53
 70
     1
102
RTVSPost2010Prop54
  1
strokes_ogs.tif
102
RTVSPost2010PropOp54
 70
     1
102
RTVSPost2010Prop55
280
     0
102
RTVSPost2010PropOp55
 70
     1
102
RTVSPost2010Prop56
140
1.0
102
RTVSPost2010PropOp56
 70
     1
102
RTVSPost2010Prop57
140
1.0
102
RTVSPost2010PropOp57
 70
     1
  0
XRECORD
  5
2A4
102
{ACAD_REACTORS
330
2A3
102
}
330
2A3
100
AcDbXrecord
280
     1
102
RTVSPropertyOp0
 70
     1
102
RTVSPropertyOp1
 70
     1
102
RTVSPropertyOp2
 70
     1
102
RTVSPropertyOp3
 70
     1
102
RTVSPropertyOp4
 70
     1
102
RTVSPropertyOp5
 70
     1
102
RTVSPropertyOp6
 70
     1
102
RTVSPropertyOp7
 70
     1
102
RTVSPropertyOp8
 70
     1
102
RTVSPropertyOp9
 70
     1
102
RTVSPropertyOp10
 70
     1
102
RTVSPropertyOp11
 70
     1
102
RTVSPropertyOp12
 70
     1
102
RTVSPropertyOp13
 70
     1
102
RTVSPropertyOp14
 70
     1
102
RTVSPropertyOp15
 70
     1
102
RTVSPropertyOp16
 70
     1
102
RTVSPropertyOp17
 70
     1
102
RTVSPropertyOp18
 70
     1
102
RTVSPropertyOp19
 70
     1
102
RTVSPropertyOp20
 70
     1
102
RTVSPropertyOp21
 70
     1
102
RTVSPropertyOp22
 70
     1
102
RTVSPropertyOp23
 70
     1
102
RTVSPropertyOp24
 70
     1
102
RTVSPropertyOp25
 70
     1
102
RTVSPropertyOp26
 70
     1
102
RTVSPropertyOp27
 70
     1
102
RTVSPropertyOp28
 70
     1
102
RTVSPropertyOp29
 70
     1
102
RTVSPropertyOp30
 70
     1
102
RTVSPropertyOp31
 70
     1
102
RTVSPropertyOp32
 70
     1
102
RTVSPropertyOp33
 70
     1
102
RTVSPropertyOp34
 70
     1
102
RTVSPropertyOp35
 70
     1
102
RTVSPropertyOp36
 70
     1
102
RTVSPropertyOp37
 70
     1
102
RTVSPropertyOp38
 70
     1
102
RTVSPropertyOp39
 70
     1
102
RTVSPropertyOp40
 70
     1
102
RTVSPropertyOp41
 70
     1
102
RTVSPropertyOp42
 70
     1
102
RTVSPropertyOp43
 70
     1
102
RTVSPropertyOp44
 70
     1
102
RTVSPropertyOp45
 70
     1
102
RTVSPropertyOp46
 70
     1
102
RTVSPropertyOp47
 70
     1
102
RTVSPropertyOp48
 70
     1
102
RTVSPropertyOp49
 70
     1
102
RTVSPropertyOp50
 70
     1
102
RTVSPropertyOp51
 70
     0
102
RTVSPropertyOp52
 70
     0
102
RTVSPropertyOp53
 70
     1
102
RTVSPropertyOp54
 70
     1
102
RTVSPropertyOp55
 70
     1
102
RTVSPropertyOp56
 70
     1
102
RTVSPropertyOp57
 70
     1
102
RTVSPost2010Prop28
280
     0
102
RTVSPost2010PropOp28
 70
     1
102
RTVSPost2010Prop29
280
     1
102
RTVSPost2010PropOp29
 70
     1
102
RTVSPost2010Prop30
280
     1
102
RTVSPost2010PropOp30
 70
     1
102
RTVSPost2010Prop31
280
     0
102
RTVSPost2010PropOp31
 70
     1
102
RTVSPost2010Prop32
280
     0
102
RTVSPost2010PropOp32
 70
     1
102
RTVSPost2010Prop33
280
     0
102
RTVSPost2010PropOp33
 70
     1
102
RTVSPost2010Prop34
280
     0
102
RTVSPost2010PropOp34
 70
     1
102
RTVSPost2010Prop35
280
     0
102
RTVSPost2010PropOp35
 70
     1
102
RTVSPost2010Prop36
280
     0
102
RTVSPost2010PropOp36
 70
     1
102
RTVSPost2010Prop37
 90
       50
102
RTVSPost2010PropOp37
 70
     1
102
RTVSPost2010Prop38
140
0.0
102
RTVSPost2010PropOp38
 70
     1
102
RTVSPost2010Prop39
140
1.0
102
RTVSPost2010PropOp39
 70
     1
102
RTVSPost2010Prop40
 90
        0
102
RTVSPost2010PropOp40
 70
     1
102
RTVSPost2010Prop41ColorIndex
 90
       18
102
RTVSPost2010Prop41ColorRGB
 90
        0
102
RTVSPost2010PropOp41
 70
     1
102
RTVSPost2010Prop42
 90
       50
102
RTVSPost2010PropOp42
 70
     1
102
RTVSPost2010Prop43
 90
        3
102
RTVSPost2010PropOp43
 70
     1
102
RTVSPost2010Prop44ColorIndex
 90
        5
102
RTVSPost2010Prop44ColorRGB
 90
      255
102
RTVSPost2010PropOp44
 70
     1
102
RTVSPost2010Prop45
280
     0
102
RTVSPost2010PropOp45
 70
     1
102
RTVSPost2010Prop46
 90
       50
102
RTVSPost2010PropOp46
 70
     1
102
RTVSPost2010Prop47
 90
       50
102
RTVSPost2010PropOp47
 70
     1
102
RTVSPost2010Prop48
 90
       50
102
RTVSPost2010PropOp48
 70
     1
102
RTVSPost2010Prop49
280
     0
102
RTVSPost2010PropOp49
 70
     1
102
RTVSPost2010Prop50
 90
       50
102
RTVSPost2010PropOp50
 70
     1
102
RTVSPost2010Prop51ColorIndex
 90
      256
102
RTVSPost2010Prop51ColorRGB
 90
-16777216
102
RTVSPost2010PropOp51
 70
     0
102
RTVSPost2010Prop52
140
1.0
102
RTVSPost2010PropOp52
 70
     0
102
RTVSPost2010Prop53
 90
        2
102
RTVSPost2010PropOp53
 70
     1
102
RTVSPost2010Prop54
  1
strokes_ogs.tif
102
RTVSPost2010PropOp54
 70
     1
102
RTVSPost2010Prop55
280
     0
102
RTVSPost2010PropOp55
 70
     1
102
RTVSPost2010Prop56
140
1.0
102
RTVSPost2010PropOp56
 70
     1
102
RTVSPost2010Prop57
140
1.0
102
RTVSPost2010PropOp57
 70
     1
  0
XRECORD
  5
2A6
102
{ACAD_REACTORS
330
2A5
102
}
330
2A5
100
AcDbXrecord
280
     1
102
RTVSPropertyOp0
 70
     1
102
RTVSPropertyOp1
 70
     1
102
RTVSPropertyOp2
 70
     1
102
RTVSPropertyOp3
 70
     1
102
RTVSPropertyOp4
 70
     1
102
RTVSPropertyOp5
 70
     1
102
RTVSPropertyOp6
 70
     1
102
RTVSPropertyOp7
 70
     1
102
RTVSPropertyOp8
 70
     1
102
RTVSPropertyOp9
 70
     1
102
RTVSPropertyOp10
 70
     1
102
RTVSPropertyOp11
 70
     1
102
RTVSPropertyOp12
 70
     1
102
RTVSPropertyOp13
 70
     1
102
RTVSPropertyOp14
 70
     1
102
RTVSPropertyOp15
 70
     1
102
RTVSPropertyOp16
 70
     1
102
RTVSPropertyOp17
 70
     1
102
RTVSPropertyOp18
 70
     1
102
RTVSPropertyOp19
 70
     1
102
RTVSPropertyOp20
 70
     1
102
RTVSPropertyOp21
 70
     1
102
RTVSPropertyOp22
 70
     1
102
RTVSPropertyOp23
 70
     1
102
RTVSPropertyOp24
 70
     1
102
RTVSPropertyOp25
 70
     1
102
RTVSPropertyOp26
 70
     1
102
RTVSPropertyOp27
 70
     1
102
RTVSPropertyOp28
 70
     1
102
RTVSPropertyOp29
 70
     1
102
RTVSPropertyOp30
 70
     1
102
RTVSPropertyOp31
 70
     1
102
RTVSPropertyOp32
 70
     1
102
RTVSPropertyOp33
 70
     1
102
RTVSPropertyOp34
 70
     1
102
RTVSPropertyOp35
 70
     1
102
RTVSPropertyOp36
 70
     1
102
RTVSPropertyOp37
 70
     1
102
RTVSPropertyOp38
 70
     1
102
RTVSPropertyOp39
 70
     1
102
RTVSPropertyOp40
 70
     1
102
RTVSPropertyOp41
 70
     1
102
RTVSPropertyOp42
 70
     1
102
RTVSPropertyOp43
 70
     1
102
RTVSPropertyOp44
 70
     1
102
RTVSPropertyOp45
 70
     1
102
RTVSPropertyOp46
 70
     1
102
RTVSPropertyOp47
 70
     1
102
RTVSPropertyOp48
 70
     1
102
RTVSPropertyOp49
 70
     1
102
RTVSPropertyOp50
 70
     1
102
RTVSPropertyOp51
 70
     0
102
RTVSPropertyOp52
 70
     0
102
RTVSPropertyOp53
 70
     1
102
RTVSPropertyOp54
 70
     1
102
RTVSPropertyOp55
 70
     1
102
RTVSPropertyOp56
 70
     1
102
RTVSPropertyOp57
 70
     1
102
RTVSPost2010Prop28
280
     0
102
RTVSPost2010PropOp28
 70
     1
102
RTVSPost2010Prop29
280
     1
102
RTVSPost2010PropOp29
 70
     1
102
RTVSPost2010Prop30
280
     1
102
RTVSPost2010PropOp30
 70
     1
102
RTVSPost2010Prop31
280
     0
102
RTVSPost2010PropOp31
 70
     1
102
RTVSPost2010Prop32
280
     0
102
RTVSPost2010PropOp32
 70
     1
102
RTVSPost2010Prop33
280
     0
102
RTVSPost2010PropOp33
 70
     1
102
RTVSPost2010Prop34
280
     0
102
RTVSPost2010PropOp34
 70
     1
102
RTVSPost2010Prop35
280
     0
102
RTVSPost2010PropOp35
 70
     1
102
RTVSPost2010Prop36
280
     0
102
RTVSPost2010PropOp36
 70
     1
102
RTVSPost2010Prop37
 90
       50
102
RTVSPost2010PropOp37
 70
     1
102
RTVSPost2010Prop38
140
0.0
102
RTVSPost2010PropOp38
 70
     1
102
RTVSPost2010Prop39
140
1.0
102
RTVSPost2010PropOp39
 70
     1
102
RTVSPost2010Prop40
 90
        0
102
RTVSPost2010PropOp40
 70
     1
102
RTVSPost2010Prop41ColorIndex
 90
       18
102
RTVSPost2010Prop41ColorRGB
 90
        0
102
RTVSPost2010PropOp41
 70
     1
102
RTVSPost2010Prop42
 90
       50
102
RTVSPost2010PropOp42
 70
     1
102
RTVSPost2010Prop43
 90
        3
102
RTVSPost2010PropOp43
 70
     1
102
RTVSPost2010Prop44ColorIndex
 90
        5
102
RTVSPost2010Prop44ColorRGB
 90
      255
102
RTVSPost2010PropOp44
 70
     1
102
RTVSPost2010Prop45
280
     0
102
RTVSPost2010PropOp45
 70
     1
102
RTVSPost2010Prop46
 90
       50
102
RTVSPost2010PropOp46
 70
     1
102
RTVSPost2010Prop47
 90
       50
102
RTVSPost2010PropOp47
 70
     1
102
RTVSPost2010Prop48
 90
       50
102
RTVSPost2010PropOp48
 70
     1
102
RTVSPost2010Prop49
280
     0
102
RTVSPost2010PropOp49
 70
     1
102
RTVSPost2010Prop50
 90
       50
102
RTVSPost2010PropOp50
 70
     1
102
RTVSPost2010Prop51ColorIndex
 90
      256
102
RTVSPost2010Prop51ColorRGB
 90
-16777216
102
RTVSPost2010PropOp51
 70
     0
102
RTVSPost2010Prop52
140
1.0
102
RTVSPost2010PropOp52
 70
     0
102
RTVSPost2010Prop53
 90
        2
102
RTVSPost2010PropOp53
 70
     1
102
RTVSPost2010Prop54
  1
strokes_ogs.tif
102
RTVSPost2010PropOp54
 70
     1
102
RTVSPost2010Prop55
280
     0
102
RTVSPost2010PropOp55
 70
     1
102
RTVSPost2010Prop56
140
1.0
102
RTVSPost2010PropOp56
 70
     1
102
RTVSPost2010Prop57
140
1.0
102
RTVSPost2010PropOp57
 70
     1
  0
XRECORD
  5
296
102
{ACAD_REACTORS
330
295
102
}
330
295
100
AcDbXrecord
280
     1
102
RTVSPropertyOp0
 70
     1
102
RTVSPropertyOp1
 70
     1
102
RTVSPropertyOp2
 70
     1
102
RTVSPropertyOp3
 70
     1
102
RTVSPropertyOp4
 70
     1
102
RTVSPropertyOp5
 70
     1
102
RTVSPropertyOp6
 70
     1
102
RTVSPropertyOp7
 70
     1
102
RTVSPropertyOp8
 70
     1
102
RTVSPropertyOp9
 70
     1
102
RTVSPropertyOp10
 70
     1
102
RTVSPropertyOp11
 70
     1
102
RTVSPropertyOp12
 70
     1
102
RTVSPropertyOp13
 70
     1
102
RTVSPropertyOp14
 70
     1
102
RTVSPropertyOp15
 70
     1
102
RTVSPropertyOp16
 70
     1
102
RTVSPropertyOp17
 70
     1
102
RTVSPropertyOp18
 70
     1
102
RTVSPropertyOp19
 70
     1
102
RTVSPropertyOp20
 70
     1
102
RTVSPropertyOp21
 70
     1
102
RTVSPropertyOp22
 70
     1
102
RTVSPropertyOp23
 70
     1
102
RTVSPropertyOp24
 70
     1
102
RTVSPropertyOp25
 70
     1
102
RTVSPropertyOp26
 70
     1
102
RTVSPropertyOp27
 70
     1
102
RTVSPropertyOp28
 70
     1
102
RTVSPropertyOp29
 70
     1
102
RTVSPropertyOp30
 70
     1
102
RTVSPropertyOp31
 70
     1
102
RTVSPropertyOp32
 70
     1
102
RTVSPropertyOp33
 70
     1
102
RTVSPropertyOp34
 70
     1
102
RTVSPropertyOp35
 70
     1
102
RTVSPropertyOp36
 70
     1
102
RTVSPropertyOp37
 70
     1
102
RTVSPropertyOp38
 70
     1
102
RTVSPropertyOp39
 70
     1
102
RTVSPropertyOp40
 70
     1
102
RTVSPropertyOp41
 70
     1
102
RTVSPropertyOp42
 70
     1
102
RTVSPropertyOp43
 70
     1
102
RTVSPropertyOp44
 70
     1
102
RTVSPropertyOp45
 70
     1
102
RTVSPropertyOp46
 70
     1
102
RTVSPropertyOp47
 70
     1
102
RTVSPropertyOp48
 70
     1
102
RTVSPropertyOp49
 70
     1
102
RTVSPropertyOp50
 70
     1
102
RTVSPropertyOp51
 70
     0
102
RTVSPropertyOp52
 70
     0
102
RTVSPropertyOp53
 70
     1
102
RTVSPropertyOp54
 70
     1
102
RTVSPropertyOp55
 70
     1
102
RTVSPropertyOp56
 70
     1
102
RTVSPropertyOp57
 70
     1
102
RTVSPost2010Prop28
280
     0
102
RTVSPost2010PropOp28
 70
     1
102
RTVSPost2010Prop29
280
     1
102
RTVSPost2010PropOp29
 70
     1
102
RTVSPost2010Prop30
280
     1
102
RTVSPost2010PropOp30
 70
     1
102
RTVSPost2010Prop31
280
     0
102
RTVSPost2010PropOp31
 70
     1
102
RTVSPost2010Prop32
280
     0
102
RTVSPost2010PropOp32
 70
     1
102
RTVSPost2010Prop33
280
     0
102
RTVSPost2010PropOp33
 70
     1
102
RTVSPost2010Prop34
280
     0
102
RTVSPost2010PropOp34
 70
     1
102
RTVSPost2010Prop35
280
     0
102
RTVSPost2010PropOp35
 70
     1
102
RTVSPost2010Prop36
280
     0
102
RTVSPost2010PropOp36
 70
     1
102
RTVSPost2010Prop37
 90
       50
102
RTVSPost2010PropOp37
 70
     1
102
RTVSPost2010Prop38
140
0.0
102
RTVSPost2010PropOp38
 70
     1
102
RTVSPost2010Prop39
140
1.0
102
RTVSPost2010PropOp39
 70
     1
102
RTVSPost2010Prop40
 90
        0
102
RTVSPost2010PropOp40
 70
     1
102
RTVSPost2010Prop41ColorIndex
 90
       18
102
RTVSPost2010Prop41ColorRGB
 90
        0
102
RTVSPost2010PropOp41
 70
     1
102
RTVSPost2010Prop42
 90
       50
102
RTVSPost2010PropOp42
 70
     1
102
RTVSPost2010Prop43
 90
        3
102
RTVSPost2010PropOp43
 70
     1
102
RTVSPost2010Prop44ColorIndex
 90
        5
102
RTVSPost2010Prop44ColorRGB
 90
      255
102
RTVSPost2010PropOp44
 70
     1
102
RTVSPost2010Prop45
280
     0
102
RTVSPost2010PropOp45
 70
     1
102
RTVSPost2010Prop46
 90
       50
102
RTVSPost2010PropOp46
 70
     1
102
RTVSPost2010Prop47
 90
       50
102
RTVSPost2010PropOp47
 70
     1
102
RTVSPost2010Prop48
 90
       50
102
RTVSPost2010PropOp48
 70
     1
102
RTVSPost2010Prop49
280
     0
102
RTVSPost2010PropOp49
 70
     1
102
RTVSPost2010Prop50
 90
       50
102
RTVSPost2010PropOp50
 70
     1
102
RTVSPost2010Prop51ColorIndex
 90
      256
102
RTVSPost2010Prop51ColorRGB
 90
-16777216
102
RTVSPost2010PropOp51
 70
     0
102
RTVSPost2010Prop52
140
1.0
102
RTVSPost2010PropOp52
 70
     0
102
RTVSPost2010Prop53
 90
        2
102
RTVSPost2010PropOp53
 70
     1
102
RTVSPost2010Prop54
  1
strokes_ogs.tif
102
RTVSPost2010PropOp54
 70
     1
102
RTVSPost2010Prop55
280
     0
102
RTVSPost2010PropOp55
 70
     1
102
RTVSPost2010Prop56
140
1.0
102
RTVSPost2010PropOp56
 70
     1
102
RTVSPost2010Prop57
140
1.0
102
RTVSPost2010PropOp57
 70
     1
  0
XRECORD
  5
288
102
{ACAD_REACTORS
330
287
102
}
330
287
100
AcDbXrecord
280
     1
102
RTVSPropertyOp0
 70
     1
102
RTVSPropertyOp1
 70
     1
102
RTVSPropertyOp2
 70
     1
102
RTVSPropertyOp3
 70
     1
102
RTVSPropertyOp4
 70
     1
102
RTVSPropertyOp5
 70
     1
102
RTVSPropertyOp6
 70
     1
102
RTVSPropertyOp7
 70
     1
102
RTVSPropertyOp8
 70
     1
102
RTVSPropertyOp9
 70
     1
102
RTVSPropertyOp10
 70
     1
102
RTVSPropertyOp11
 70
     1
102
RTVSPropertyOp12
 70
     1
102
RTVSPropertyOp13
 70
     1
102
RTVSPropertyOp14
 70
     1
102
RTVSPropertyOp15
 70
     1
102
RTVSPropertyOp16
 70
     1
102
RTVSPropertyOp17
 70
     1
102
RTVSPropertyOp18
 70
     1
102
RTVSPropertyOp19
 70
     1
102
RTVSPropertyOp20
 70
     1
102
RTVSPropertyOp21
 70
     1
102
RTVSPropertyOp22
 70
     1
102
RTVSPropertyOp23
 70
     1
102
RTVSPropertyOp24
 70
     1
102
RTVSPropertyOp25
 70
     1
102
RTVSPropertyOp26
 70
     1
102
RTVSPropertyOp27
 70
     1
102
RTVSPropertyOp28
 70
     1
102
RTVSPropertyOp29
 70
     1
102
RTVSPropertyOp30
 70
     1
102
RTVSPropertyOp31
 70
     1
102
RTVSPropertyOp32
 70
     1
102
RTVSPropertyOp33
 70
     1
102
RTVSPropertyOp34
 70
     1
102
RTVSPropertyOp35
 70
     1
102
RTVSPropertyOp36
 70
     1
102
RTVSPropertyOp37
 70
     1
102
RTVSPropertyOp38
 70
     1
102
RTVSPropertyOp39
 70
     1
102
RTVSPropertyOp40
 70
     1
102
RTVSPropertyOp41
 70
     1
102
RTVSPropertyOp42
 70
     1
102
RTVSPropertyOp43
 70
     1
102
RTVSPropertyOp44
 70
     1
102
RTVSPropertyOp45
 70
     1
102
RTVSPropertyOp46
 70
     1
102
RTVSPropertyOp47
 70
     1
102
RTVSPropertyOp48
 70
     1
102
RTVSPropertyOp49
 70
     1
102
RTVSPropertyOp50
 70
     1
102
RTVSPropertyOp51
 70
     0
102
RTVSPropertyOp52
 70
     0
102
RTVSPropertyOp53
 70
     1
102
RTVSPropertyOp54
 70
     1
102
RTVSPropertyOp55
 70
     1
102
RTVSPropertyOp56
 70
     1
102
RTVSPropertyOp57
 70
     1
102
RTVSPost2010Prop28
280
     0
102
RTVSPost2010PropOp28
 70
     1
102
RTVSPost2010Prop29
280
     1
102
RTVSPost2010PropOp29
 70
     1
102
RTVSPost2010Prop30
280
     1
102
RTVSPost2010PropOp30
 70
     1
102
RTVSPost2010Prop31
280
     0
102
RTVSPost2010PropOp31
 70
     1
102
RTVSPost2010Prop32
280
     0
102
RTVSPost2010PropOp32
 70
     1
102
RTVSPost2010Prop33
280
     0
102
RTVSPost2010PropOp33
 70
     1
102
RTVSPost2010Prop34
280
     0
102
RTVSPost2010PropOp34
 70
     1
102
RTVSPost2010Prop35
280
     0
102
RTVSPost2010PropOp35
 70
     1
102
RTVSPost2010Prop36
280
     0
102
RTVSPost2010PropOp36
 70
     1
102
RTVSPost2010Prop37
 90
       50
102
RTVSPost2010PropOp37
 70
     1
102
RTVSPost2010Prop38
140
0.0
102
RTVSPost2010PropOp38
 70
     1
102
RTVSPost2010Prop39
140
1.0
102
RTVSPost2010PropOp39
 70
     1
102
RTVSPost2010Prop40
 90
        0
102
RTVSPost2010PropOp40
 70
     1
102
RTVSPost2010Prop41ColorIndex
 90
       18
102
RTVSPost2010Prop41ColorRGB
 90
        0
102
RTVSPost2010PropOp41
 70
     1
102
RTVSPost2010Prop42
 90
       50
102
RTVSPost2010PropOp42
 70
     1
102
RTVSPost2010Prop43
 90
        3
102
RTVSPost2010PropOp43
 70
     1
102
RTVSPost2010Prop44ColorIndex
 90
        5
102
RTVSPost2010Prop44ColorRGB
 90
      255
102
RTVSPost2010PropOp44
 70
     1
102
RTVSPost2010Prop45
280
     0
102
RTVSPost2010PropOp45
 70
     1
102
RTVSPost2010Prop46
 90
       50
102
RTVSPost2010PropOp46
 70
     1
102
RTVSPost2010Prop47
 90
       50
102
RTVSPost2010PropOp47
 70
     1
102
RTVSPost2010Prop48
 90
       50
102
RTVSPost2010PropOp48
 70
     1
102
RTVSPost2010Prop49
280
     0
102
RTVSPost2010PropOp49
 70
     1
102
RTVSPost2010Prop50
 90
       50
102
RTVSPost2010PropOp50
 70
     1
102
RTVSPost2010Prop51ColorIndex
 90
      256
102
RTVSPost2010Prop51ColorRGB
 90
-16777216
102
RTVSPost2010PropOp51
 70
     0
102
RTVSPost2010Prop52
140
1.0
102
RTVSPost2010PropOp52
 70
     0
102
RTVSPost2010Prop53
 90
        2
102
RTVSPost2010PropOp53
 70
     1
102
RTVSPost2010Prop54
  1
strokes_ogs.tif
102
RTVSPost2010PropOp54
 70
     1
102
RTVSPost2010Prop55
280
     0
102
RTVSPost2010PropOp55
 70
     1
102
RTVSPost2010Prop56
140
1.0
102
RTVSPost2010PropOp56
 70
     1
102
RTVSPost2010Prop57
140
1.0
102
RTVSPost2010PropOp57
 70
     1
  0
XRECORD
  5
2A8
102
{ACAD_REACTORS
330
2A7
102
}
330
2A7
100
AcDbXrecord
280
     1
102
RTVSPropertyOp0
 70
     1
102
RTVSPropertyOp1
 70
     1
102
RTVSPropertyOp2
 70
     1
102
RTVSPropertyOp3
 70
     1
102
RTVSPropertyOp4
 70
     1
102
RTVSPropertyOp5
 70
     1
102
RTVSPropertyOp6
 70
     1
102
RTVSPropertyOp7
 70
     1
102
RTVSPropertyOp8
 70
     1
102
RTVSPropertyOp9
 70
     1
102
RTVSPropertyOp10
 70
     1
102
RTVSPropertyOp11
 70
     1
102
RTVSPropertyOp12
 70
     1
102
RTVSPropertyOp13
 70
     1
102
RTVSPropertyOp14
 70
     1
102
RTVSPropertyOp15
 70
     1
102
RTVSPropertyOp16
 70
     1
102
RTVSPropertyOp17
 70
     1
102
RTVSPropertyOp18
 70
     1
102
RTVSPropertyOp19
 70
     1
102
RTVSPropertyOp20
 70
     1
102
RTVSPropertyOp21
 70
     1
102
RTVSPropertyOp22
 70
     1
102
RTVSPropertyOp23
 70
     1
102
RTVSPropertyOp24
 70
     1
102
RTVSPropertyOp25
 70
     1
102
RTVSPropertyOp26
 70
     1
102
RTVSPropertyOp27
 70
     1
102
RTVSPropertyOp28
 70
     1
102
RTVSPropertyOp29
 70
     1
102
RTVSPropertyOp30
 70
     1
102
RTVSPropertyOp31
 70
     1
102
RTVSPropertyOp32
 70
     1
102
RTVSPropertyOp33
 70
     1
102
RTVSPropertyOp34
 70
     1
102
RTVSPropertyOp35
 70
     1
102
RTVSPropertyOp36
 70
     1
102
RTVSPropertyOp37
 70
     1
102
RTVSPropertyOp38
 70
     1
102
RTVSPropertyOp39
 70
     1
102
RTVSPropertyOp40
 70
     1
102
RTVSPropertyOp41
 70
     1
102
RTVSPropertyOp42
 70
     1
102
RTVSPropertyOp43
 70
     1
102
RTVSPropertyOp44
 70
     1
102
RTVSPropertyOp45
 70
     1
102
RTVSPropertyOp46
 70
     1
102
RTVSPropertyOp47
 70
     1
102
RTVSPropertyOp48
 70
     1
102
RTVSPropertyOp49
 70
     1
102
RTVSPropertyOp50
 70
     1
102
RTVSPropertyOp51
 70
     0
102
RTVSPropertyOp52
 70
     0
102
RTVSPropertyOp53
 70
     1
102
RTVSPropertyOp54
 70
     1
102
RTVSPropertyOp55
 70
     1
102
RTVSPropertyOp56
 70
     1
102
RTVSPropertyOp57
 70
     1
102
RTVSPost2010Prop28
280
     0
102
RTVSPost2010PropOp28
 70
     1
102
RTVSPost2010Prop29
280
     1
102
RTVSPost2010PropOp29
 70
     1
102
RTVSPost2010Prop30
280
     1
102
RTVSPost2010PropOp30
 70
     1
102
RTVSPost2010Prop31
280
     0
102
RTVSPost2010PropOp31
 70
     1
102
RTVSPost2010Prop32
280
     0
102
RTVSPost2010PropOp32
 70
     1
102
RTVSPost2010Prop33
280
     0
102
RTVSPost2010PropOp33
 70
     1
102
RTVSPost2010Prop34
280
     0
102
RTVSPost2010PropOp34
 70
     1
102
RTVSPost2010Prop35
280
     0
102
RTVSPost2010PropOp35
 70
     1
102
RTVSPost2010Prop36
280
     0
102
RTVSPost2010PropOp36
 70
     1
102
RTVSPost2010Prop37
 90
       50
102
RTVSPost2010PropOp37
 70
     1
102
RTVSPost2010Prop38
140
0.0
102
RTVSPost2010PropOp38
 70
     1
102
RTVSPost2010Prop39
140
1.0
102
RTVSPost2010PropOp39
 70
     1
102
RTVSPost2010Prop40
 90
        0
102
RTVSPost2010PropOp40
 70
     1
102
RTVSPost2010Prop41ColorIndex
 90
       18
102
RTVSPost2010Prop41ColorRGB
 90
        0
102
RTVSPost2010PropOp41
 70
     1
102
RTVSPost2010Prop42
 90
       50
102
RTVSPost2010PropOp42
 70
     1
102
RTVSPost2010Prop43
 90
        3
102
RTVSPost2010PropOp43
 70
     1
102
RTVSPost2010Prop44ColorIndex
 90
        5
102
RTVSPost2010Prop44ColorRGB
 90
      255
102
RTVSPost2010PropOp44
 70
     1
102
RTVSPost2010Prop45
280
     0
102
RTVSPost2010PropOp45
 70
     1
102
RTVSPost2010Prop46
 90
       50
102
RTVSPost2010PropOp46
 70
     1
102
RTVSPost2010Prop47
 90
       50
102
RTVSPost2010PropOp47
 70
     1
102
RTVSPost2010Prop48
 90
       50
102
RTVSPost2010PropOp48
 70
     1
102
RTVSPost2010Prop49
280
     0
102
RTVSPost2010PropOp49
 70
     1
102
RTVSPost2010Prop50
 90
       50
102
RTVSPost2010PropOp50
 70
     1
102
RTVSPost2010Prop51ColorIndex
 90
      256
102
RTVSPost2010Prop51ColorRGB
 90
-16777216
102
RTVSPost2010PropOp51
 70
     0
102
RTVSPost2010Prop52
140
1.0
102
RTVSPost2010PropOp52
 70
     0
102
RTVSPost2010Prop53
 90
        2
102
RTVSPost2010PropOp53
 70
     1
102
RTVSPost2010Prop54
  1
strokes_ogs.tif
102
RTVSPost2010PropOp54
 70
     1
102
RTVSPost2010Prop55
280
     0
102
RTVSPost2010PropOp55
 70
     1
102
RTVSPost2010Prop56
140
1.0
102
RTVSPost2010PropOp56
 70
     1
102
RTVSPost2010Prop57
140
1.0
102
RTVSPost2010PropOp57
 70
     1
  0
ENDSEC
  0
EOF
