  0
SECTION
  2
HEADER
  9
$ACADVER
  1
AC1021
  9
$ACADMAINTVER
 70
    25
  9
$DWGCODEPAGE
  3
ANSI_1252
  9
$INSBASE
 10
0.0
 20
0.0
 30
0.0
  9
$EXTMIN
 10
0.0
 20
0.0
 30
0.0
  9
$EXTMAX
 10
3000.0
 20
4500.0
 30
0.0
  9
$LIMMIN
 10
0.0
 20
0.0
  9
$LIMMAX
 10
3000.0
 20
4500.0
  9
$ORTHOMODE
 70
     0
  9
$REGENMODE
 70
     1
  9
$FILLMODE
 70
     1
  9
$QTEXTMODE
 70
     0
  9
$MIRRTEXT
 70
     1
  9
$LTSCALE
 40
1.0
  9
$ATTMODE
 70
     1
  9
$TEXTSIZE
 40
10.0
  9
$TRACEWID
 40
1.0
  9
$TEXTSTYLE
  7
Standard
  9
$CLAYER
  8
0
  9
$CELTYPE
  6
ByLayer
  9
$CECOLOR
 62
   256
  9
$CELTSCALE
 40
1.0
  9
$DISPSILH
 70
     0
  9
$DIMSCALE
 40
1.0
  9
$DIMASZ
 40
2.5
  9
$DIMEXO
 40
0.625
  9
$DIMDLI
 40
3.75
  9
$DIMRND
 40
0.0
  9
$DIMDLE
 40
0.0
  9
$DIMEXE
 40
1.25
  9
$DIMTP
 40
0.0
  9
$DIMTM
 40
0.0
  9
$DIMTXT
 40
2.5
  9
$DIMCEN
 40
2.5
  9
$DIMTSZ
 40
0.0
  9
$DIMTOL
 70
     0
  9
$DIMLIM
 70
     0
  9
$DIMTIH
 70
     0
  9
$DIMTOH
 70
     0
  9
$DIMSE1
 70
     0
  9
$DIMSE2
 70
     0
  9
$DIMTAD
 70
     1
  9
$DIMZIN
 70
     8
  9
$DIMBLK
  1

  9
$DIMASO
 70
     1
  9
$DIMSHO
 70
     1
  9
$DIMPOST
  1

  9
$DIMAPOST
  1

  9
$DIMALT
 70
     0
  9
$DIMALTD
 70
     3
  9
$DIMALTF
 40
0.0393700787
  9
$DIMLFAC
 40
1.0
  9
$DIMTOFL
 70
     1
  9
$DIMTVP
 40
0.0
  9
$DIMTIX
 70
     0
  9
$DIMSOXD
 70
     0
  9
$DIMSAH
 70
     0
  9
$DIMBLK1
  1

  9
$DIMBLK2
  1

  9
$DIMSTYLE
  2
ISO-25
  9
$DIMCLRD
 70
     0
  9
$DIMCLRE
 70
     0
  9
$DIMCLRT
 70
     0
  9
$DIMTFAC
 40
1.0
  9
$DIMGAP
 40
0.625
  9
$DIMJUST
 70
     0
  9
$DIMSD1
 70
     0
  9
$DIMSD2
 70
     0
  9
$DIMTOLJ
 70
     0
  9
$DIMTZIN
 70
     8
  9
$DIMALTZ
 70
     0
  9
$DIMALTTZ
 70
     0
  9
$DIMUPT
 70
     0
  9
$DIMDEC
 70
     2
  9
$DIMTDEC
 70
     2
  9
$DIMALTU
 70
     2
  9
$DIMALTTD
 70
     3
  9
$DIMTXSTY
  7
Standard
  9
$DIMAUNIT
 70
     0
  9
$DIMADEC
 70
     0
  9
$DIMALTRND
 40
0.0
  9
$DIMAZIN
 70
     0
  9
$DIMDSEP
 70
    44
  9
$DIMATFIT
 70
     3
  9
$DIMFRAC
 70
     0
  9
$DIMLDRBLK
  1

  9
$DIMLUNIT
 70
     2
  9
$DIMLWD
 70
    -2
  9
$DIMLWE
 70
    -2
  9
$DIMTMOVE
 70
     0
  9
$DIMFXL
 40
1.0
  9
$DIMFXLON
 70
     0
  9
$DIMJOGANG
 40
0.7853981634
  9
$DIMTFILL
 70
     0
  9
$DIMTFILLCLR
 70
     0
  9
$DIMARCSYM
 70
     0
  9
$DIMLTYPE
  6

  9
$DIMLTEX1
  6

  9
$DIMLTEX2
  6

  9
$LUNITS
 70
     2
  9
$LUPREC
 70
     4
  9
$SKETCHINC
 40
1.0
  9
$FILLETRAD
 40
10.0
  9
$AUNITS
 70
     0
  9
$AUPREC
 70
     0
  9
$MENU
  1
.
  9
$ELEVATION
 40
0.0
  9
$PELEVATION
 40
0.0
  9
$THICKNESS
 40
0.0
  9
$LIMCHECK
 70
     0
  9
$CHAMFERA
 40
0.0
  9
$CHAMFERB
 40
0.0
  9
$CHAMFERC
 40
0.0
  9
$CHAMFERD
 40
0.0
  9
$SKPOLY
 70
     0
  9
$TDCREATE
 40
2458529.520059549
  9
$TDUCREATE
 40
2458529.478392882
  9
$TDUPDATE
 40
2458529.520061273
  9
$TDUUPDATE
 40
2458529.478394607
  9
$TDINDWG
 40
0.0000000116
  9
$TDUSRTIMER
 40
0.0000000116
  9
$USRTIMER
 70
     1
  9
$ANGBASE
 50
0.0
  9
$ANGDIR
 70
     0
  9
$PDMODE
 70
     0
  9
$PDSIZE
 40
0.0
  9
$PLINEWID
 40
0.0
  9
$SPLFRAME
 70
     0
  9
$SPLINETYPE
 70
     6
  9
$SPLINESEGS
 70
     8
  9
$HANDSEED
  5
228
  9
$SURFTAB1
 70
     6
  9
$SURFTAB2
 70
     6
  9
$SURFTYPE
 70
     6
  9
$SURFU
 70
     6
  9
$SURFV
 70
     6
  9
$UCSBASE
  2

  9
$UCSNAME
  2

  9
$UCSORG
 10
0.0
 20
0.0
 30
0.0
  9
$UCSXDIR
 10
1.0
 20
0.0
 30
0.0
  9
$UCSYDIR
 10
0.0
 20
1.0
 30
0.0
  9
$UCSORTHOREF
  2

  9
$UCSORTHOVIEW
 70
     0
  9
$UCSORGTOP
 10
0.0
 20
0.0
 30
0.0
  9
$UCSORGBOTTOM
 10
0.0
 20
0.0
 30
0.0
  9
$UCSORGLEFT
 10
0.0
 20
0.0
 30
0.0
  9
$UCSORGRIGHT
 10
0.0
 20
0.0
 30
0.0
  9
$UCSORGFRONT
 10
0.0
 20
0.0
 30
0.0
  9
$UCSORGBACK
 10
0.0
 20
0.0
 30
0.0
  9
$PUCSBASE
  2

  9
$PUCSNAME
  2

  9
$PUCSORG
 10
0.0
 20
0.0
 30
0.0
  9
$PUCSXDIR
 10
1.0
 20
0.0
 30
0.0
  9
$PUCSYDIR
 10
0.0
 20
1.0
 30
0.0
  9
$PUCSORTHOREF
  2

  9
$PUCSORTHOVIEW
 70
     0
  9
$PUCSORGTOP
 10
0.0
 20
0.0
 30
0.0
  9
$PUCSORGBOTTOM
 10
0.0
 20
0.0
 30
0.0
  9
$PUCSORGLEFT
 10
0.0
 20
0.0
 30
0.0
  9
$PUCSORGRIGHT
 10
0.0
 20
0.0
 30
0.0
  9
$PUCSORGFRONT
 10
0.0
 20
0.0
 30
0.0
  9
$PUCSORGBACK
 10
0.0
 20
0.0
 30
0.0
  9
$USERI1
 70
     0
  9
$USERI2
 70
     0
  9
$USERI3
 70
     0
  9
$USERI4
 70
     0
  9
$USERI5
 70
     0
  9
$USERR1
 40
0.0
  9
$USERR2
 40
0.0
  9
$USERR3
 40
0.0
  9
$USERR4
 40
0.0
  9
$USERR5
 40
0.0
  9
$WORLDVIEW
 70
     1
  9
$SHADEDGE
 70
     3
  9
$SHADEDIF
 70
    70
  9
$TILEMODE
 70
     1
  9
$MAXACTVP
 70
    64
  9
$PINSBASE
 10
0.0
 20
0.0
 30
0.0
  9
$PLIMCHECK
 70
     0
  9
$PEXTMIN
 10
0.0
 20
0.0
 30
0.0
  9
$PEXTMAX
 10
3000.0
 20
4500.0
 30
0.0
  9
$PLIMMIN
 10
0.0
 20
0.0
  9
$PLIMMAX
 10
3000.0
 20
4500.0
  9
$UNITMODE
 70
     0
  9
$VISRETAIN
 70
     1
  9
$PLINEGEN
 70
     0
  9
$PSLTSCALE
 70
     1
  9
$TREEDEPTH
 70
  3020
  9
$CMLSTYLE
  2
Standard
  9
$CMLJUST
 70
     0
  9
$CMLSCALE
 40
20.0
  9
$PROXYGRAPHICS
 70
     1
  9
$MEASUREMENT
 70
     1
  9
$CELWEIGHT
370
    -1
  9
$ENDCAPS
280
     0
  9
$JOINSTYLE
280
     0
  9
$LWDISPLAY
290
     0
  9
$INSUNITS
 70
     4
  9
$HYPERLINKBASE
  1

  9
$STYLESHEET
  1

  9
$XEDIT
290
     1
  9
$CEPSNTYPE
380
     0
  9
$PSTYLEMODE
290
     1
  9
$FINGERPRINTGUID
  2
{96A546F2-EAF2-4EE4-9B8F-654F868F1ABE}
  9
$VERSIONGUID
  2
{FAEB1C32-E019-11D5-929B-00C0DF256EC4}
  9
$EXTNAMES
290
     1
  9
$PSVPSCALE
 40
0.0
  9
$OLESTARTUP
290
     0
  9
$SORTENTS
280
   127
  9
$INDEXCTL
280
     0
  9
$HIDETEXT
280
     1
  9
$XCLIPFRAME
290
     0
  9
$HALOGAP
280
     0
  9
$OBSCOLOR
 70
   257
  9
$OBSLTYPE
280
     0
  9
$INTERSECTIONDISPLAY
280
     0
  9
$INTERSECTIONCOLOR
 70
   257
  9
$DIMASSOC
280
     2
  9
$PROJECTNAME
  1

  9
$CAMERADISPLAY
290
     0
  9
$LENSLENGTH
 40
50.0
  9
$CAMERAHEIGHT
 40
0.0
  9
$STEPSPERSEC
 40
2.0
  9
$STEPSIZE
 40
6.0
  9
$3DDWFPREC
 40
2.0
  9
$PSOLWIDTH
 40
5.0
  9
$PSOLHEIGHT
 40
80.0
  9
$LOFTANG1
 40
1.5707963268
  9
$LOFTANG2
 40
1.5707963268
  9
$LOFTMAG1
 40
0.0
  9
$LOFTMAG2
 40
0.0
  9
$LOFTPARAM
 70
     7
  9
$LOFTNORMALS
280
     1
  9
$LATITUDE
 40
37.795
  9
$LONGITUDE
 40
-122.394
  9
$NORTHDIRECTION
 40
0.0
  9
$TIMEZONE
 70
 -8000
  9
$LIGHTGLYPHDISPLAY
280
     1
  9
$TILEMODELIGHTSYNCH
280
     1
  9
$CMATERIAL
347
44
  9
$SOLIDHIST
280
     0
  9
$SHOWHIST
280
     1
  9
$DWFFRAME
280
     2
  9
$DGNFRAME
280
     2
  9
$REALWORLDSCALE
290
     1
  9
$INTERFERECOLOR
 62
   256
  9
$CSHADOW
280
     0
  9
$SHADOWPLANELOCATION
 40
0.0
  0
ENDSEC
  0
SECTION
  2
CLASSES
  0
CLASS
  1
ACDBDICTIONARYWDFLT
  2
AcDbDictionaryWithDefault
  3
ObjectDBX Classes
 90
        0
 91
        4
280
     0
281
     0
  0
CLASS
  1
VISUALSTYLE
  2
AcDbVisualStyle
  3
ObjectDBX Classes
 90
     4095
 91
        4
280
     0
281
     0
  0
CLASS
  1
MATERIAL
  2
AcDbMaterial
  3
ObjectDBX Classes
 90
     1153
 91
        4
280
     0
281
     0
  0
CLASS
  1
SCALE
  2
AcDbScale
  3
ObjectDBX Classes
 90
     1153
 91
        4
280
     0
281
     0
  0
CLASS
  1
TABLESTYLE
  2
AcDbTableStyle
  3
ObjectDBX Classes
 90
     4095
 91
        4
280
     0
281
     0
  0
CLASS
  1
MLEADERSTYLE
  2
AcDbMLeaderStyle
  3
ACDB_MLEADERSTYLE_CLASS
 90
     4095
 91
        4
280
     0
281
     0
  0
CLASS
  1
SUN
  2
AcDbSun
  3
SCENEOE
 90
     1153
 91
        4
280
     0
281
     0
  0
CLASS
  1
DICTIONARYVAR
  2
AcDbDictionaryVar
  3
ObjectDBX Classes
 90
        0
 91
        4
280
     0
281
     0
  0
CLASS
  1
CELLSTYLEMAP
  2
AcDbCellStyleMap
  3
ObjectDBX Classes
 90
     1152
 91
        4
280
     0
281
     0
  0
ENDSEC
  0
SECTION
  2
TABLES
  0
TABLE
  2
VPORT
  5
8
330
0
100
AcDbSymbolTable
 70
     1
  0
VPORT
  5
29
330
8
100
AcDbSymbolTableRecord
100
AcDbViewportTableRecord
  2
*Active
 70
     0
 10
0.0
 20
0.0
 11
1.0
 21
1.0
 12
344.1869158879
 22
148.5
 13
0.0
 23
0.0
 14
10.0
 24
10.0
 15
10.0
 25
10.0
 16
0.0
 26
0.0
 36
1.0
 17
0.0
 27
0.0
 37
0.0
 40
297.0
 41
1.9729729729
 42
50.0
 43
0.0
 44
0.0
 50
0.0
 51
0.0
 71
     0
 72
   100
 73
     1
 74
     3
 75
     0
 76
     0
 77
     0
 78
     0
281
     0
 65
     1
110
0.0
120
0.0
130
0.0
111
1.0
121
0.0
131
0.0
112
0.0
122
1.0
132
0.0
 79
     0
146
0.0
348
2F
 60
     3
 61
     5
292
     1
282
     1
141
0.0
142
0.0
 63
   250
361
6D
  0
ENDTAB
  0
TABLE
  2
LTYPE
  5
5
330
0
100
AcDbSymbolTable
 70
     1
  0
LTYPE
  5
14
330
5
100
AcDbSymbolTableRecord
100
AcDbLinetypeTableRecord
  2
ByBlock
 70
     0
  3

 72
    65
 73
     0
 40
0.0
  0
LTYPE
  5
15
330
5
100
AcDbSymbolTableRecord
100
AcDbLinetypeTableRecord
  2
ByLayer
 70
     0
  3

 72
    65
 73
     0
 40
0.0
  0
LTYPE
  5
16
330
5
100
AcDbSymbolTableRecord
100
AcDbLinetypeTableRecord
  2
Continuous
 70
     0
  3
Solid line
 72
    65
 73
     0
 40
0.0
  0
ENDTAB
  0
TABLE
  2
LAYER
  5
2
330
0
100
AcDbSymbolTable
 70
     5
  0
LAYER
  5
10
330
2
100
AcDbSymbolTableRecord
100
AcDbLayerTableRecord
  2
0
 70
     0
 62
     7
  6
Continuous
370
    -3
390
F
347
46
  0
LAYER
  5
6E
330
2
100
AcDbSymbolTableRecord
100
AcDbLayerTableRecord
  2
Default
 70
     0
 62
     7
  6
Continuous
370
    -3
390
F
347
46
  0
LAYER
  5
95
330
2
100
AcDbSymbolTableRecord
100
AcDbLayerTableRecord
  2
DV1_Default
 70
     0
 62
     7
  6
Continuous
370
    -3
390
F
347
46
  0
LAYER
  5
FE
330
2
100
AcDbSymbolTableRecord
100
AcDbLayerTableRecord
  2
DV2_Default
 70
     0
 62
     7
  6
Continuous
370
    -3
390
F
347
46
  0
LAYER
  5
198
330
2
100
AcDbSymbolTableRecord
100
AcDbLayerTableRecord
  2
DV3_Default
 70
     0
 62
     7
  6
Continuous
370
    -3
390
F
347
46
  0
ENDTAB
  0
TABLE
  2
STYLE
  5
3
330
0
100
AcDbSymbolTable
 70
     1
  0
STYLE
  5
11
330
3
100
AcDbSymbolTableRecord
100
AcDbTextStyleTableRecord
  2
Standard
 70
     0
 40
0.0
 41
1.0
 50
0.0
 71
     0
 42
10.0
  3
txt
  4

  0
ENDTAB
  0
TABLE
  2
VIEW
  5
6
330
0
100
AcDbSymbolTable
 70
     0
  0
ENDTAB
  0
TABLE
  2
UCS
  5
7
330
0
100
AcDbSymbolTable
 70
     0
  0
ENDTAB
  0
TABLE
  2
APPID
  5
9
330
0
100
AcDbSymbolTable
 70
     2
  0
APPID
  5
12
330
9
100
AcDbSymbolTableRecord
100
AcDbRegAppTableRecord
  2
ACAD
 70
     0
  0
APPID
  5
21E
330
9
100
AcDbSymbolTableRecord
100
AcDbRegAppTableRecord
  2
ACAD_MLEADERVER
 70
     0
  0
ENDTAB
  0
TABLE
  2
DIMSTYLE
  5
A
330
0
100
AcDbSymbolTable
 70
     1
100
AcDbDimStyleTable
  0
DIMSTYLE
105
27
330
A
100
AcDbSymbolTableRecord
100
AcDbDimStyleTableRecord
  2
ISO-25
 70
     0
 41
2.5
 42
0.625
 43
3.75
 44
1.25
 73
     0
 74
     0
 77
     1
 78
     8
140
2.5
141
2.5
143
0.0393700787
147
0.625
171
     3
172
     1
178
     0
271
     2
272
     2
274
     3
278
    44
283
     0
284
     8
340
11
  0
ENDTAB
  0
TABLE
  2
BLOCK_RECORD
  5
1
330
0
100
AcDbSymbolTable
 70
    10
  0
BLOCK_RECORD
  5
1F
330
1
100
AcDbSymbolTableRecord
100
AcDbBlockTableRecord
  2
*Model_Space
340
22
 70
     0
280
     1
281
     0
  0
BLOCK_RECORD
  5
1B
330
1
100
AcDbSymbolTableRecord
100
AcDbBlockTableRecord
  2
*Paper_Space
340
1E
 70
     0
280
     1
281
     0
  0
BLOCK_RECORD
  5
6F
330
1
100
AcDbSymbolTableRecord
100
AcDbBlockTableRecord
  2
SEANNOT_GROUP
340
0
102
{BLKREFS
331
70
102
}
 70
     0
280
     1
281
     0
  0
BLOCK_RECORD
  5
75
330
1
100
AcDbSymbolTableRecord
100
AcDbBlockTableRecord
  2
SEANNOT_GROUP1
340
0
102
{BLKREFS
331
76
102
}
 70
     0
280
     1
281
     0
  0
BLOCK_RECORD
  5
7B
330
1
100
AcDbSymbolTableRecord
100
AcDbBlockTableRecord
  2
SEANNOT_GROUP2
340
0
102
{BLKREFS
331
7C
102
}
 70
     0
280
     1
281
     0
  0
BLOCK_RECORD
  5
81
330
1
100
AcDbSymbolTableRecord
100
AcDbBlockTableRecord
  2
SEANNOT_GROUP3
340
0
102
{BLKREFS
331
82
102
}
 70
     0
280
     1
281
     0
  0
BLOCK_RECORD
  5
87
330
1
100
AcDbSymbolTableRecord
100
AcDbBlockTableRecord
  2
SEANNOT_GROUP4
340
0
102
{BLKREFS
331
88
102
}
 70
     0
280
     1
281
     0
  0
BLOCK_RECORD
  5
8D
330
1
100
AcDbSymbolTableRecord
100
AcDbBlockTableRecord
  2
SEANNOT_GROUP5
340
0
102
{BLKREFS
331
8E
102
}
 70
     0
280
     1
281
     0
  0
BLOCK_RECORD
  5
93
330
1
100
AcDbSymbolTableRecord
100
AcDbBlockTableRecord
  2
SE
340
0
102
{BLKREFS
331
94
102
}
 70
     0
280
     1
281
     0
  0
BLOCK_RECORD
  5
FC
330
1
100
AcDbSymbolTableRecord
100
AcDbBlockTableRecord
  2
SE1
340
0
102
{BLKREFS
331
FD
102
}
 70
     0
280
     1
281
     0
  0
BLOCK_RECORD
  5
196
330
1
100
AcDbSymbolTableRecord
100
AcDbBlockTableRecord
  2
SE2
340
0
102
{BLKREFS
331
197
102
}
 70
     0
280
     1
281
     0
  0
ENDTAB
  0
ENDSEC
  0
SECTION
  2
BLOCKS
  0
BLOCK
  5
20
330
1F
100
AcDbEntity
  8
0
100
AcDbBlockBegin
  2
*Model_Space
 70
     0
 10
0.0
 20
0.0
 30
0.0
  3
*Model_Space
  1

  0
ENDBLK
  5
21
330
1F
100
AcDbEntity
  8
0
100
AcDbBlockEnd
  0
BLOCK
  5
1C
330
1B
100
AcDbEntity
 67
     1
  8
0
100
AcDbBlockBegin
  2
*Paper_Space
 70
     0
 10
0.0
 20
0.0
 30
0.0
  3
*Paper_Space
  1

  0
ENDBLK
  5
1D
330
1B
100
AcDbEntity
 67
     1
  8
0
100
AcDbBlockEnd
  0
BLOCK
  5
73
330
6F
100
AcDbEntity
  8
0
100
AcDbBlockBegin
  2
SEANNOT_GROUP
 70
     0
 10
0.0
 20
0.0
 30
0.0
  3
SEANNOT_GROUP
  1

  0
LINE
  5
71
330
6F
100
AcDbEntity
  8
Default
 62
   136
100
AcDbLine
 10
310.5363783222
 20
560.8716045623
 30
0.0
 11
270.5363792163
 21
560.8716045623
 31
0.0
  0
LINE
  5
72
330
6F
100
AcDbEntity
  8
Default
 62
   136
100
AcDbLine
 10
290.5363787692
 20
580.8716041153
 30
0.0
 11
290.5363787692
 21
540.8716050094
 31
0.0
  0
ENDBLK
  5
74
330
6F
100
AcDbEntity
  8
0
100
AcDbBlockEnd
  0
BLOCK
  5
79
330
75
100
AcDbEntity
  8
0
100
AcDbBlockBegin
  2
SEANNOT_GROUP1
 70
     0
 10
0.0
 20
0.0
 30
0.0
  3
SEANNOT_GROUP1
  1

  0
LINE
  5
77
330
75
100
AcDbEntity
  8
Default
 62
   136
100
AcDbLine
 10
58.2491323115
 20
194.9081323411
 30
0.0
 11
18.2491332056
 21
194.9081323411
 31
0.0
  0
LINE
  5
78
330
75
100
AcDbEntity
  8
Default
 62
   136
100
AcDbLine
 10
38.2491327585
 20
214.9081318941
 30
0.0
 11
38.2491327585
 21
174.9081327882
 31
0.0
  0
ENDBLK
  5
7A
330
75
100
AcDbEntity
  8
0
100
AcDbBlockEnd
  0
BLOCK
  5
7F
330
7B
100
AcDbEntity
  8
0
100
AcDbBlockBegin
  2
SEANNOT_GROUP2
 70
     0
 10
0.0
 20
0.0
 30
0.0
  3
SEANNOT_GROUP2
  1

  0
LINE
  5
7D
330
7B
100
AcDbEntity
  8
Default
 62
   136
100
AcDbLine
 10
833.2509665677
 20
880.5832822751
 30
0.0
 11
793.2509674618
 21
880.5832822751
 31
0.0
  0
LINE
  5
7E
330
7B
100
AcDbEntity
  8
Default
 62
   136
100
AcDbLine
 10
813.2509670148
 20
900.5832818281
 30
0.0
 11
813.2509670148
 21
860.5832827221
 31
0.0
  0
ENDBLK
  5
80
330
7B
100
AcDbEntity
  8
0
100
AcDbBlockEnd
  0
BLOCK
  5
85
330
81
100
AcDbEntity
  8
0
100
AcDbBlockBegin
  2
SEANNOT_GROUP3
 70
     0
 10
0.0
 20
0.0
 30
0.0
  3
SEANNOT_GROUP3
  1

  0
LINE
  5
83
330
81
100
AcDbEntity
  8
Default
 62
   136
100
AcDbLine
 10
464.0376180965
 20
784.6708822751
 30
0.0
 11
424.0376189906
 21
784.6708822751
 31
0.0
  0
LINE
  5
84
330
81
100
AcDbEntity
  8
Default
 62
   136
100
AcDbLine
 10
444.0376185436
 20
804.6708818281
 30
0.0
 11
444.0376185436
 21
764.6708827221
 31
0.0
  0
ENDBLK
  5
86
330
81
100
AcDbEntity
  8
0
100
AcDbBlockEnd
  0
BLOCK
  5
8B
330
87
100
AcDbEntity
  8
0
100
AcDbBlockBegin
  2
SEANNOT_GROUP4
 70
     0
 10
0.0
 20
0.0
 30
0.0
  3
SEANNOT_GROUP4
  1

  0
LINE
  5
89
330
87
100
AcDbEntity
  8
Default
 62
   136
100
AcDbLine
 10
58.2774935518
 20
880.5832822751
 30
0.0
 11
18.2774944459
 21
880.5832822751
 31
0.0
  0
LINE
  5
8A
330
87
100
AcDbEntity
  8
Default
 62
   136
100
AcDbLine
 10
38.2774939988
 20
900.5832818281
 30
0.0
 11
38.2774939988
 21
860.5832827221
 31
0.0
  0
ENDBLK
  5
8C
330
87
100
AcDbEntity
  8
0
100
AcDbBlockEnd
  0
BLOCK
  5
91
330
8D
100
AcDbEntity
  8
0
100
AcDbBlockBegin
  2
SEANNOT_GROUP5
 70
     0
 10
0.0
 20
0.0
 30
0.0
  3
SEANNOT_GROUP5
  1

  0
LINE
  5
8F
330
8D
100
AcDbEntity
  8
Default
 62
   136
100
AcDbLine
 10
310.5363783222
 20
784.6708822751
 30
0.0
 11
270.5363792163
 21
784.6708822751
 31
0.0
  0
LINE
  5
90
330
8D
100
AcDbEntity
  8
Default
 62
   136
100
AcDbLine
 10
290.5363787692
 20
804.6708818281
 30
0.0
 11
290.5363787692
 21
764.6708827221
 31
0.0
  0
ENDBLK
  5
92
330
8D
100
AcDbEntity
  8
0
100
AcDbBlockEnd
  0
BLOCK
  5
FA
330
93
100
AcDbEntity
  8
0
100
AcDbBlockBegin
  2
SE
 70
     0
 10
0.0
 20
0.0
 30
0.0
  3
SE
  1

  0
LINE
  5
96
330
93
100
AcDbEntity
  8
DV1_Default
 62
     7
100
AcDbLine
 10
276.0363787692
 20
834.1708822751
 30
0.0
 11
305.0363787692
 21
834.1708822751
 31
0.0
  0
ARC
  5
97
330
93
100
AcDbEntity
  8
DV1_Default
 62
     7
100
AcDbCircle
 10
290.5363787692
 20
784.6708822751
 30
0.0
 40
17.49999999999834
100
AcDbArc
 50
180.0
 51
184.3107119295
  0
ARC
  5
98
330
93
100
AcDbEntity
  8
DV1_Default
 62
     7
100
AcDbCircle
 10
290.5363787692
 20
784.6708822751
 30
0.0
 40
17.49999999999834
100
AcDbArc
 50
111.239685222
 51
112.7551891469
  0
ARC
  5
99
330
93
100
AcDbEntity
  8
DV1_Default
 62
     7
100
AcDbCircle
 10
290.5363787692
 20
784.6708822751
 30
0.0
 40
17.49999999320023
100
AcDbArc
 50
67.2418072189
 51
68.0953257637
  0
LINE
  5
9A
330
93
100
AcDbEntity
  8
DV1_Default
 62
     7
100
AcDbLine
 10
305.5363787692
 20
794.9577701661
 30
0.0
 11
305.5363787692
 21
833.6708822751
 31
0.0
  0
LINE
  5
9B
330
93
100
AcDbEntity
  8
DV1_Default
 62
     7
100
AcDbLine
 10
275.5363787692
 20
833.6708822751
 30
0.0
 11
275.5363787692
 21
794.9577701661
 31
0.0
  0
ARC
  5
9C
330
93
100
AcDbEntity
  8
DV1_Default
 62
     7
100
AcDbCircle
 10
305.0363787692
 20
833.6708822751
 30
0.0
 40
0.5000000000000004
100
AcDbArc
 50
0.0
 51
90.0
  0
ARC
  5
9D
330
93
100
AcDbEntity
  8
DV1_Default
 62
     7
100
AcDbCircle
 10
276.0363787692
 20
833.6708822751
 30
0.0
 40
0.5000000000000004
100
AcDbArc
 50
90.0
 51
180.0
  0
ARC
  5
9E
330
93
100
AcDbEntity
  8
DV1_Default
 62
     7
100
AcDbCircle
 10
270.4983854987
 20
794.9887100896
 30
0.0
 40
5.037988290762256
100
AcDbArc
 50
331.6383039147
 51
0.1233383147
  0
ARC
  5
9F
330
93
100
AcDbEntity
  8
DV1_Default
 62
     7
100
AcDbCircle
 10
310.5725465824
 20
794.9852345843
 30
0.0
 40
5.036221258079964
100
AcDbArc
 50
179.8717339868
 51
204.0206610519
  0
ARC
  5
A0
330
93
100
AcDbEntity
  8
DV1_Default
 62
     7
100
AcDbCircle
 10
290.536378769
 20
784.6708822747
 30
0.0
 40
17.5
100
AcDbArc
 50
112.7551891458
 51
246.883789616
  0
ARC
  5
A1
330
93
100
AcDbEntity
  8
DV1_Default
 62
     7
100
AcDbCircle
 10
290.536378989
 20
784.6708778146
 30
0.0
 40
17.50000444626279
100
AcDbArc
 50
66.6521158417
 51
98.1951248794
  0
ARC
  5
A2
330
93
100
AcDbEntity
  8
DV1_Default
 62
     7
100
AcDbCircle
 10
290.5363787692
 20
784.6708822751
 30
0.0
 40
17.5
100
AcDbArc
 50
293.1067347393
 51
67.2418072189
  0
LINE
  5
A3
330
93
100
AcDbEntity
  8
DV1_Default
 62
     7
100
AcDbLine
 10
297.5161075168
 20
800.6600676412
 30
0.0
 11
297.4718574289
 21
800.7379033492
 31
0.0
  0
SPLINE
  5
A4
330
93
100
AcDbEntity
  8
DV1_Default
 62
     7
100
AcDbSpline
210
0.0
220
0.0
230
1.0
 70
     8
 71
     3
 72
    21
 73
    17
 74
     0
 42
0.000000001
 43
0.0000000001
 40
0.0
 40
0.0
 40
0.0
 40
0.0
 40
0.0780717584251573
 40
0.1567870691653624
 40
0.2367189989511965
 40
0.3183277522261156
 40
0.4019809981137887
 40
0.4879794521671613
 40
0.5765848945232779
 40
0.6680487066520375
 40
0.7477149024252933
 40
0.8262514728066241
 40
0.879409318015996
 40
0.9214028262143236
 40
0.9655187123335474
 40
1.0
 40
1.0
 40
1.0
 40
1.0
 10
297.5161072450709
 20
800.6600670881718
 30
0.0
 10
297.5169791792239
 20
800.6492591565614
 30
0.0
 10
297.518729427925
 20
800.6275542038314
 30
0.0
 10
297.5101549155569
 20
800.5905887340242
 30
0.0
 10
297.493899406282
 20
800.5503946929468
 30
0.0
 10
297.4695294141832
 20
800.5066460664267
 30
0.0
 10
297.4376988744723
 20
800.4594322873822
 30
0.0
 10
297.3987751444308
 20
800.4087218214474
 30
0.0
 10
297.3532130558657
 20
800.3545226418652
 30
0.0
 10
297.3042915962412
 20
800.2999323978263
 30
0.0
 10
297.2540372913666
 20
800.2462960866878
 30
0.0
 10
297.2095712066109
 20
800.2000882300794
 30
0.0
 10
297.1721112832498
 20
800.1615715613167
 30
0.0
 10
297.1421341975758
 20
800.1301337788352
 30
0.0
 10
297.1166618090865
 20
800.101487463202
 30
0.0
 10
297.1054454937421
 20
800.0790828201168
 30
0.0
 10
297.1005042359999
 20
800.0692538601919
 30
0.0
  0
LINE
  5
A5
330
93
100
AcDbEntity
  8
DV1_Default
 62
     7
100
AcDbLine
 10
297.1004963288
 20
800.069253936
 30
0.0
 11
296.8212685164
 21
734.9195177015
 31
0.0
  0
SPLINE
  5
A6
330
93
100
AcDbEntity
  8
DV1_Default
 62
     7
100
AcDbSpline
210
0.0
220
0.0
230
1.0
 70
     8
 71
     3
 72
     8
 73
     4
 74
     0
 42
0.000000001
 43
0.0000000001
 40
0.0
 40
0.0
 40
0.0
 40
0.0
 40
1.0
 40
1.0
 40
1.0
 40
1.0
 10
283.8332781270628
 20
734.916970343653
 30
0.0
 10
283.8089792259116
 20
734.9168484805606
 30
0.0
 10
283.8050511804885
 20
734.9168609472136
 30
0.0
 10
283.8264356050659
 20
734.9170362214319
 30
0.0
  0
LINE
  5
A7
330
93
100
AcDbEntity
  8
DV1_Default
 62
     7
100
AcDbLine
 10
284.2514381037
 20
734.9195153815
 30
0.0
 11
283.9823817748
 21
800.0734060889
 31
0.0
  0
LINE
  5
A8
330
93
100
AcDbEntity
  8
DV1_Default
 62
     7
100
AcDbLine
 10
283.6010772234
 20
800.7379775876
 30
0.0
 11
283.556658737
 21
800.6602653795
 31
0.0
  0
SPLINE
  5
A9
330
93
100
AcDbEntity
  8
DV1_Default
 62
     7
100
AcDbSpline
210
0.0
220
0.0
230
1.0
 70
     8
 71
     3
 72
    15
 73
    11
 74
     0
 42
0.000000001
 43
0.0000000001
 40
0.0
 40
0.0
 40
0.0
 40
0.0
 40
0.0555422970090758
 40
0.1356594982915999
 40
0.2668738607510501
 40
0.3837201906136652
 40
0.5189756253619487
 40
0.6893321573394168
 40
0.8486544911798776
 40
1.0
 40
1.0
 40
1.0
 40
1.0
 10
283.9823805178279
 20
800.0734060767818
 30
0.0
 10
283.9697834797657
 20
800.0857111696313
 30
0.0
 10
283.9390234220543
 20
800.1157658566638
 30
0.0
 10
283.8817646510105
 20
800.1767819916021
 30
0.0
 10
283.8149962445718
 20
800.2524803598568
 30
0.0
 10
283.7389783646739
 20
800.3345937780825
 30
0.0
 10
283.6635241528346
 20
800.4203280897536
 30
0.0
 10
283.5989197181386
 20
800.5094457076281
 30
0.0
 10
283.5564196297006
 20
800.5939622979632
 30
0.0
 10
283.556580332543
 20
800.6385433814802
 30
0.0
 10
283.556660600175
 20
800.6602615858318
 30
0.0
  0
ARC
  5
AA
330
93
100
AcDbEntity
  8
DV1_Default
 62
     7
100
AcDbCircle
 10
-15301.6918191116
 20
828.3608421152
 30
0.0
 40
15599.21055879077
100
AcDbArc
 50
359.6567793736
 51
359.7804058415
  0
SPLINE
  5
AB
330
93
100
AcDbEntity
  8
DV1_Default
 62
     7
100
AcDbSpline
210
0.0
220
0.0
230
1.0
 70
     8
 71
     3
 72
    18
 73
    14
 74
     0
 42
0.000000001
 43
0.0000000001
 40
0.0
 40
0.0
 40
0.0
 40
0.0
 40
0.0393380599008527
 40
0.1278351597601184
 40
0.2102633004521326
 40
0.2888607999881123
 40
0.3997241879406458
 40
0.4720414463746926
 40
0.5537401733218602
 40
0.645398844794531
 40
0.7506857608151707
 40
0.8720933110512407
 40
1.0
 40
1.0
 40
1.0
 40
1.0
 10
290.6793517237894
 20
727.7011205220409
 30
0.0
 10
290.8767760819445
 20
727.6999617757617
 30
0.0
 10
291.4244890434964
 20
727.6976669821694
 30
0.0
 10
292.3946383430926
 20
727.7535512325217
 30
0.0
 10
293.4488694536288
 20
727.8596239201229
 30
0.0
 10
294.5102533277277
 20
728.0412195164995
 30
0.0
 10
295.3797183839422
 20
728.3054319718663
 30
0.0
 10
296.0659588147966
 20
728.7374498874243
 30
0.0
 10
296.5496894621988
 20
729.3199306553486
 30
0.0
 10
296.9052288738574
 20
730.2508204802991
 30
0.0
 10
297.118175541112
 20
731.5752128768994
 30
0.0
 10
297.2105839005439
 20
733.2208993983809
 30
0.0
 10
297.2311186931156
 20
734.2754713296496
 30
0.0
 10
297.2385383711988
 20
734.9169808311984
 30
0.0
  0
SPLINE
  5
AC
330
93
100
AcDbEntity
  8
DV1_Default
 62
     7
100
AcDbSpline
210
0.0
220
0.0
230
1.0
 70
     8
 71
     3
 72
    16
 73
    12
 74
     0
 42
0.000000001
 43
0.0000000001
 40
0.0
 40
0.0
 40
0.0
 40
0.0
 40
0.1510182919862191
 40
0.2970062773286578
 40
0.4238529458490348
 40
0.5320783925852963
 40
0.6249604856898844
 40
0.7045966378639232
 40
0.8270614797852642
 40
0.9453104465343602
 40
1.0
 40
1.0
 40
1.0
 40
1.0
 10
283.8332695650096
 20
735.0621615952268
 30
0.0
 10
283.8375824966489
 20
734.4995927085998
 30
0.0
 10
283.8497596934209
 20
733.5674026231816
 30
0.0
 10
283.9053392649137
 20
732.1036766094486
 30
0.0
 10
284.0364422288081
 20
730.8763230541224
 30
0.0
 10
284.256474534216
 20
729.9393098295282
 30
0.0
 10
284.5547858880072
 20
729.2915749777516
 30
0.0
 10
284.9833027890239
 20
728.7600838934795
 30
0.0
 10
285.6095574740128
 20
728.3471433960426
 30
0.0
 10
286.3283854564978
 20
728.1099710916942
 30
0.0
 10
286.8002492666772
 20
728.0071200219505
 30
0.0
 10
286.9538546866891
 20
727.9776752097397
 30
0.0
  0
SPLINE
  5
AD
330
93
100
AcDbEntity
  8
DV1_Default
 62
     7
100
AcDbSpline
210
0.0
220
0.0
230
1.0
 70
     8
 71
     3
 72
     8
 73
     4
 74
     0
 42
0.000000001
 43
0.0000000001
 40
0.0
 40
0.0
 40
0.0
 40
0.0
 40
1.0
 40
1.0
 40
1.0
 40
1.0
 10
283.6659253015133
 20
768.5759492474415
 30
0.0
 10
283.6756944990347
 20
766.2664689301066
 30
0.0
 10
283.7316539828228
 20
755.0468119642468
 30
0.0
 10
283.8338037528775
 20
734.9169783498619
 30
0.0
  0
LINE
  5
AE
330
93
100
AcDbEntity
  8
DV1_Default
 62
     7
100
AcDbLine
 10
304.4863787692
 20
834.1708822751
 30
0.0
 11
304.4863787692
 21
834.4708822751
 31
0.0
  0
LINE
  5
AF
330
93
100
AcDbEntity
  8
DV1_Default
 62
     7
100
AcDbLine
 10
276.5863787692
 20
834.4708822751
 30
0.0
 11
276.5863787692
 21
834.1708822751
 31
0.0
  0
ARC
  5
B0
330
93
100
AcDbEntity
  8
DV1_Default
 62
     7
100
AcDbCircle
 10
304.2863787692
 20
834.4708822751
 30
0.0
 40
0.2000000000000005
100
AcDbArc
 50
0.0
 51
90.0
  0
ARC
  5
B1
330
93
100
AcDbEntity
  8
DV1_Default
 62
     7
100
AcDbCircle
 10
276.7863787692
 20
834.4708822751
 30
0.0
 40
0.1999999999999988
100
AcDbArc
 50
90.0
 51
180.0
  0
LINE
  5
B2
330
93
100
AcDbEntity
  8
DV1_Default
 62
     7
100
AcDbLine
 10
21.5960883878
 20
896.7708822751
 30
0.0
 11
21.5960883878
 21
896.4708822751
 31
0.0
  0
ARC
  5
B3
330
93
100
AcDbEntity
  8
DV1_Default
 62
     7
100
AcDbCircle
 10
21.7960883878
 20
896.7708822751
 30
0.0
 40
0.2000000000000057
100
AcDbArc
 50
90.0
 51
180.0
  0
ELLIPSE
  5
B4
330
93
100
AcDbEntity
  8
DV1_Default
 62
     7
100
AcDbEllipse
 10
38.4607512443
 20
918.9708822751
 30
0.0
 11
3.847810958745868E-8
 21
-17.50000000000255
 31
0.0
210
0.0
220
0.0
230
1.0
 40
0.9999619231
 41
3.527650886273079
 42
6.283185307179586
  0
ELLIPSE
  5
B5
330
93
100
AcDbEntity
  8
DV1_Default
 62
     7
100
AcDbEllipse
 10
38.7317101762
 20
918.9708822861
 30
0.0
 11
17.96031823975818
 21
-6.456074416044403E-8
 31
0.0
210
0.0
220
0.0
230
1.0
 40
0.9698919054
 41
-1.174142454578905
 42
1.177853351062335
  0
ARC
  5
B6
330
93
100
AcDbEntity
  8
DV1_Default
 62
     7
100
AcDbCircle
 10
38.7433701383
 20
918.9346226872
 30
0.0
 40
17.46342687842336
100
AcDbArc
 50
269.9863236377
 51
293.3694796
  0
SPLINE
  5
B7
330
93
100
AcDbEntity
  8
DV1_Default
 62
     7
100
AcDbSpline
210
0.0
220
0.0
230
1.0
 70
     8
 71
     3
 72
    23
 73
    19
 74
     0
 42
0.000000001
 43
0.0000000001
 40
0.0
 40
0.0
 40
0.0
 40
0.0
 40
0.4365876528481326
 40
0.4365876528481326
 40
0.4365876528481326
 40
0.4846924575183637
 40
0.533540767117912
 40
0.583413823563409
 40
0.6345363182295191
 40
0.6870920255662155
 40
0.7412409256617514
 40
0.7971366437307574
 40
0.8458225569343681
 40
0.8938181291062521
 40
0.9263041567473921
 40
0.9519673916416236
 40
0.9789276623267456
 40
1.0
 40
1.0
 40
1.0
 40
1.0
 10
31.68402475064283
 20
902.8363701801956
 30
0.0
 10
31.7854975650621
 20
902.9246233601948
 30
0.0
 10
31.7528849870761
 20
902.9626175100926
 30
0.0
 10
31.75816317397165
 20
903.0148101996948
 30
0.0
 10
31.75933542372725
 20
903.0264018444849
 30
0.0
 10
31.76546488389179
 20
903.0511758161798
 30
0.0
 10
31.78227148316018
 20
903.0913698572572
 30
0.0
 10
31.80716566205136
 20
903.1351184837771
 30
0.0
 10
31.83948767328035
 20
903.1823322628218
 30
0.0
 10
31.87886386429392
 20
903.2330427287566
 30
0.0
 10
31.92483299478252
 20
903.2872419083388
 30
0.0
 10
31.97409001540649
 20
903.3418321523777
 30
0.0
 10
32.02460951821176
 20
903.3954684635162
 30
0.0
 10
32.06925459966944
 20
903.4416763201247
 30
0.0
 10
32.10683027792224
 20
903.4801929888872
 30
0.0
 10
32.13688140750418
 20
903.5116307713688
 30
0.0
 10
32.16240256790856
 20
903.5402770870019
 30
0.0
 10
32.17363539965915
 20
903.562681730087
 30
0.0
 10
32.17858284340355
 20
903.5725106900121
 30
0.0
  0
LINE
  5
B8
330
93
100
AcDbEntity
  8
DV1_Default
 62
     7
100
AcDbLine
 10
32.1785889298
 20
903.5725106197
 30
0.0
 11
32.457409052
 21
968.7222468542
 31
0.0
  0
LINE
  5
B9
330
93
100
AcDbEntity
  8
DV1_Default
 62
     7
100
AcDbLine
 10
45.0267667938
 20
968.7222491725
 30
0.0
 11
45.2962216255
 21
903.5683584651
 31
0.0
  0
LINE
  5
BA
330
93
100
AcDbEntity
  8
DV1_Default
 62
     7
100
AcDbLine
 10
45.6703942133
 20
902.9037885096
 30
0.0
 11
45.717269733
 21
902.9814991707
 31
0.0
  0
SPLINE
  5
BB
330
93
100
AcDbEntity
  8
DV1_Default
 62
     7
100
AcDbSpline
210
0.0
220
0.0
230
1.0
 70
     8
 71
     3
 72
    15
 73
    11
 74
     0
 42
0.000000001
 43
0.0000000001
 40
0.0
 40
0.0
 40
0.0
 40
0.0
 40
0.0555422970090758
 40
0.1356594982915999
 40
0.2668738607510501
 40
0.3837201906136652
 40
0.5189756253619487
 40
0.6893321573394168
 40
0.8486544911798776
 40
1.0
 40
1.0
 40
1.0
 40
1.0
 10
45.29622205756259
 20
903.5683584734221
 30
0.0
 10
45.30880005410356
 20
903.5560533805726
 30
0.0
 10
45.33951315614048
 20
903.5259986935403
 30
0.0
 10
45.39662505048683
 20
903.464982558602
 30
0.0
 10
45.46313581198924
 20
903.3892841903471
 30
0.0
 10
45.53871057492792
 20
903.3071707721214
 30
0.0
 10
45.61352554635911
 20
903.2214364604504
 30
0.0
 10
45.677247391536
 20
903.132318842576
 30
0.0
 10
45.71866584755957
 20
903.0478022522408
 30
0.0
 10
45.71772713741243
 20
903.0032211687238
 30
0.0
 10
45.7172678557771
 20
902.9815029643722
 30
0.0
  0
LINE
  5
BC
330
93
100
AcDbEntity
  8
DV1_Default
 62
     7
100
AcDbLine
 10
38.4607512407
 20
901.470885454
 30
0.0
 11
38.7392016611
 21
901.4711963063
 31
0.0
  0
ARC
  5
BD
330
93
100
AcDbEntity
  8
DV1_Default
 62
     7
100
AcDbCircle
 10
15642.0640631976
 20
875.3447923364
 30
0.0
 40
15610.30719314257
100
AcDbArc
 50
179.6572577767
 51
179.7803708251
  0
SPLINE
  5
BE
330
93
100
AcDbEntity
  8
DV1_Default
 62
     7
100
AcDbSpline
210
0.0
220
0.0
230
1.0
 70
     8
 71
     3
 72
    18
 73
    14
 74
     0
 42
0.000000001
 43
0.0000000001
 40
0.0
 40
0.0
 40
0.0
 40
0.0
 40
0.0393471163047529
 40
0.1278499064745168
 40
0.2102857759904828
 40
0.288893574820871
 40
0.3997719742871316
 40
0.4720950650386549
 40
0.5537929324434211
 40
0.6454405467795545
 40
0.7507080560661105
 40
0.8720973817252693
 40
1.0
 40
1.0
 40
1.0
 40
1.0
 10
38.54893119902633
 20
975.9406480147206
 30
0.0
 10
38.35144681818367
 20
975.9418003106686
 30
0.0
 10
37.80366022363377
 20
975.944075248416
 30
0.0
 10
36.83537212346985
 20
975.8881481108617
 30
0.0
 10
35.78458753627014
 20
975.7819627629694
 30
0.0
 10
34.72847056048909
 20
975.6000931803579
 30
0.0
 10
33.86577621428447
 20
975.3357032123622
 30
0.0
 10
33.1872995471015
 20
974.9035693466304
 30
0.0
 10
32.71084981876185
 20
974.3210673580238
 30
0.0
 10
32.36248815806728
 20
973.3902752012217
 30
0.0
 10
32.15489483061776
 20
972.0661059040244
 30
0.0
 10
32.06465686328344
 20
970.420670335973
 30
0.0
 10
32.04408320245619
 20
969.3662437206385
 30
0.0
 10
32.03650980920489
 20
968.7247862691738
 30
0.0
  0
SPLINE
  5
BF
330
93
100
AcDbEntity
  8
DV1_Default
 62
     7
100
AcDbSpline
210
0.0
220
0.0
230
1.0
 70
     8
 71
     3
 72
    16
 73
    12
 74
     0
 42
0.000000001
 43
0.0000000001
 40
0.0
 40
0.0
 40
0.0
 40
0.0
 40
0.1511658178703295
 40
0.2973178011441738
 40
0.4243189097080564
 40
0.5326767652671082
 40
0.6256648696805598
 40
0.7053823776621662
 40
0.8279558228735772
 40
0.9463026349239255
 40
1.0
 40
1.0
 40
1.0
 40
1.0
 10
45.4412897165245
 20
968.5796017160973
 30
0.0
 10
45.43705636934861
 20
969.1422052339469
 30
0.0
 10
45.4248648418335
 20
970.0745235166039
 30
0.0
 10
45.36792453826852
 20
971.538528432108
 30
0.0
 10
45.23319522292466
 20
972.7662171739041
 30
0.0
 10
45.0080331385247
 20
973.7034889015132
 30
0.0
 10
44.70413349235864
 20
974.3513040318684
 30
0.0
 10
44.2692823535101
 20
974.8827132972625
 30
0.0
 10
43.63635290197234
 20
975.2952447705344
 30
0.0
 10
42.91455921834356
 20
975.5313496042074
 30
0.0
 10
42.44304664126525
 20
975.6337039035546
 30
0.0
 10
42.29169582436404
 20
975.6626794523748
 30
0.0
  0
SPLINE
  5
C0
330
93
100
AcDbEntity
  8
DV1_Default
 62
     7
100
AcDbSpline
210
0.0
220
0.0
230
1.0
 70
     8
 71
     3
 72
     8
 73
     4
 74
     0
 42
0.000000001
 43
0.0000000001
 40
0.0
 40
0.0
 40
0.0
 40
0.0
 40
0.9999999999999999
 40
0.9999999999999999
 40
0.9999999999999999
 40
0.9999999999999999
 10
45.60887323523005
 20
935.0628376156732
 30
0.0
 10
45.59902265562239
 20
937.3844422568179
 30
0.0
 10
45.54277427148361
 20
948.6051360944026
 30
0.0
 10
45.44013326887891
 20
968.7249179759681
 30
0.0
  0
ARC
  5
C1
330
93
100
AcDbEntity
  8
DV1_Default
 62
     7
100
AcDbCircle
 10
290.5363787692
 20
784.6708822751
 30
0.0
 40
23.04999999908
100
AcDbArc
 50
0.0
 51
49.4011317739
  0
ARC
  5
C2
330
93
100
AcDbEntity
  8
DV1_Default
 62
     7
100
AcDbCircle
 10
290.536378769
 20
784.6708822743
 30
0.0
 40
23.04999999908
100
AcDbArc
 50
130.5988682244
 51
252.7321190235
  0
ARC
  5
C3
330
93
100
AcDbEntity
  8
DV1_Default
 62
     7
100
AcDbCircle
 10
290.5363787692
 20
784.6708822751
 30
0.0
 40
23.04999999908
100
AcDbArc
 50
287.272695167
 51
360.0
  0
ARC
  5
C4
330
93
100
AcDbEntity
  8
DV1_Default
 62
     7
100
AcDbCircle
 10
290.5363787692
 20
784.6708822751
 30
0.0
 40
29.99999999879
100
AcDbArc
 50
0.0
 51
59.9999999987
  0
ARC
  5
C5
330
93
100
AcDbEntity
  8
DV1_Default
 62
     7
100
AcDbCircle
 10
290.5363787691
 20
784.6708822747
 30
0.0
 40
29.99999999879
100
AcDbArc
 50
120.0000000008
 51
256.8867855758
  0
ARC
  5
C6
330
93
100
AcDbEntity
  8
DV1_Default
 62
     7
100
AcDbCircle
 10
290.5363787692
 20
784.6708822751
 30
0.0
 40
29.99999999879
100
AcDbArc
 50
283.1244120441
 51
360.0
  0
LINE
  5
C7
330
93
100
AcDbEntity
  8
DV1_Default
 62
     7
100
AcDbLine
 10
49.2274939988
 20
880.9785262139
 30
0.0
 11
49.2274939988
 21
880.7046911518
 31
0.0
  0
LINE
  5
C8
330
93
100
AcDbEntity
  8
DV1_Default
 62
     7
100
AcDbLine
 10
49.2274939988
 20
880.9785262139
 30
0.0
 11
49.2274939988
 21
881.1163653574
 31
0.0
  0
LINE
  5
C9
330
93
100
AcDbEntity
  8
DV1_Default
 62
     7
100
AcDbLine
 10
49.2185280875
 20
884.3932822751
 30
0.0
 11
49.234387324
 21
884.3932822751
 31
0.0
  0
LINE
  5
CA
330
93
100
AcDbEntity
  8
DV1_Default
 62
     7
100
AcDbLine
 10
49.2274939988
 20
881.1163653574
 30
0.0
 11
49.2274939988
 21
884.3932822751
 31
0.0
  0
LINE
  5
CB
330
93
100
AcDbEntity
  8
DV1_Default
 62
     7
100
AcDbLine
 10
50.2774939988
 20
884.3932822751
 30
0.0
 11
49.2349901654
 21
884.3932822751
 31
0.0
  0
LINE
  5
CC
330
93
100
AcDbEntity
  8
DV1_Default
 62
     7
100
AcDbLine
 10
27.3199978322
 20
884.3932822751
 30
0.0
 11
26.2774939988
 21
884.3932822751
 31
0.0
  0
LINE
  5
CD
330
93
100
AcDbEntity
  8
DV1_Default
 62
     7
100
AcDbLine
 10
27.3206006736
 20
884.3932822751
 30
0.0
 11
27.3364599102
 21
884.3932822751
 31
0.0
  0
LINE
  5
CE
330
93
100
AcDbEntity
  8
DV1_Default
 62
     7
100
AcDbLine
 10
27.3274939988
 20
884.3932822751
 30
0.0
 11
27.3274939988
 21
881.1163672572
 31
0.0
  0
LINE
  5
CF
330
93
100
AcDbEntity
  8
DV1_Default
 62
     7
100
AcDbLine
 10
27.3274939988
 20
881.1163672572
 30
0.0
 11
27.3274939988
 21
880.9785262139
 31
0.0
  0
LINE
  5
D0
330
93
100
AcDbEntity
  8
DV1_Default
 62
     7
100
AcDbLine
 10
50.2774939988
 20
884.3932822751
 30
0.0
 11
50.2774939988
 21
890.9708822751
 31
0.0
  0
LINE
  5
D1
330
93
100
AcDbEntity
  8
DV1_Default
 62
     7
100
AcDbLine
 10
26.2774939988
 20
890.9708822751
 30
0.0
 11
26.2774939988
 21
884.3932822751
 31
0.0
  0
SPLINE
  5
D2
330
93
100
AcDbEntity
  8
DV1_Default
 62
     7
100
AcDbSpline
210
0.0
220
0.0
230
1.0
 70
     8
 71
     3
 72
    30
 73
    26
 74
     0
 42
0.000000001
 43
0.0000000001
 40
0.0
 40
0.0
 40
0.0
 40
0.0
 40
0.0597837914606663
 40
0.0597837914606663
 40
0.1226692291576367
 40
0.1226692291576367
 40
0.2484401045515775
 40
0.2484401045515775
 40
0.3742109799455183
 40
0.3742109799455183
 40
0.4370964176424889
 40
0.4370964176424889
 40
0.4999818553394594
 40
0.4999818553394594
 40
0.5628672930364299
 40
0.5628672930364299
 40
0.6257527307334005
 40
0.6257527307334005
 40
0.7515236061273413
 40
0.7515236061273413
 40
0.8144090438243117
 40
0.8144090438243117
 40
0.8772944815212822
 40
0.8772944815212822
 40
1.0
 40
1.0
 40
1.0
 40
1.0
 10
50.5460928697468
 20
844.1715575986613
 30
0.0
 10
50.54616204853103
 20
844.1802297788878
 30
0.0
 10
50.47639130396557
 20
844.272315731431
 30
0.0
 10
50.20338772566649
 20
844.6194677714731
 30
0.0
 10
49.99074654335583
 20
844.8860578955771
 30
0.0
 10
49.20293981722423
 20
845.8832654945467
 30
0.0
 10
48.46577783333872
 20
846.822383472799
 30
0.0
 10
46.88164252780605
 20
849.0316029051647
 30
0.0
 10
46.01421963732083
 20
850.3129105039915
 30
0.0
 10
44.91314558645751
 20
852.4912645589842
 30
0.0
 10
44.57628275110307
 20
853.275747743409
 30
0.0
 10
44.09214684775847
 20
854.9193205797742
 30
0.0
 10
43.94650843814135
 20
855.8006441955192
 30
0.0
 10
43.94632433573395
 20
857.5393541682888
 30
0.0
 10
44.09204450740459
 20
858.4212599766602
 30
0.0
 10
44.57469221624908
 20
860.0614508014996
 30
0.0
 10
44.91031702112181
 20
860.8444155369182
 30
0.0
 10
46.01313175115532
 20
863.0276742144811
 30
0.0
 10
46.88077686111674
 20
864.3088625878756
 30
0.0
 10
48.06846298662185
 20
865.9653355252252
 30
0.0
 10
48.44706382482033
 20
866.4702742250873
 30
0.0
 10
49.14514378761242
 20
867.3826958091752
 30
0.0
 10
49.46397395475699
 20
867.7889044127776
 30
0.0
 10
50.23858550693737
 20
868.7694456113817
 30
0.0
 10
50.54557426787631
 20
869.1517382476621
 30
0.0
 10
50.54606845422993
 20
869.1701826151225
 30
0.0
  0
LINE
  5
D3
330
93
100
AcDbEntity
  8
DV1_Default
 62
     7
100
AcDbLine
 10
23.2774939989
 20
896.4708822751
 30
0.0
 11
21.0460883878
 21
896.4708822751
 31
0.0
  0
LINE
  5
D4
330
93
100
AcDbEntity
  8
DV1_Default
 62
     7
100
AcDbLine
 10
49.5460883878
 20
834.6708822751
 30
0.0
 11
21.5460883878
 21
834.6708822751
 31
0.0
  0
LINE
  5
D5
330
93
100
AcDbEntity
  8
DV1_Default
 62
     7
100
AcDbLine
 10
20.5460883878
 20
895.9708822751
 30
0.0
 11
20.5460883878
 21
835.6708822751
 31
0.0
  0
LINE
  5
D6
330
93
100
AcDbEntity
  8
DV1_Default
 62
     7
100
AcDbLine
 10
50.5460883878
 20
869.1622757038
 30
0.0
 11
50.5460883878
 21
890.9708822751
 31
0.0
  0
LINE
  5
D7
330
93
100
AcDbEntity
  8
DV1_Default
 62
     7
100
AcDbLine
 10
50.5460883878
 20
835.6708822751
 30
0.0
 11
50.5460883878
 21
844.1800252371
 31
0.0
  0
ARC
  5
D8
330
93
100
AcDbEntity
  8
DV1_Default
 62
     7
100
AcDbCircle
 10
21.0460883878
 20
895.9708822751
 30
0.0
 40
0.5000000000000004
100
AcDbArc
 50
90.0
 51
180.0
  0
ARC
  5
D9
330
93
100
AcDbEntity
  8
DV1_Default
 62
     7
100
AcDbCircle
 10
21.5460883878
 20
835.6708822751
 30
0.0
 40
1.000000000000001
100
AcDbArc
 50
180.0
 51
270.0
  0
ARC
  5
DA
330
93
100
AcDbEntity
  8
DV1_Default
 62
     7
100
AcDbCircle
 10
49.5460883878
 20
835.6708822751
 30
0.0
 40
1.000000000000001
100
AcDbArc
 50
270.0
 51
0.0
  0
LINE
  5
DB
330
93
100
AcDbEntity
  8
DV1_Default
 62
     7
100
AcDbLine
 10
50.5460883878
 20
844.1708822751
 30
0.0
 11
275.5369499232
 21
844.1708822751
 31
0.0
  0
LINE
  5
DC
330
93
100
AcDbEntity
  8
DV1_Default
 62
     7
100
AcDbLine
 10
275.5369499232
 20
869.1708822751
 30
0.0
 11
50.5460883878
 21
869.1708822751
 31
0.0
  0
LINE
  5
DD
330
93
100
AcDbEntity
  8
DV1_Default
 62
     7
100
AcDbLine
 10
276.0363787692
 20
834.6708822751
 30
0.0
 11
305.0363787692
 21
834.6708822751
 31
0.0
  0
SPLINE
  5
DE
330
93
100
AcDbEntity
  8
DV1_Default
 62
     7
100
AcDbSpline
210
0.0
220
0.0
230
1.0
 70
     8
 71
     3
 72
    32
 73
    28
 74
     0
 42
0.000000001
 43
0.0000000001
 40
0.0
 40
0.0
 40
0.0
 40
0.0
 40
0.0623057628628544
 40
0.0623057628628544
 40
0.1246115257257089
 40
0.1246115257257089
 40
0.2492230514514177
 40
0.2492230514514177
 40
0.3738345771771266
 40
0.3738345771771266
 40
0.4361403400399812
 40
0.4361403400399812
 40
0.4984461029028357
 40
0.4984461029028357
 40
0.5607518657656902
 40
0.5607518657656902
 40
0.6230576286285449
 40
0.6230576286285449
 40
0.7476691543542536
 40
0.7476691543542536
 40
0.809974917217108
 40
0.809974917217108
 40
0.8722806800799626
 40
0.8722806800799626
 40
0.9968922058056714
 40
0.9968922058056714
 40
1.0
 40
1.0
 40
1.0
 40
1.0
 10
275.536949923241
 20
869.170882275102
 30
0.0
 10
275.5446639715088
 20
869.170882275102
 30
0.0
 10
275.6296398929159
 20
869.0782264301255
 30
0.0
 10
275.9389128445251
 20
868.7222967787311
 30
0.0
 10
276.1658827211411
 20
868.4557066546271
 30
0.0
 10
276.9934806291735
 20
867.4584990556576
 30
0.0
 10
277.7537224324374
 20
866.5193810774053
 30
0.0
 10
279.3756001049753
 20
864.3101616450394
 30
0.0
 10
280.2580926213396
 20
863.0288540462128
 30
0.0
 10
281.3753890842358
 20
860.8504999912201
 30
0.0
 10
281.716657358457
 20
860.0660168067951
 30
0.0
 10
282.2068279257381
 20
858.4224439704301
 30
0.0
 10
282.3541210338891
 20
857.541120354685
 30
0.0
 10
282.3543072801521
 20
855.8024103819154
 30
0.0
 10
282.2069310944577
 20
854.9205045735441
 30
0.0
 10
281.7182681647535
 20
853.2803137487047
 30
0.0
 10
281.3782571340753
 20
852.4973490132861
 30
0.0
 10
280.259200894568
 20
850.3140903357232
 30
0.0
 10
279.3764812292457
 20
849.0329019623287
 30
0.0
 10
278.1605059694618
 20
847.376429024979
 30
0.0
 10
277.7715581595828
 20
846.8714903251168
 30
0.0
 10
277.0506256525157
 20
845.9590687410291
 30
0.0
 10
276.71924690083
 20
845.5528601374267
 30
0.0
 10
275.8921154256041
 20
844.5561235982427
 30
0.0
 10
275.5525662938588
 20
844.1710918888172
 30
0.0
 10
275.5365737775599
 20
844.1708771373304
 30
0.0
 10
275.5363778676664
 20
844.171102489378
 30
0.0
 10
275.5363742456962
 20
844.1715575062464
 30
0.0
  0
LINE
  5
DF
330
93
100
AcDbEntity
  8
DV1_Default
 62
     7
100
AcDbLine
 10
276.5363787692
 20
878.6708822751
 30
0.0
 11
304.5363787692
 21
878.6708822751
 31
0.0
  0
ARC
  5
E0
330
93
100
AcDbEntity
  8
DV1_Default
 62
     7
100
AcDbCircle
 10
305.0363787692
 20
835.1708822751
 30
0.0
 40
0.5000000000000004
100
AcDbArc
 50
270.0
 51
0.0
  0
ARC
  5
E1
330
93
100
AcDbEntity
  8
DV1_Default
 62
     7
100
AcDbCircle
 10
276.0363787692
 20
835.1708822751
 30
0.0
 40
0.4999999999999987
100
AcDbArc
 50
180.0
 51
270.0
  0
LINE
  5
E2
330
93
100
AcDbEntity
  8
DV1_Default
 62
     7
100
AcDbLine
 10
305.5363787692
 20
835.1708822751
 30
0.0
 11
305.5363787692
 21
877.6708822751
 31
0.0
  0
LINE
  5
E3
330
93
100
AcDbEntity
  8
DV1_Default
 62
     7
100
AcDbLine
 10
275.5363787692
 20
844.1708822751
 30
0.0
 11
275.5363787692
 21
835.1708822751
 31
0.0
  0
LINE
  5
E4
330
93
100
AcDbEntity
  8
DV1_Default
 62
     7
100
AcDbLine
 10
275.5363787692
 20
877.6708822751
 30
0.0
 11
275.5363787692
 21
869.1708822751
 31
0.0
  0
ARC
  5
E5
330
93
100
AcDbEntity
  8
DV1_Default
 62
     7
100
AcDbCircle
 10
304.5363787692
 20
877.6708822751
 30
0.0
 40
0.9999999999999991
100
AcDbArc
 50
0.0
 51
90.0
  0
ARC
  5
E6
330
93
100
AcDbEntity
  8
DV1_Default
 62
     7
100
AcDbCircle
 10
276.5363787692
 20
877.6708822751
 30
0.0
 40
1.000000000000001
100
AcDbArc
 50
90.0
 51
180.0
  0
LINE
  5
E7
330
93
100
AcDbEntity
  8
DV1_Default
 62
     7
100
AcDbLine
 10
23.2774939989
 20
890.9708822751
 30
0.0
 11
53.2774939989
 21
890.9708822751
 31
0.0
  0
LINE
  5
E8
330
93
100
AcDbEntity
  8
DV1_Default
 62
     7
100
AcDbLine
 10
38.4258451024
 20
901.4708822758
 30
0.0
 11
38.4476614411
 21
901.4708822758
 31
0.0
  0
LINE
  5
E9
330
93
100
AcDbEntity
  8
DV1_Default
 62
     7
100
AcDbLine
 10
53.2774939989
 20
890.9708822751
 30
0.0
 11
53.2774939989
 21
908.7527497963
 31
0.0
  0
LINE
  5
EA
330
93
100
AcDbEntity
  8
DV1_Default
 62
     7
100
AcDbLine
 10
23.2774939989
 20
910.2702419213
 30
0.0
 11
23.2774939989
 21
890.9708822751
 31
0.0
  0
LINE
  5
EB
330
93
100
AcDbEntity
  8
DV1_Default
 62
     7
100
AcDbLine
 10
21.0460883879
 20
896.9708822751
 30
0.0
 11
23.2774939989
 21
896.9708822751
 31
0.0
  0
LINE
  5
EC
330
93
100
AcDbEntity
  8
DV1_Default
 62
     7
100
AcDbLine
 10
21.5460883879
 20
940.9708822751
 30
0.0
 11
31.875976222
 21
940.9708822751
 31
0.0
  0
LINE
  5
ED
330
93
100
AcDbEntity
  8
DV1_Default
 62
     7
100
AcDbLine
 10
45.6018392628
 20
940.9708822751
 30
0.0
 11
49.5460883879
 21
940.9708822751
 31
0.0
  0
LINE
  5
EE
330
93
100
AcDbEntity
  8
DV1_Default
 62
     7
100
AcDbLine
 10
50.5460883879
 20
932.091103727
 30
0.0
 11
50.5460883879
 21
939.9708822751
 31
0.0
  0
LINE
  5
EF
330
93
100
AcDbEntity
  8
DV1_Default
 62
     7
100
AcDbLine
 10
20.5460883879
 20
939.9708822751
 30
0.0
 11
20.5460883879
 21
897.4708822751
 31
0.0
  0
ARC
  5
F0
330
93
100
AcDbEntity
  8
DV1_Default
 62
     7
100
AcDbCircle
 10
49.5460883879
 20
939.9708822751
 30
0.0
 40
0.9999999999999731
100
AcDbArc
 50
0.0
 51
90.0
  0
ARC
  5
F1
330
93
100
AcDbEntity
  8
DV1_Default
 62
     7
100
AcDbCircle
 10
21.5460883879
 20
939.9708822751
 30
0.0
 40
1.000000000000001
100
AcDbArc
 50
90.0
 51
180.0
  0
ARC
  5
F2
330
93
100
AcDbEntity
  8
DV1_Default
 62
     7
100
AcDbCircle
 10
21.0460883879
 20
897.4708822751
 30
0.0
 40
0.5000000000000004
100
AcDbArc
 50
180.0
 51
270.0
  0
LINE
  5
F3
330
93
100
AcDbEntity
  8
DV1_Default
 62
     7
100
AcDbLine
 10
38.548931199
 20
975.9406480147
 30
0.0
 11
42.2916958244
 21
975.6626794524
 31
0.0
  0
LINE
  5
F4
330
93
100
AcDbEntity
  8
DV1_Default
 62
     7
100
AcDbLine
 10
27.3274939988
 20
880.8119078766
 30
0.0
 11
27.3274939988
 21
880.9785262139
 31
0.0
  0
LINE
  5
F5
330
93
100
AcDbEntity
  8
DV1_Default
 62
     7
100
AcDbLine
 10
284.1966494646
 20
800.9821615733
 30
0.0
 11
288.0418458218
 21
801.9921785711
 31
0.0
  0
LINE
  5
F6
330
93
100
AcDbEntity
  8
DV1_Default
 62
     7
100
AcDbLine
 10
286.9538546867
 20
727.9776752097
 30
0.0
 11
290.6793517238
 21
727.701120522
 31
0.0
  0
ARC
  5
F7
330
93
100
AcDbEntity
  8
DV1_Default
 62
     7
100
AcDbCircle
 10
38.7420943827
 20
933.698340274
 30
0.0
 40
35.58330088464631
100
AcDbArc
 50
79.8271362103
 51
100.1728849248
  0
ARC
  5
F8
330
93
100
AcDbEntity
  8
DV1_Default
 62
     7
100
AcDbCircle
 10
290.5363487912
 20
759.4022517183
 30
0.0
 40
25.27655991010128
100
AcDbArc
 50
255.6026073942
 51
284.3974137561
  0
LINE
  5
F9
330
93
100
AcDbEntity
  8
DV1_Default
 62
     7
100
AcDbLine
 10
27.3274939988
 20
880.8119078766
 30
0.0
 11
49.2274939988
 21
880.7046911518
 31
0.0
  0
ENDBLK
  5
FB
330
93
100
AcDbEntity
  8
0
100
AcDbBlockEnd
  0
BLOCK
  5
194
330
FC
100
AcDbEntity
  8
0
100
AcDbBlockBegin
  2
SE1
 70
     0
 10
0.0
 20
0.0
 30
0.0
  3
SE1
  1

  0
ARC
  5
FF
330
FC
100
AcDbEntity
  8
DV2_Default
 62
     7
100
AcDbCircle
 10
518.0376450464
 20
807.1709134072
 30
0.0
 40
5.000032716466582
100
AcDbArc
 50
180.0002913281
 51
269.9999028775
  0
LINE
  5
100
330
FC
100
AcDbEntity
  8
DV2_Default
 62
     7
100
AcDbLine
 10
495.1376185436
 20
829.8208822751
 30
0.0
 11
483.0376185436
 21
829.8208822751
 31
0.0
  0
LINE
  5
101
330
FC
100
AcDbEntity
  8
DV2_Default
 62
     7
100
AcDbLine
 10
495.1376185436
 20
831.3708822751
 30
0.0
 11
483.0376185436
 21
831.3708822751
 31
0.0
  0
LINE
  5
102
330
FC
100
AcDbEntity
  8
DV2_Default
 62
     7
100
AcDbLine
 10
483.5376185436
 20
834.1708822751
 30
0.0
 11
512.5376185436
 21
834.1708822751
 31
0.0
  0
ARC
  5
103
330
FC
100
AcDbEntity
  8
DV2_Default
 62
     7
100
AcDbCircle
 10
478.0375980011
 20
808.3725679477
 30
0.0
 40
5.000021680370448
100
AcDbArc
 50
256.2960128485
 51
359.9999455552
  0
LINE
  5
104
330
FC
100
AcDbEntity
  8
DV2_Default
 62
     7
100
AcDbLine
 10
495.1376185436
 20
831.3708822751
 30
0.0
 11
495.1376185436
 21
829.8208822751
 31
0.0
  0
LINE
  5
105
330
FC
100
AcDbEntity
  8
DV2_Default
 62
     7
100
AcDbLine
 10
538.0376185334
 20
767.6730058869
 30
0.0
 11
538.0376185336
 21
801.6707830782
 31
0.0
  0
LINE
  5
106
330
FC
100
AcDbEntity
  8
DV2_Default
 62
     7
100
AcDbLine
 10
538.0376185398
 20
767.6729673079
 30
0.0
 11
538.0376185398
 21
767.6709428884
 31
0.0
  0
LINE
  5
107
330
FC
100
AcDbEntity
  8
DV2_Default
 62
     7
100
AcDbLine
 10
513.0376185436
 20
807.1708880932
 30
0.0
 11
513.0376185436
 21
833.6708822751
 31
0.0
  0
LINE
  5
108
330
FC
100
AcDbEntity
  8
DV2_Default
 62
     7
100
AcDbLine
 10
483.0376185436
 20
829.8208822751
 30
0.0
 11
483.0376185436
 21
808.3725631965
 31
0.0
  0
LINE
  5
109
330
FC
100
AcDbEntity
  8
DV2_Default
 62
     7
100
AcDbLine
 10
483.0376185436
 20
833.6708822751
 30
0.0
 11
483.0376185436
 21
831.3708822751
 31
0.0
  0
ARC
  5
10A
330
FC
100
AcDbEntity
  8
DV2_Default
 62
     7
100
AcDbCircle
 10
512.5376185436
 20
833.6708822751
 30
0.0
 40
0.5000000000000004
100
AcDbArc
 50
0.0
 51
90.0
  0
ARC
  5
10B
330
FC
100
AcDbEntity
  8
DV2_Default
 62
     7
100
AcDbCircle
 10
483.5376185436
 20
833.6708822751
 30
0.0
 40
0.5000000000000004
100
AcDbArc
 50
90.0
 51
180.0
  0
LINE
  5
10C
330
FC
100
AcDbEntity
  8
DV2_Default
 62
     7
100
AcDbLine
 10
465.5376184891
 20
762.1708822751
 30
0.0
 11
466.1949996529
 21
762.1708822751
 31
0.0
  0
LINE
  5
10D
330
FC
100
AcDbEntity
  8
DV2_Default
 62
     7
100
AcDbLine
 10
466.1949996529
 20
807.1708822751
 30
0.0
 11
465.5376184891
 21
807.1708822751
 31
0.0
  0
ARC
  5
10E
330
FC
100
AcDbEntity
  8
DV2_Default
 62
     7
100
AcDbCircle
 10
466.1949996529
 20
765.1708822751
 30
0.0
 40
2.999999999999999
100
AcDbArc
 50
270.0
 51
295.7869019645
  0
ARC
  5
10F
330
FC
100
AcDbEntity
  8
DV2_Default
 62
     7
100
AcDbCircle
 10
466.1949996529
 20
804.1708822751
 30
0.0
 40
2.999999999999996
100
AcDbArc
 50
64.2130980355
 51
90.0
  0
ARC
  5
110
330
FC
100
AcDbEntity
  8
DV2_Default
 62
     7
100
AcDbCircle
 10
488.0376185436
 20
849.380882275
 30
0.0
 40
47.20999999994999
100
AcDbArc
 50
244.2130980353
 51
256.2944867474
  0
ARC
  5
111
330
FC
100
AcDbEntity
  8
DV2_Default
 62
     7
100
AcDbCircle
 10
488.0376185436
 20
719.9608822752
 30
0.0
 40
47.20999999994999
100
AcDbArc
 50
90.0
 51
115.7869019647
  0
LINE
  5
112
330
FC
100
AcDbEntity
  8
DV2_Default
 62
     7
100
AcDbLine
 10
488.0376185436
 20
767.1708822751
 30
0.0
 11
537.5376185436
 21
767.1708822751
 31
0.0
  0
LINE
  5
113
330
FC
100
AcDbEntity
  8
DV2_Default
 62
     7
100
AcDbLine
 10
537.5376185436
 20
802.1708822751
 30
0.0
 11
518.0376356677
 21
802.1708822751
 31
0.0
  0
ARC
  5
114
330
FC
100
AcDbEntity
  8
DV2_Default
 62
     7
100
AcDbCircle
 10
537.5376185434
 20
767.6708822751
 30
0.0
 40
0.4999999999946575
100
AcDbArc
 50
270.0000000282
 51
0.0
  0
ARC
  5
115
330
FC
100
AcDbEntity
  8
DV2_Default
 62
     7
100
AcDbCircle
 10
537.5376185434
 20
801.6708822751
 30
0.0
 40
0.4999999999971
100
AcDbArc
 50
0.0
 51
89.9999999771
  0
LINE
  5
116
330
FC
100
AcDbEntity
  8
DV2_Default
 62
     7
100
AcDbLine
 10
538.5376185436
 20
798.9208822751
 30
0.0
 11
538.0376185436
 21
798.9208822751
 31
0.0
  0
LINE
  5
117
330
FC
100
AcDbEntity
  8
DV2_Default
 62
     7
100
AcDbLine
 10
538.0376185436
 20
770.4208822751
 30
0.0
 11
538.5376185436
 21
770.4208822751
 31
0.0
  0
LINE
  5
118
330
FC
100
AcDbEntity
  8
DV2_Default
 62
     7
100
AcDbLine
 10
538.5376185436
 20
767.6708822751
 30
0.0
 11
538.5376185436
 21
801.6708822751
 31
0.0
  0
ARC
  5
119
330
FC
100
AcDbEntity
  8
DV2_Default
 62
     7
100
AcDbCircle
 10
563.1578035685
 20
766.1708824967
 30
0.0
 40
1.000000611816046
100
AcDbArc
 50
1.5137150556
 51
89.9999004829
  0
ARC
  5
11A
330
FC
100
AcDbEntity
  8
DV2_Default
 62
     7
100
AcDbCircle
 10
539.0376185436
 20
801.6708822751
 30
0.0
 40
0.5000000000000004
100
AcDbArc
 50
90.0
 51
180.0
  0
ARC
  5
11B
330
FC
100
AcDbEntity
  8
DV2_Default
 62
     7
100
AcDbCircle
 10
539.0376185436
 20
767.6708822751
 30
0.0
 40
0.5000000000000004
100
AcDbArc
 50
180.0
 51
270.0
  0
LINE
  5
11C
330
FC
100
AcDbEntity
  8
DV2_Default
 62
     7
100
AcDbLine
 10
570.9483759155
 20
802.1708822751
 30
0.0
 11
539.0376185436
 21
802.1708822751
 31
0.0
  0
LINE
  5
11D
330
FC
100
AcDbEntity
  8
DV2_Default
 62
     7
100
AcDbLine
 10
539.0376185436
 20
767.1708822751
 30
0.0
 11
563.1578053059
 21
767.1708822751
 31
0.0
  0
LINE
  5
11E
330
FC
100
AcDbEntity
  8
DV2_Default
 62
     7
100
AcDbLine
 10
564.157457041
 20
766.1972709781
 30
0.0
 11
565.1629602636
 21
728.1471088469
 31
0.0
  0
ARC
  5
11F
330
FC
100
AcDbEntity
  8
DV2_Default
 62
     7
100
AcDbCircle
 10
565.6626735266
 20
728.1602298873
 30
0.0
 40
0.4998910483747775
100
AcDbArc
 50
180.8916718509
 51
277.6619337211
  0
SPLINE
  5
120
330
FC
100
AcDbEntity
  8
DV2_Default
 62
     7
100
AcDbSpline
210
0.0
220
0.0
230
1.0
 70
     8
 71
     3
 72
    15
 73
    11
 74
     0
 42
0.000000001
 43
0.0000000001
 40
0.0
 40
0.0
 40
0.0
 40
0.0
 40
0.114301586700418
 40
0.2299881657451173
 40
0.346332360778313
 40
0.4650131909689493
 40
0.5887518572362725
 40
0.7194229464096291
 40
0.8570424089177009
 40
1.0
 40
1.0
 40
1.0
 40
1.0
 10
565.65831145095
 20
727.6560144246772
 30
0.0
 10
566.1088942184974
 20
727.7087267801446
 30
0.0
 10
566.871938935475
 20
727.810267358868
 30
0.0
 10
568.1130689953075
 20
728.1214937636254
 30
0.0
 10
569.2532327332539
 20
728.6837370029282
 30
0.0
 10
570.244497641059
 20
729.5425400835919
 30
0.0
 10
570.995393816754
 20
730.6800177344899
 30
0.0
 10
571.4657486790335
 20
732.0204260703565
 30
0.0
 10
571.6580620407651
 20
733.5274348673277
 30
0.0
 10
571.6663520552415
 20
734.4659382292851
 30
0.0
 10
571.6619358751414
 20
735.0333104962674
 30
0.0
  0
LINE
  5
121
330
FC
100
AcDbEntity
  8
DV2_Default
 62
     7
100
AcDbLine
 10
571.6615672839
 20
734.9106128034
 30
0.0
 11
571.7440672402
 21
801.3768860783
 31
0.0
  0
ARC
  5
122
330
FC
100
AcDbEntity
  8
DV2_Default
 62
     7
100
AcDbCircle
 10
570.9439949768
 20
801.3707826354
 30
0.0
 40
0.8000077168463338
100
AcDbArc
 50
359.4121124136
 51
90.4993814425
  0
LINE
  5
123
330
FC
100
AcDbEntity
  8
DV2_Default
 62
     7
100
AcDbLine
 10
511.9876185436
 20
834.1708822751
 30
0.0
 11
511.9876185436
 21
834.4708822751
 31
0.0
  0
LINE
  5
124
330
FC
100
AcDbEntity
  8
DV2_Default
 62
     7
100
AcDbLine
 10
484.0876185436
 20
834.4708822751
 30
0.0
 11
484.0876185436
 21
834.1708822751
 31
0.0
  0
ARC
  5
125
330
FC
100
AcDbEntity
  8
DV2_Default
 62
     7
100
AcDbCircle
 10
511.7876185436
 20
834.4708822751
 30
0.0
 40
0.2000000000000057
100
AcDbArc
 50
0.0
 51
90.0
  0
ARC
  5
126
330
FC
100
AcDbEntity
  8
DV2_Default
 62
     7
100
AcDbCircle
 10
484.2876185436
 20
834.4708822751
 30
0.0
 40
0.1999999999999988
100
AcDbArc
 50
90.0
 51
180.0
  0
LINE
  5
127
330
FC
100
AcDbEntity
  8
DV2_Default
 62
     7
100
AcDbLine
 10
514.2128850957
 20
896.4708822751
 30
0.0
 11
514.2128850957
 21
896.7708822751
 31
0.0
  0
LINE
  5
128
330
FC
100
AcDbEntity
  8
DV2_Default
 62
     7
100
AcDbLine
 10
486.3128850957
 20
896.7708822751
 30
0.0
 11
486.3128850957
 21
896.4708822751
 31
0.0
  0
ARC
  5
129
330
FC
100
AcDbEntity
  8
DV2_Default
 62
     7
100
AcDbCircle
 10
514.0128850957
 20
896.7708822751
 30
0.0
 40
0.2000000000000057
100
AcDbArc
 50
0.0
 51
90.0
  0
ARC
  5
12A
330
FC
100
AcDbEntity
  8
DV2_Default
 62
     7
100
AcDbCircle
 10
486.5128850957
 20
896.7708822751
 30
0.0
 40
0.2000000000000057
100
AcDbArc
 50
90.0
 51
180.0
  0
ELLIPSE
  5
12B
330
FC
100
AcDbEntity
  8
DV2_Default
 62
     7
100
AcDbEllipse
 10
833.7501864376
 20
918.9708822751
 30
0.0
 11
0.0
 21
17.00000000000001
 31
0.0
210
0.0
220
0.0
230
1.0
 40
0.0087265355
 41
0.0201013721913528
 42
0.5767573589781386
  0
ELLIPSE
  5
12C
330
FC
100
AcDbEntity
  8
DV2_Default
 62
     7
100
AcDbEllipse
 10
833.7501864376
 20
918.9708822751
 30
0.0
 11
0.0
 21
17.00000000000001
 31
0.0
210
0.0
220
0.0
230
1.0
 40
0.0087265355
 41
-3.718350012567944
 42
-3.267618285294369
  0
ELLIPSE
  5
12D
330
FC
100
AcDbEntity
  8
DV2_Default
 62
     7
100
AcDbEllipse
 10
858.3694340699
 20
937.4708820537
 30
0.0
 11
-5.112588391531504E-5
 21
-1.000000610639706
 31
0.0
210
0.0
220
0.0
230
1.0
 40
0.9999624649
 41
0.7782435171625925
 42
1.544428138992519
  0
ARC
  5
12E
330
FC
100
AcDbEntity
  8
DV2_Default
 62
     7
100
AcDbCircle
 10
834.2302157787
 20
935.9994773562
 30
0.0
 40
0.4717836929738068
100
AcDbArc
 50
87.5772525188
 51
160.1881026225
  0
SPLINE
  5
12F
330
FC
100
AcDbEntity
  8
DV2_Default
 62
     7
100
AcDbSpline
210
0.0
220
0.0
230
1.0
 70
     8
 71
     3
 72
    14
 73
    10
 74
     0
 42
0.000000001
 43
0.0000000001
 40
0.0
 40
0.0
 40
0.0
 40
0.0
 40
0.3298760849062862
 40
0.6856365016816739
 40
0.7806123819762327
 40
0.8316755275092602
 40
0.886720411702536
 40
0.9490104017494855
 40
1.0
 40
1.0
 40
1.0
 40
1.0
 10
833.7279623498828
 20
902.1482499103297
 30
0.0
 10
833.730576784384
 20
902.095792942031
 30
0.0
 10
833.7404015151891
 20
901.9871504882746
 30
0.0
 10
833.7405688369832
 20
901.9371045814163
 30
0.0
 10
833.7761638411365
 20
901.7929699819971
 30
0.0
 10
833.8413412716117
 20
901.6725092071356
 30
0.0
 10
833.9442973462732
 20
901.564244551088
 30
0.0
 10
834.0920611305256
 20
901.4833481770094
 30
0.0
 10
834.1952058295415
 20
901.4785869650887
 30
0.0
 10
834.2495170386206
 20
901.4770348813549
 30
0.0
  0
LINE
  5
130
330
FC
100
AcDbEntity
  8
DV2_Default
 62
     7
100
AcDbLine
 10
858.369435738
 20
936.4708822751
 30
0.0
 11
834.2501591703
 21
936.4708393339
 31
0.0
  0
LINE
  5
131
330
FC
100
AcDbEntity
  8
DV2_Default
 62
     7
100
AcDbLine
 10
834.2501673991
 20
901.4708822751
 30
0.0
 11
866.1597097071
 21
901.4708822751
 31
0.0
  0
LINE
  5
132
330
FC
100
AcDbEntity
  8
DV2_Default
 62
     7
100
AcDbLine
 10
860.3742443456
 20
975.4938966614
 30
0.0
 11
859.3687170135
 21
937.4413732577
 31
0.0
  0
ARC
  5
133
330
FC
100
AcDbEntity
  8
DV2_Default
 62
     7
100
AcDbCircle
 10
858.3740632092
 20
937.4695052527
 30
0.0
 40
0.9950595963635798
100
AcDbArc
 50
314.431232634
 51
359.0324896221
  0
ARC
  5
134
330
FC
100
AcDbEntity
  8
DV2_Default
 62
     7
100
AcDbCircle
 10
860.8744915609
 20
975.4810039627
 30
0.0
 40
0.5004176194225832
100
AcDbArc
 50
82.2639878741
 51
179.0551392363
  0
SPLINE
  5
135
330
FC
100
AcDbEntity
  8
DV2_Default
 62
     7
100
AcDbSpline
210
0.0
220
0.0
230
1.0
 70
     8
 71
     3
 72
    15
 73
    11
 74
     0
 42
0.000000001
 43
0.0000000001
 40
0.0
 40
0.0
 40
0.0
 40
0.0
 40
0.1429124451047034
 40
0.2804872373499062
 40
0.4111242463486509
 40
0.5348470274391623
 40
0.6535334561845787
 40
0.769903694234537
 40
0.8856346861899462
 40
1.0
 40
1.0
 40
1.0
 40
1.0
 10
866.8751028983306
 20
968.6086054589788
 30
0.0
 10
866.8795049090394
 20
969.1759516053295
 30
0.0
 10
866.8711922495667
 20
970.1144045500854
 30
0.0
 10
866.6788580544455
 20
971.6212863496925
 30
0.0
 10
866.2084602165473
 20
972.961588393054
 30
0.0
 10
865.4574631686521
 20
974.0990097141591
 30
0.0
 10
864.4660292947678
 20
974.9578156138318
 30
0.0
 10
863.3256193926926
 20
975.5201200372708
 30
0.0
 10
862.084128897636
 20
975.8314385285445
 30
0.0
 10
861.3209201750046
 20
975.9330050795827
 30
0.0
 10
860.8702021031454
 20
975.9857338457615
 30
0.0
  0
LINE
  5
136
330
FC
100
AcDbEntity
  8
DV2_Default
 62
     7
100
AcDbLine
 10
866.9573027542
 20
902.2648784719
 30
0.0
 11
866.8748059392
 21
968.7311517468
 31
0.0
  0
ARC
  5
137
330
FC
100
AcDbEntity
  8
DV2_Default
 62
     7
100
AcDbCircle
 10
866.1549531551
 20
902.273133253
 30
0.0
 40
0.8021565545311908
100
AcDbArc
 50
269.5067989957
 51
0.6435602851
  0
LINE
  5
138
330
FC
100
AcDbEntity
  8
DV2_Default
 62
     7
100
AcDbLine
 10
465.5376184891
 20
808.2620289504
 30
0.0
 11
465.5376184891
 21
761.0797355999
 31
0.0
  0
LINE
  5
139
330
FC
100
AcDbEntity
  8
DV2_Default
 62
     7
100
AcDbLine
 10
444.0376185436
 20
814.1708822739
 30
0.0
 11
444.0376185436
 21
755.1708822763
 31
0.0
  0
ARC
  5
13A
330
FC
100
AcDbEntity
  8
DV2_Default
 62
     7
100
AcDbCircle
 10
465.2376184891
 20
761.0797355999
 30
0.0
 40
0.3000000000000052
100
AcDbArc
 50
300.0626840505
 51
0.0
  0
ARC
  5
13B
330
FC
100
AcDbEntity
  8
DV2_Default
 62
     7
100
AcDbCircle
 10
465.2376184891
 20
808.2620289504
 30
0.0
 40
0.3000000000000086
100
AcDbArc
 50
0.0
 51
59.9373159495
  0
ARC
  5
13C
330
FC
100
AcDbEntity
  8
DV2_Default
 62
     7
100
AcDbCircle
 10
489.03761852
 20
719.9608822777
 30
0.0
 40
47.21000000004
100
AcDbArc
 50
120.0626840504
 51
130.4844440909
  0
ARC
  5
13D
330
FC
100
AcDbEntity
  8
DV2_Default
 62
     7
100
AcDbCircle
 10
489.03761852
 20
849.3808822725
 30
0.0
 40
47.21000000004
100
AcDbArc
 50
229.5155559091
 51
239.9373159496
  0
ARC
  5
13E
330
FC
100
AcDbEntity
  8
DV2_Default
 62
     7
100
AcDbCircle
 10
455.140716005
 20
759.6708822763
 30
0.0
 40
5.000000000000001
100
AcDbArc
 50
270.0
 51
310.4844440909
  0
ARC
  5
13F
330
FC
100
AcDbEntity
  8
DV2_Default
 62
     7
100
AcDbCircle
 10
455.140716005
 20
809.6708822739
 30
0.0
 40
5.000000000000001
100
AcDbArc
 50
49.5155559091
 51
90.0
  0
LINE
  5
140
330
FC
100
AcDbEntity
  8
DV2_Default
 62
     7
100
AcDbLine
 10
444.5376185436
 20
754.6708822763
 30
0.0
 11
455.140716005
 21
754.6708822763
 31
0.0
  0
LINE
  5
141
330
FC
100
AcDbEntity
  8
DV2_Default
 62
     7
100
AcDbLine
 10
455.140716005
 20
814.6708822739
 30
0.0
 11
444.5376185436
 21
814.6708822739
 31
0.0
  0
ARC
  5
142
330
FC
100
AcDbEntity
  8
DV2_Default
 62
     7
100
AcDbCircle
 10
444.5376185436
 20
755.1708822763
 30
0.0
 40
0.5000000000000004
100
AcDbArc
 50
180.0
 51
270.0
  0
ARC
  5
143
330
FC
100
AcDbEntity
  8
DV2_Default
 62
     7
100
AcDbCircle
 10
444.5376185436
 20
814.1708822739
 30
0.0
 40
0.5000000000000004
100
AcDbArc
 50
90.0
 51
180.0
  0
ARC
  5
144
330
FC
100
AcDbEntity
  8
DV2_Default
 62
     7
100
AcDbCircle
 10
489.5876185436
 20
831.4708822751
 30
0.0
 40
0.2000000000000057
100
AcDbArc
 50
210.0
 51
228.5903778907
  0
ARC
  5
145
330
FC
100
AcDbEntity
  8
DV2_Default
 62
     7
100
AcDbCircle
 10
492.7128850957
 20
892.2708822751
 30
0.0
 40
0.2000000000000057
100
AcDbArc
 50
311.4096221093
 51
330.0
  0
LINE
  5
146
330
FC
100
AcDbEntity
  8
DV2_Default
 62
     7
100
AcDbLine
 10
494.2876185436
 20
829.8208822751
 30
0.0
 11
483.0376185436
 21
829.8208822751
 31
0.0
  0
LINE
  5
147
330
FC
100
AcDbEntity
  8
DV2_Default
 62
     7
100
AcDbLine
 10
494.2876185436
 20
831.3208822751
 30
0.0
 11
483.0376185436
 21
831.3208822751
 31
0.0
  0
LINE
  5
148
330
FC
100
AcDbEntity
  8
DV2_Default
 62
     7
100
AcDbLine
 10
494.2876185436
 20
831.3208822751
 30
0.0
 11
494.5376185436
 21
831.3208822751
 31
0.0
  0
LINE
  5
149
330
FC
100
AcDbEntity
  8
DV2_Default
 62
     7
100
AcDbLine
 10
494.5376185436
 20
831.3208822751
 30
0.0
 11
494.7376185436
 21
831.3208822751
 31
0.0
  0
LINE
  5
14A
330
FC
100
AcDbEntity
  8
DV2_Default
 62
     7
100
AcDbLine
 10
494.7376185436
 20
831.3208822751
 30
0.0
 11
494.7519889422
 21
831.3208822751
 31
0.0
  0
LINE
  5
14B
330
FC
100
AcDbEntity
  8
DV2_Default
 62
     7
100
AcDbLine
 10
494.7519889422
 20
831.3208822751
 30
0.0
 11
494.9519889422
 21
831.3208822751
 31
0.0
  0
LINE
  5
14C
330
FC
100
AcDbEntity
  8
DV2_Default
 62
     7
100
AcDbLine
 10
494.8415241839
 20
831.3208822751
 30
0.0
 11
495.1376185436
 21
831.3208822751
 31
0.0
  0
LINE
  5
14D
330
FC
100
AcDbEntity
  8
DV2_Default
 62
     7
100
AcDbLine
 10
494.5376185436
 20
831.3208822751
 30
0.0
 11
494.5376185436
 21
829.8208822751
 31
0.0
  0
LINE
  5
14E
330
FC
100
AcDbEntity
  8
DV2_Default
 62
     7
100
AcDbLine
 10
494.9519889422
 20
829.8208822751
 30
0.0
 11
494.9519889422
 21
831.3208822751
 31
0.0
  0
LINE
  5
14F
330
FC
100
AcDbEntity
  8
DV2_Default
 62
     7
100
AcDbLine
 10
483.0376185436
 20
831.3208822751
 30
0.0
 11
483.0376185436
 21
829.8208822751
 31
0.0
  0
LINE
  5
150
330
FC
100
AcDbEntity
  8
DV2_Default
 62
     7
100
AcDbLine
 10
497.2803537199
 20
892.1708822751
 30
0.0
 11
497.082099027
 21
892.1708822751
 31
0.0
  0
LINE
  5
151
330
FC
100
AcDbEntity
  8
DV2_Default
 62
     7
100
AcDbLine
 10
497.0677291755
 20
892.1708822751
 30
0.0
 11
497.082099027
 21
892.1708822751
 31
0.0
  0
LINE
  5
152
330
FC
100
AcDbEntity
  8
DV2_Default
 62
     7
100
AcDbLine
 10
497.0677291755
 20
892.1708822751
 30
0.0
 11
496.8880699536
 21
892.1708822751
 31
0.0
  0
LINE
  5
153
330
FC
100
AcDbEntity
  8
DV2_Default
 62
     7
100
AcDbLine
 10
496.8880775689
 20
892.1708822751
 30
0.0
 11
496.6397693591
 21
892.1708822751
 31
0.0
  0
LINE
  5
154
330
FC
100
AcDbEntity
  8
DV2_Default
 62
     7
100
AcDbLine
 10
485.2628850957
 20
892.1708822751
 30
0.0
 11
496.6397693591
 21
892.1708822751
 31
0.0
  0
LINE
  5
155
330
FC
100
AcDbEntity
  8
DV2_Default
 62
     7
100
AcDbLine
 10
485.2628850957
 20
893.6708822751
 30
0.0
 11
496.6397693591
 21
893.6708822751
 31
0.0
  0
LINE
  5
156
330
FC
100
AcDbEntity
  8
DV2_Default
 62
     7
100
AcDbLine
 10
496.8880699536
 20
893.6708822751
 30
0.0
 11
496.8880699536
 21
892.1708822751
 31
0.0
  0
LINE
  5
157
330
FC
100
AcDbEntity
  8
DV2_Default
 62
     7
100
AcDbLine
 10
497.2803537199
 20
892.1708822751
 30
0.0
 11
497.2803537199
 21
893.6708822751
 31
0.0
  0
LINE
  5
158
330
FC
100
AcDbEntity
  8
DV2_Default
 62
     7
100
AcDbLine
 10
485.2628850957
 20
893.6708822751
 30
0.0
 11
485.2628850957
 21
892.1708822751
 31
0.0
  0
LINE
  5
159
330
FC
100
AcDbEntity
  8
DV2_Default
 62
     7
100
AcDbLine
 10
802.7509670148
 20
880.5832822751
 30
0.0
 11
823.7509670148
 21
880.5832822751
 31
0.0
  0
ARC
  5
15A
330
FC
100
AcDbEntity
  8
DV2_Default
 62
     7
100
AcDbCircle
 10
823.7509670148
 20
883.7582822751
 30
0.0
 40
3.174999999999997
100
AcDbArc
 50
270.0
 51
295.2498419164
  0
ARC
  5
15B
330
FC
100
AcDbEntity
  8
DV2_Default
 62
     7
100
AcDbCircle
 10
802.7509670148
 20
883.7582822751
 30
0.0
 40
3.174999999999996
100
AcDbArc
 50
244.7501580836
 51
270.0
  0
ARC
  5
15C
330
FC
100
AcDbEntity
  8
DV2_Default
 62
     7
100
AcDbCircle
 10
801.5049670148
 20
881.1163653574
 30
0.0
 40
0.2540000000000042
100
AcDbArc
 50
180.0
 51
244.7501580834
  0
ARC
  5
15D
330
FC
100
AcDbEntity
  8
DV2_Default
 62
     7
100
AcDbCircle
 10
824.9969670148
 20
881.1163653574
 30
0.0
 40
0.2539999999999986
100
AcDbArc
 50
295.2498419166
 51
0.0
  0
LINE
  5
15E
330
FC
100
AcDbEntity
  8
DV2_Default
 62
     7
100
AcDbLine
 10
825.2509670148
 20
881.1163653574
 30
0.0
 11
825.2509670148
 21
890.9708822751
 31
0.0
  0
LINE
  5
15F
330
FC
100
AcDbEntity
  8
DV2_Default
 62
     7
100
AcDbLine
 10
801.2509670148
 20
890.9708822751
 30
0.0
 11
801.2509670148
 21
881.1163653574
 31
0.0
  0
LINE
  5
160
330
FC
100
AcDbEntity
  8
DV2_Default
 62
     7
100
AcDbLine
 10
485.7628850957
 20
896.4708822751
 30
0.0
 11
514.7628850957
 21
896.4708822751
 31
0.0
  0
LINE
  5
161
330
FC
100
AcDbEntity
  8
DV2_Default
 62
     7
100
AcDbLine
 10
497.4914239153
 20
892.1208822751
 30
0.0
 11
497.4914239153
 21
893.6708822751
 31
0.0
  0
LINE
  5
162
330
FC
100
AcDbEntity
  8
DV2_Default
 62
     7
100
AcDbLine
 10
485.2628850957
 20
892.1208822751
 30
0.0
 11
497.4914239153
 21
892.1208822751
 31
0.0
  0
LINE
  5
163
330
FC
100
AcDbEntity
  8
DV2_Default
 62
     7
100
AcDbLine
 10
485.2628850957
 20
893.6708822751
 30
0.0
 11
497.4914239153
 21
893.6708822751
 31
0.0
  0
LINE
  5
164
330
FC
100
AcDbEntity
  8
DV2_Default
 62
     7
100
AcDbLine
 10
486.2628850957
 20
834.6708822751
 30
0.0
 11
514.2628850957
 21
834.6708822751
 31
0.0
  0
LINE
  5
165
330
FC
100
AcDbEntity
  8
DV2_Default
 62
     7
100
AcDbLine
 10
485.2628850957
 20
892.1208822751
 30
0.0
 11
485.2628850957
 21
835.6708822751
 31
0.0
  0
LINE
  5
166
330
FC
100
AcDbEntity
  8
DV2_Default
 62
     7
100
AcDbLine
 10
485.2628850957
 20
895.9708822751
 30
0.0
 11
485.2628850957
 21
893.6708822751
 31
0.0
  0
LINE
  5
167
330
FC
100
AcDbEntity
  8
DV2_Default
 62
     7
100
AcDbLine
 10
515.2628850957
 20
835.6708822751
 30
0.0
 11
515.2628850957
 21
895.9708822751
 31
0.0
  0
ARC
  5
168
330
FC
100
AcDbEntity
  8
DV2_Default
 62
     7
100
AcDbCircle
 10
485.7628850957
 20
895.9708822751
 30
0.0
 40
0.5000000000000004
100
AcDbArc
 50
90.0
 51
180.0
  0
ARC
  5
169
330
FC
100
AcDbEntity
  8
DV2_Default
 62
     7
100
AcDbCircle
 10
514.7628850957
 20
895.9708822751
 30
0.0
 40
0.5000000000000004
100
AcDbArc
 50
0.0
 51
90.0
  0
ARC
  5
16A
330
FC
100
AcDbEntity
  8
DV2_Default
 62
     7
100
AcDbCircle
 10
486.2628850957
 20
835.6708822751
 30
0.0
 40
1.000000000000001
100
AcDbArc
 50
180.0
 51
270.0
  0
ARC
  5
16B
330
FC
100
AcDbEntity
  8
DV2_Default
 62
     7
100
AcDbCircle
 10
514.2628850957
 20
835.6708822751
 30
0.0
 40
1.000000000000001
100
AcDbArc
 50
270.0
 51
0.0
  0
LINE
  5
16C
330
FC
100
AcDbEntity
  8
DV2_Default
 62
     7
100
AcDbLine
 10
483.5376185436
 20
834.6708822751
 30
0.0
 11
486.2628850957
 21
834.6708822751
 31
0.0
  0
LINE
  5
16D
330
FC
100
AcDbEntity
  8
DV2_Default
 62
     7
100
AcDbLine
 10
484.0376185436
 20
878.6708822751
 30
0.0
 11
485.2628850957
 21
878.6708822751
 31
0.0
  0
ARC
  5
16E
330
FC
100
AcDbEntity
  8
DV2_Default
 62
     7
100
AcDbCircle
 10
483.5376185436
 20
835.1708822751
 30
0.0
 40
0.5000000000000004
100
AcDbArc
 50
180.0
 51
270.0
  0
LINE
  5
16F
330
FC
100
AcDbEntity
  8
DV2_Default
 62
     7
100
AcDbLine
 10
483.0376185436
 20
877.6708822751
 30
0.0
 11
483.0376185436
 21
835.1708822751
 31
0.0
  0
ARC
  5
170
330
FC
100
AcDbEntity
  8
DV2_Default
 62
     7
100
AcDbCircle
 10
484.0376185436
 20
877.6708822751
 30
0.0
 40
1.000000000000001
100
AcDbArc
 50
90.0
 51
180.0
  0
ELLIPSE
  5
171
330
FC
100
AcDbEntity
  8
DV2_Default
 62
     7
100
AcDbEllipse
 10
833.250205476
 20
918.9708822751
 30
0.0
 11
0.0
 21
16.99859293890039
 31
0.0
210
0.0
220
0.0
230
1.0
 40
0.0091063989
 41
3.155218811479752
 42
6.248886897402761
  0
ELLIPSE
  5
172
330
FC
100
AcDbEntity
  8
DV2_Default
 62
     7
100
AcDbEllipse
 10
786.251995092
 20
918.9708822751
 30
0.0
 11
0.0
 21
12.50000000000001
 31
0.0
210
0.0
220
0.0
230
1.0
 40
0.0087265355
 41
3.141592653589793
 42
6.283185307179586
  0
ELLIPSE
  5
173
330
FC
100
AcDbEntity
  8
DV2_Default
 62
     7
100
AcDbEllipse
 10
786.251995092
 20
918.9708822751
 30
0.0
 11
0.0
 21
16.49999999929
 31
0.0
210
0.0
220
0.0
230
1.0
 40
0.0087265355
 41
-3.85279781950093
 42
-3.216399772806492
  0
ELLIPSE
  5
174
330
FC
100
AcDbEntity
  8
DV2_Default
 62
     7
100
AcDbEllipse
 10
786.251995092
 20
918.9708822751
 30
0.0
 11
0.0
 21
16.49999999929
 31
0.0
210
0.0
220
0.0
230
1.0
 40
0.0087265355
 41
0.0409606325314886
 42
0.711205165911126
  0
ELLIPSE
  5
175
330
FC
100
AcDbEntity
  8
DV2_Default
 62
     7
100
AcDbEllipse
 10
830.2503178081
 20
899.470884078
 30
0.0
 11
4.861613334128378E-6
 21
1.999999776636591
 31
0.0
210
0.0
220
0.0
230
1.0
 40
0.9999619229
 41
0.0000014945054642
 42
1.570799658609671
  0
ELLIPSE
  5
176
330
FC
100
AcDbEntity
  8
DV2_Default
 62
     7
100
AcDbEllipse
 10
796.2516161446
 20
899.4708840012
 30
0.0
 11
-5.355572318954671E-6
 21
1.999999785657361
 31
0.0
210
0.0
220
0.0
230
1.0
 40
0.9999619229
 41
4.712385439984931
 42
6.283183540415635
  0
LINE
  5
177
330
FC
100
AcDbEntity
  8
DV2_Default
 62
     7
100
AcDbLine
 10
798.2509670147
 20
890.9708822751
 30
0.0
 11
828.2509670147
 21
890.9708822751
 31
0.0
  0
LINE
  5
178
330
FC
100
AcDbEntity
  8
DV2_Default
 62
     7
100
AcDbLine
 10
833.3311026252
 20
904.7208822751
 30
0.0
 11
833.6692892884
 21
904.7208822751
 31
0.0
  0
LINE
  5
179
330
FC
100
AcDbEntity
  8
DV2_Default
 62
     7
100
AcDbLine
 10
833.6692892884
 20
933.2208822751
 30
0.0
 11
833.3311026252
 21
933.2208822751
 31
0.0
  0
SPLINE
  5
17A
330
FC
100
AcDbEntity
  8
DV2_Default
 62
     7
100
AcDbSpline
210
0.0
220
0.0
230
1.0
 70
     8
 71
     3
 72
    15
 73
    11
 74
     0
 42
0.000000001
 43
0.0000000001
 40
0.0
 40
0.0
 40
0.0
 40
0.0
 40
0.0557179139882823
 40
0.2839234359895708
 40
0.3880995749621379
 40
0.481998259053497
 40
0.6027629476873959
 40
0.7491271906311819
 40
0.9118676186984428
 40
1.0
 40
1.0
 40
1.0
 40
1.0
 10
786.2489943238512
 20
902.4006520606862
 30
0.0
 10
786.2494123201083
 20
902.3934974636838
 30
0.0
 10
786.2518206412694
 20
902.3605279535345
 30
0.0
 10
786.2602378649824
 20
902.3034070170987
 30
0.0
 10
786.2941379553549
 20
902.1678634049746
 30
0.0
 10
786.3579788780245
 20
902.0058710036155
 30
0.0
 10
786.4944886945533
 20
901.796179672316
 30
0.0
 10
786.7307209982062
 20
901.5976053178636
 30
0.0
 10
787.0115643928716
 20
901.4765974940395
 30
0.0
 10
787.1836669494836
 20
901.4837708561784
 30
0.0
 10
787.25397153808
 20
901.4876990559366
 30
0.0
  0
SPLINE
  5
17B
330
FC
100
AcDbEntity
  8
DV2_Default
 62
     7
100
AcDbSpline
210
0.0
220
0.0
230
1.0
 70
     8
 71
     3
 72
    15
 73
    11
 74
     0
 42
0.000000001
 43
0.0000000001
 40
0.0
 40
0.0
 40
0.0
 40
0.0
 40
0.0062414271919792
 40
0.2400268512168754
 40
0.42317853664023
 40
0.5774536391579137
 40
0.7095602548755808
 40
0.8196441019645666
 40
0.9276837287368075
 40
1.0
 40
1.0
 40
1.0
 40
1.0
 10
787.2741015832622
 20
936.4688393198498
 30
0.0
 10
787.270439283843
 20
936.4695788400443
 30
0.0
 10
787.1488544574048
 20
936.4940675868438
 30
0.0
 10
786.9033797517768
 20
936.4229933092498
 30
0.0
 10
786.6353776127643
 20
936.2752770543101
 30
0.0
 10
786.4580153005131
 20
936.0936219185952
 30
0.0
 10
786.3536485279917
 20
935.9229485545135
 30
0.0
 10
786.3007755970332
 20
935.7914254287789
 30
0.0
 10
786.2777381905746
 20
935.7099107348743
 30
0.0
 10
786.2720865344049
 20
935.6824709020393
 30
0.0
 10
786.2697887675315
 20
935.6700980650942
 30
0.0
  0
LINE
  5
17C
330
FC
100
AcDbEntity
  8
DV2_Default
 62
     7
100
AcDbLine
 10
830.2503197068
 20
901.4708822758
 30
0.0
 11
832.7502380388
 21
901.4710829811
 31
0.0
  0
LINE
  5
17D
330
FC
100
AcDbEntity
  8
DV2_Default
 62
     7
100
AcDbLine
 10
787.251957015
 20
901.4708822758
 30
0.0
 11
796.2516143226
 21
901.4708822758
 31
0.0
  0
LINE
  5
17E
330
FC
100
AcDbEntity
  8
DV2_Default
 62
     7
100
AcDbLine
 10
832.7501038257
 20
936.4708433482
 30
0.0
 11
787.251957015
 21
936.4708887643
 31
0.0
  0
SPLINE
  5
17F
330
FC
100
AcDbEntity
  8
DV2_Default
 62
     7
100
AcDbSpline
210
0.0
220
0.0
230
1.0
 70
     8
 71
     3
 72
    13
 73
     9
 74
     0
 42
0.000000001
 43
0.0000000001
 40
0.0
 40
0.0
 40
0.0
 40
0.0
 40
0.2370578495982462
 40
0.4026940868505786
 40
0.5564180078106893
 40
0.7351061579211782
 40
0.9295190084433778
 40
1.0
 40
1.0
 40
1.0
 40
1.0
 10
833.255513690652
 20
935.9594777839832
 30
0.0
 10
833.2520409016231
 20
935.9809211929719
 30
0.0
 10
833.2435338173791
 20
936.0153841937108
 30
0.0
 10
833.2056197044142
 20
936.1220666377903
 30
0.0
 10
833.128106663961
 20
936.2547077553077
 30
0.0
 10
832.9985776869104
 20
936.3822786098051
 30
0.0
 10
832.855243758683
 20
936.463562889014
 30
0.0
 10
832.7749532281567
 20
936.469286260377
 30
0.0
 10
832.7501038256615
 20
936.4708433482456
 30
0.0
  0
ARC
  5
180
330
FC
100
AcDbEntity
  8
DV2_Default
 62
     7
100
AcDbCircle
 10
832.7989024571
 20
901.9245642119
 30
0.0
 40
0.4560849178507945
100
AcDbArc
 50
263.8748604083
 51
6.2058513955
  0
LINE
  5
181
330
FC
100
AcDbEntity
  8
DV2_Default
 62
     7
100
AcDbLine
 10
828.2509670147
 20
890.9708822751
 30
0.0
 11
828.2509670147
 21
899.4772511187
 31
0.0
  0
LINE
  5
182
330
FC
100
AcDbEntity
  8
DV2_Default
 62
     7
100
AcDbLine
 10
798.2509670147
 20
899.4772282088
 30
0.0
 11
798.2509670147
 21
890.9708822751
 31
0.0
  0
LINE
  5
183
330
FC
100
AcDbEntity
  8
DV2_Default
 62
     7
100
AcDbLine
 10
515.2628850956
 20
906.4708822751
 30
0.0
 11
786.251995092
 21
906.4708822751
 31
0.0
  0
LINE
  5
184
330
FC
100
AcDbEntity
  8
DV2_Default
 62
     7
100
AcDbLine
 10
786.251995092
 20
931.4708822751
 30
0.0
 11
515.2628850956
 21
931.4708822751
 31
0.0
  0
LINE
  5
185
330
FC
100
AcDbEntity
  8
DV2_Default
 62
     7
100
AcDbLine
 10
514.7628850956
 20
896.9708822751
 30
0.0
 11
485.7628850956
 21
896.9708822751
 31
0.0
  0
SPLINE
  5
186
330
FC
100
AcDbEntity
  8
DV2_Default
 62
     7
100
AcDbSpline
210
0.0
220
0.0
230
1.0
 70
     8
 71
     3
 72
    30
 73
    26
 74
     0
 42
0.000000001
 43
0.0000000001
 40
0.0
 40
0.0
 40
0.0
 40
0.0
 40
0.0597529328567536
 40
0.0597529328567536
 40
0.1226427945981138
 40
0.1226427945981138
 40
0.2484225180808343
 40
0.2484225180808343
 40
0.3742022415635546
 40
0.3742022415635546
 40
0.4370921033049149
 40
0.4370921033049149
 40
0.4999819650462751
 40
0.4999819650462751
 40
0.5628718267876354
 40
0.5628718267876354
 40
0.6257616885289956
 40
0.6257616885289956
 40
0.751541412011716
 40
0.751541412011716
 40
0.8144312737530762
 40
0.8144312737530762
 40
0.8773211354944362
 40
0.8773211354944362
 40
1.0
 40
1.0
 40
1.0
 40
1.0
 10
515.26288961912
 20
906.4715575062464
 30
0.0
 10
515.2629586112297
 20
906.4802247707552
 30
0.0
 10
515.1932588254182
 20
906.5722224577539
 30
0.0
 10
514.9204488809835
 20
906.9191348904274
 30
0.0
 10
514.7078479929183
 20
907.1856745216642
 30
0.0
 10
513.9201171284959
 20
908.1827789922938
 30
0.0
 10
513.1829424778502
 20
909.1218970030161
 30
0.0
 10
511.5987349893951
 20
911.3311638098259
 30
0.0
 10
510.7312404037038
 20
912.612533654881
 30
0.0
 10
509.6300609402331
 20
914.7909966282183
 30
0.0
 10
509.2931600092929
 20
915.5755244043793
 30
0.0
 10
508.8089644472709
 20
917.219199547546
 30
0.0
 10
508.6633051576484
 20
918.1005834439011
 30
0.0
 10
508.6631210317832
 20
919.8394148181915
 30
0.0
 10
508.8088620824814
 20
920.7213808299576
 30
0.0
 10
509.2915691305634
 20
922.3616734189022
 30
0.0
 10
509.627232569475
 20
923.1446841967578
 30
0.0
 10
510.7301527286647
 20
925.3280514048629
 30
0.0
 10
511.5978693057607
 20
926.609301686909
 30
0.0
 10
512.7856093503373
 20
928.265809867563
 30
0.0
 10
513.1642224240783
 20
928.7707547029693
 30
0.0
 10
513.862309669479
 20
929.683170858719
 30
0.0
 10
514.181126108736
 20
930.0893567247685
 30
0.0
 10
514.9555148089877
 20
931.0696088266131
 30
0.0
 10
515.2623612330814
 20
931.4517347605853
 30
0.0
 10
515.2628645659671
 20
931.4701820681937
 30
0.0
  0
LINE
  5
187
330
FC
100
AcDbEntity
  8
DV2_Default
 62
     7
100
AcDbLine
 10
514.2628850956
 20
940.9708822751
 30
0.0
 11
486.2628850956
 21
940.9708822751
 31
0.0
  0
LINE
  5
188
330
FC
100
AcDbEntity
  8
DV2_Default
 62
     7
100
AcDbLine
 10
515.2628850956
 20
931.4622757038
 30
0.0
 11
515.2628850956
 21
939.9708822751
 31
0.0
  0
LINE
  5
189
330
FC
100
AcDbEntity
  8
DV2_Default
 62
     7
100
AcDbLine
 10
515.2628850956
 20
897.4708822751
 30
0.0
 11
515.2628850956
 21
906.4800252371
 31
0.0
  0
LINE
  5
18A
330
FC
100
AcDbEntity
  8
DV2_Default
 62
     7
100
AcDbLine
 10
485.2628850956
 20
939.9708822751
 30
0.0
 11
485.2628850956
 21
897.4708822751
 31
0.0
  0
ARC
  5
18B
330
FC
100
AcDbEntity
  8
DV2_Default
 62
     7
100
AcDbCircle
 10
514.2628850956
 20
939.9708822751
 30
0.0
 40
1.000000000000001
100
AcDbArc
 50
0.0
 51
90.0
  0
ARC
  5
18C
330
FC
100
AcDbEntity
  8
DV2_Default
 62
     7
100
AcDbCircle
 10
486.2628850956
 20
939.9708822751
 30
0.0
 40
1.000000000000001
100
AcDbArc
 50
90.0
 51
180.0
  0
ARC
  5
18D
330
FC
100
AcDbEntity
  8
DV2_Default
 62
     7
100
AcDbCircle
 10
514.7628850956
 20
897.4708822751
 30
0.0
 40
0.5000000000000004
100
AcDbArc
 50
270.0
 51
0.0
  0
ARC
  5
18E
330
FC
100
AcDbEntity
  8
DV2_Default
 62
     7
100
AcDbCircle
 10
485.7628850956
 20
897.4708822751
 30
0.0
 40
0.5000000000000004
100
AcDbArc
 50
180.0
 51
270.0
  0
LINE
  5
18F
330
FC
100
AcDbEntity
  8
DV2_Default
 62
     7
100
AcDbLine
 10
786.2697887675
 20
935.6700980651
 30
0.0
 11
786.2460989082
 21
935.4570425789
 31
0.0
  0
LINE
  5
190
330
FC
100
AcDbEntity
  8
DV2_Default
 62
     7
100
AcDbLine
 10
786.2489943239
 20
902.4006520607
 30
0.0
 11
786.2412338202
 21
902.5170286168
 31
0.0
  0
LINE
  5
191
330
FC
100
AcDbEntity
  8
DV2_Default
 62
     7
100
AcDbLine
 10
833.7472045776
 20
935.9674478369
 30
0.0
 11
833.786356769
 21
936.1593805532
 31
0.0
  0
LINE
  5
192
330
FC
100
AcDbEntity
  8
DV2_Default
 62
     7
100
AcDbLine
 10
833.6692892884
 20
933.2208822751
 30
0.0
 11
833.6692892884
 21
904.7208822751
 31
0.0
  0
ARC
  5
193
330
FC
100
AcDbEntity
  8
DV2_Default
 62
     7
100
AcDbCircle
 10
858.369433962
 20
937.4684058138
 30
0.0
 40
0.997523538726116
100
AcDbArc
 50
270.0001020075
 51
314.6653144629
  0
ENDBLK
  5
195
330
FC
100
AcDbEntity
  8
0
100
AcDbBlockEnd
  0
BLOCK
  5
1E0
330
196
100
AcDbEntity
  8
0
100
AcDbBlockBegin
  2
SE2
 70
     0
 10
0.0
 20
0.0
 30
0.0
  3
SE2
  1

  0
LINE
  5
199
330
196
100
AcDbEntity
  8
DV3_Default
 62
     7
100
AcDbLine
 10
268.0363787692
 20
539.3716046168
 30
0.0
 11
268.0363787692
 21
538.7142234529
 31
0.0
  0
LINE
  5
19A
330
196
100
AcDbEntity
  8
DV3_Default
 62
     7
100
AcDbLine
 10
313.0363787692
 20
538.7142234529
 30
0.0
 11
313.0363787692
 21
539.3716046168
 31
0.0
  0
ARC
  5
19B
330
196
100
AcDbEntity
  8
DV3_Default
 62
     7
100
AcDbCircle
 10
271.0363787692
 20
538.7142234529
 30
0.0
 40
2.999999999999999
100
AcDbArc
 50
180.0
 51
205.7869019645
  0
ARC
  5
19C
330
196
100
AcDbEntity
  8
DV3_Default
 62
     7
100
AcDbCircle
 10
310.0363787692
 20
538.7142234529
 30
0.0
 40
2.999999999999996
100
AcDbArc
 50
334.2130980355
 51
0.0
  0
ARC
  5
19D
330
196
100
AcDbEntity
  8
DV3_Default
 62
     7
100
AcDbCircle
 10
355.2463787692
 20
516.8716045623
 30
0.0
 40
47.20999999995
100
AcDbArc
 50
154.2130980353
 51
180.0
  0
ARC
  5
19E
330
196
100
AcDbEntity
  8
DV3_Default
 62
     7
100
AcDbCircle
 10
225.8263787693
 20
516.8716045623
 30
0.0
 40
47.20999999994999
100
AcDbArc
 50
0.4206673005
 51
25.7869019648
  0
LINE
  5
19F
330
196
100
AcDbEntity
  8
DV3_Default
 62
     7
100
AcDbLine
 10
273.0363787692
 20
492.2558956657
 30
0.0
 11
273.0363787692
 21
467.3716045622
 31
0.0
  0
LINE
  5
1A0
330
196
100
AcDbEntity
  8
DV3_Default
 62
     7
100
AcDbLine
 10
308.0363787692
 20
467.3716045623
 30
0.0
 11
308.0363787692
 21
516.8716045623
 31
0.0
  0
ARC
  5
1A1
330
196
100
AcDbEntity
  8
DV3_Default
 62
     7
100
AcDbCircle
 10
273.5363787693
 20
467.3716045625
 30
0.0
 40
0.5000000000058187
100
AcDbArc
 50
180.0000000382
 51
270.0
  0
ARC
  5
1A2
330
196
100
AcDbEntity
  8
DV3_Default
 62
     7
100
AcDbCircle
 10
307.5363787693
 20
467.3716045625
 30
0.0
 40
0.4999999999971
100
AcDbArc
 50
270.0
 51
359.9999999771
  0
LINE
  5
1A3
330
196
100
AcDbEntity
  8
DV3_Default
 62
     7
100
AcDbLine
 10
273.5363787693
 20
466.8716045625
 30
0.0
 11
307.5363787693
 21
466.8716045625
 31
0.0
  0
LINE
  5
1A4
330
196
100
AcDbEntity
  8
DV3_Default
 62
     7
100
AcDbLine
 10
304.7863787692
 20
466.3716045623
 30
0.0
 11
304.7863787692
 21
466.8716045623
 31
0.0
  0
LINE
  5
1A5
330
196
100
AcDbEntity
  8
DV3_Default
 62
     7
100
AcDbLine
 10
276.2863787692
 20
466.8716045623
 30
0.0
 11
276.2863787692
 21
466.3716045623
 31
0.0
  0
LINE
  5
1A6
330
196
100
AcDbEntity
  8
DV3_Default
 62
     7
100
AcDbLine
 10
273.5363787692
 20
466.3716045623
 30
0.0
 11
307.5363787692
 21
466.3716045623
 31
0.0
  0
LINE
  5
1A7
330
196
100
AcDbEntity
  8
DV3_Default
 62
     7
100
AcDbLine
 10
273.8363787692
 20
434.0216045623
 30
0.0
 11
283.3428535644
 21
434.0216045623
 31
0.0
  0
ARC
  5
1A8
330
196
100
AcDbEntity
  8
DV3_Default
 62
     7
100
AcDbCircle
 10
283.3428367331
 20
433.7215845526
 30
0.0
 40
0.3000196887095151
100
AcDbArc
 50
31.27440868
 51
89.9967893406
  0
LINE
  5
1A9
330
196
100
AcDbEntity
  8
DV3_Default
 62
     7
100
AcDbLine
 10
307.2363787692
 20
434.0216045623
 30
0.0
 11
297.7297917808
 21
434.0214050377
 31
0.0
  0
ARC
  5
1AA
330
196
100
AcDbEntity
  8
DV3_Default
 62
     7
100
AcDbCircle
 10
297.7296904986
 20
433.7214056526
 30
0.0
 40
0.2999994021909553
100
AcDbArc
 50
89.9806564785
 51
148.7200822193
  0
ARC
  5
1AB
330
196
100
AcDbEntity
  8
DV3_Default
 62
     7
100
AcDbCircle
 10
297.0176595934
 20
434.0829956022
 30
0.0
 40
0.4999707153778231
100
AcDbArc
 50
279.5378426184
 51
335.6900343059
  0
ARC
  5
1AC
330
196
100
AcDbEntity
  8
DV3_Default
 62
     7
100
AcDbCircle
 10
290.4364242057
 20
482.9951007686
 30
0.0
 40
49.8266468432814
100
AcDbArc
 50
262.5575685102
 51
267.3331642757
  0
ARC
  5
1AD
330
196
100
AcDbEntity
  8
DV3_Default
 62
     7
100
AcDbCircle
 10
290.5341452819
 20
484.1242386838
 30
0.0
 40
50.95912860263505
100
AcDbArc
 50
267.2824804512
 51
277.4034553372
  0
ARC
  5
1AE
330
196
100
AcDbEntity
  8
DV3_Default
 62
     7
100
AcDbCircle
 10
284.0548922466
 20
434.0827070618
 30
0.0
 40
0.4997772414289803
100
AcDbArc
 50
204.2629678095
 51
261.6576192943
  0
ARC
  5
1AF
330
196
100
AcDbEntity
  8
DV3_Default
 62
     7
100
AcDbCircle
 10
307.5363787692
 20
465.8716045623
 30
0.0
 40
0.5000000000000004
100
AcDbArc
 50
0.0
 51
90.0
  0
ARC
  5
1B0
330
196
100
AcDbEntity
  8
DV3_Default
 62
     7
100
AcDbCircle
 10
273.5363787692
 20
465.8716045623
 30
0.0
 40
0.5000000000000004
100
AcDbArc
 50
90.0
 51
180.0
  0
LINE
  5
1B1
330
196
100
AcDbEntity
  8
DV3_Default
 62
     7
100
AcDbLine
 10
308.0363787692
 20
434.8216045623
 30
0.0
 11
308.0363787692
 21
465.8716045623
 31
0.0
  0
LINE
  5
1B2
330
196
100
AcDbEntity
  8
DV3_Default
 62
     7
100
AcDbLine
 10
273.0363787692
 20
465.8716045623
 30
0.0
 11
273.0363787692
 21
434.8216045623
 31
0.0
  0
ARC
  5
1B3
330
196
100
AcDbEntity
  8
DV3_Default
 62
     7
100
AcDbCircle
 10
273.8363787692
 20
434.8216045623
 30
0.0
 40
0.7999999999999986
100
AcDbArc
 50
180.0
 51
270.0
  0
ARC
  5
1B4
330
196
100
AcDbEntity
  8
DV3_Default
 62
     7
100
AcDbCircle
 10
307.2363787692
 20
434.8216045623
 30
0.0
 40
0.800000000000002
100
AcDbArc
 50
270.0
 51
0.0
  0
LINE
  5
1B5
330
196
100
AcDbEntity
  8
DV3_Default
 62
     7
100
AcDbLine
 10
55.4557406686
 20
171.3073877718
 30
0.0
 11
21.4570352844
 21
171.0106855648
 31
0.0
  0
LINE
  5
1B6
330
196
100
AcDbEntity
  8
DV3_Default
 62
     7
100
AcDbLine
 10
55.4380555151
 20
138.9560016
 30
0.0
 11
45.8998808002
 21
138.8727632103
 31
0.0
  0
ARC
  5
1B7
330
196
100
AcDbEntity
  8
DV3_Default
 62
     7
100
AcDbCircle
 10
45.9356712207
 20
138.5748859547
 30
0.0
 40
0.3000196887095763
100
AcDbArc
 50
96.8513344155
 51
149.6362289051
  0
LINE
  5
1B8
330
196
100
AcDbEntity
  8
DV3_Default
 62
     7
100
AcDbLine
 10
22.0393272847
 20
138.6645353134
 30
0.0
 11
31.5577134361
 21
138.7477622076
 31
0.0
  0
ARC
  5
1B9
330
196
100
AcDbEntity
  8
DV3_Default
 62
     7
100
AcDbCircle
 10
31.5479131501
 20
138.4479229245
 30
0.0
 40
0.2999994021909899
100
AcDbArc
 50
31.6704803021
 51
88.1279464591
  0
ARC
  5
1BA
330
196
100
AcDbEntity
  8
DV3_Default
 62
     7
100
AcDbCircle
 10
32.257121632
 20
138.8150980323
 30
0.0
 40
0.4999707153777962
100
AcDbArc
 50
204.7939021068
 51
260.9621573816
  0
ARC
  5
1BB
330
196
100
AcDbEntity
  8
DV3_Default
 62
     7
100
AcDbCircle
 10
38.4144858795
 20
187.783220274
 30
0.0
 40
49.82664684329895
100
AcDbArc
 50
273.163117653
 51
277.9387014632
  0
ARC
  5
1BC
330
196
100
AcDbEntity
  8
DV3_Default
 62
     7
100
AcDbCircle
 10
38.3021767331
 20
188.9111990089
 30
0.0
 40
50.95912860263735
100
AcDbArc
 50
263.0982725521
 51
273.2192198616
  0
ARC
  5
1BD
330
196
100
AcDbEntity
  8
DV3_Default
 62
     7
100
AcDbCircle
 10
45.2193979143
 20
138.9279295523
 30
0.0
 40
0.4997772414289774
100
AcDbArc
 50
278.8423807057
 51
336.2370321906
  0
ARC
  5
1BE
330
196
100
AcDbEntity
  8
DV3_Default
 62
     7
100
AcDbCircle
 10
55.4601039364
 20
170.8074068103
 30
0.0
 40
0.5000000000000018
100
AcDbArc
 50
0.5
 51
90.5
  0
ARC
  5
1BF
330
196
100
AcDbEntity
  8
DV3_Default
 62
     7
100
AcDbCircle
 10
21.4613985522
 20
170.5107046033
 30
0.0
 40
0.5000000000000013
100
AcDbArc
 50
90.5
 51
180.5
  0
LINE
  5
1C0
330
196
100
AcDbEntity
  8
DV3_Default
 62
     7
100
AcDbLine
 10
56.2310438251
 20
139.7629523669
 30
0.0
 11
55.9600848979
 21
170.811770078
 31
0.0
  0
LINE
  5
1C1
330
196
100
AcDbEntity
  8
DV3_Default
 62
     7
100
AcDbLine
 10
20.9614175907
 20
170.5063413356
 30
0.0
 11
21.2323765179
 21
139.4575236244
 31
0.0
  0
ARC
  5
1C2
330
196
100
AcDbEntity
  8
DV3_Default
 62
     7
100
AcDbCircle
 10
55.4310742867
 20
139.7559711385
 30
0.0
 40
0.7999999999999581
100
AcDbArc
 50
270.5
 51
0.5
  0
ARC
  5
1C3
330
196
100
AcDbEntity
  8
DV3_Default
 62
     7
100
AcDbCircle
 10
22.0323460563
 20
139.4645048528
 30
0.0
 40
0.8000000000000131
100
AcDbArc
 50
180.5
 51
270.5
  0
LINE
  5
1C4
330
196
100
AcDbEntity
  8
DV3_Default
 62
     7
100
AcDbLine
 10
314.1275254445
 20
539.3716046168
 30
0.0
 11
266.945232094
 21
539.3716046168
 31
0.0
  0
LINE
  5
1C5
330
196
100
AcDbEntity
  8
DV3_Default
 62
     7
100
AcDbLine
 10
320.036378768
 20
560.8716045623
 30
0.0
 11
261.0363787704
 21
560.8716045623
 31
0.0
  0
ARC
  5
1C6
330
196
100
AcDbEntity
  8
DV3_Default
 62
     7
100
AcDbCircle
 10
266.945232094
 20
539.6716046168
 30
0.0
 40
0.3000000000000052
100
AcDbArc
 50
210.0626840505
 51
270.0
  0
ARC
  5
1C7
330
196
100
AcDbEntity
  8
DV3_Default
 62
     7
100
AcDbCircle
 10
314.1275254445
 20
539.6716046168
 30
0.0
 40
0.3000000000000086
100
AcDbArc
 50
270.0
 51
329.9373159495
  0
ARC
  5
1C8
330
196
100
AcDbEntity
  8
DV3_Default
 62
     7
100
AcDbCircle
 10
225.8263787718
 20
515.8716045858
 30
0.0
 40
47.21000000004
100
AcDbArc
 50
30.0626840504
 51
40.4844440909
  0
ARC
  5
1C9
330
196
100
AcDbEntity
  8
DV3_Default
 62
     7
100
AcDbCircle
 10
355.2463787666
 20
515.8716045858
 30
0.0
 40
47.21000000003999
100
AcDbArc
 50
139.5155559091
 51
149.9373159496
  0
ARC
  5
1CA
330
196
100
AcDbEntity
  8
DV3_Default
 62
     7
100
AcDbCircle
 10
265.5363787704
 20
549.7685071009
 30
0.0
 40
5.000000000000001
100
AcDbArc
 50
180.0
 51
220.4844440909
  0
ARC
  5
1CB
330
196
100
AcDbEntity
  8
DV3_Default
 62
     7
100
AcDbCircle
 10
315.536378768
 20
549.7685071009
 30
0.0
 40
5.000000000000001
100
AcDbArc
 50
319.5155559091
 51
0.0
  0
LINE
  5
1CC
330
196
100
AcDbEntity
  8
DV3_Default
 62
     7
100
AcDbLine
 10
260.5363787704
 20
560.3716045623
 30
0.0
 11
260.5363787704
 21
549.7685071009
 31
0.0
  0
LINE
  5
1CD
330
196
100
AcDbEntity
  8
DV3_Default
 62
     7
100
AcDbLine
 10
320.536378768
 20
549.7685071009
 30
0.0
 11
320.536378768
 21
560.3716045623
 31
0.0
  0
ARC
  5
1CE
330
196
100
AcDbEntity
  8
DV3_Default
 62
     7
100
AcDbCircle
 10
261.0363787704
 20
560.3716045623
 30
0.0
 40
0.5000000000000004
100
AcDbArc
 50
90.0
 51
180.0
  0
ARC
  5
1CF
330
196
100
AcDbEntity
  8
DV3_Default
 62
     7
100
AcDbCircle
 10
320.036378768
 20
560.3716045623
 30
0.0
 40
0.5000000000000004
100
AcDbArc
 50
0.0
 51
90.0
  0
LINE
  5
1D0
330
196
100
AcDbEntity
  8
DV3_Default
 62
     7
100
AcDbLine
 10
48.1179690361
 20
492.2558956657
 30
0.0
 11
287.1627970749
 21
492.2558956657
 31
0.0
  0
LINE
  5
1D1
330
196
100
AcDbEntity
  8
DV3_Default
 62
     7
100
AcDbLine
 10
279.6760115219
 20
517.2182186585
 30
0.0
 11
43.7282529527
 21
517.2182186585
 31
0.0
  0
CIRCLE
  5
1D2
330
196
100
AcDbEntity
  8
DV3_Default
 62
     7
100
AcDbCircle
 10
290.5363787692
 20
506.8716045623
 30
0.0
 40
15.0
  0
LINE
  5
1D3
330
196
100
AcDbEntity
  8
DV3_Default
 62
     7
100
AcDbLine
 10
21.4526720175
 20
171.5106665264
 30
0.0
 11
55.4513774002
 21
171.8073687334
 31
0.0
  0
LINE
  5
1D4
330
196
100
AcDbEntity
  8
DV3_Default
 62
     7
100
AcDbLine
 10
21.5425058106
 20
218.5132401782
 30
0.0
 11
54.5412492703
 21
218.8012158496
 31
0.0
  0
LINE
  5
1D5
330
196
100
AcDbEntity
  8
DV3_Default
 62
     7
100
AcDbLine
 10
24.2025673052
 20
171.5346644991
 30
0.0
 11
24.2069305729
 21
171.0346835375
 31
0.0
  0
LINE
  5
1D6
330
196
100
AcDbEntity
  8
DV3_Default
 62
     7
100
AcDbLine
 10
52.7058453803
 20
171.2833897992
 30
0.0
 11
52.7014821125
 21
171.7833707608
 31
0.0
  0
ARC
  5
1D7
330
196
100
AcDbEntity
  8
DV3_Default
 62
     7
100
AcDbCircle
 10
21.5512323461
 20
217.5132782551
 30
0.0
 40
1.000000000000003
100
AcDbArc
 50
90.5
 51
180.5
  0
ARC
  5
1D8
330
196
100
AcDbEntity
  8
DV3_Default
 62
     7
100
AcDbCircle
 10
54.5499758058
 20
217.8012539266
 30
0.0
 40
1.000000000000003
100
AcDbArc
 50
0.5
 51
90.5
  0
LINE
  5
1D9
330
196
100
AcDbEntity
  8
DV3_Default
 62
     7
100
AcDbLine
 10
20.551270423
 20
217.5045517196
 30
0.0
 11
20.9483277882
 21
172.0062842202
 31
0.0
  0
LINE
  5
1DA
330
196
100
AcDbEntity
  8
DV3_Default
 62
     7
100
AcDbLine
 10
55.946995094
 20
172.3117129627
 30
0.0
 11
55.5499377289
 21
217.8099804621
 31
0.0
  0
ARC
  5
1DB
330
196
100
AcDbEntity
  8
DV3_Default
 62
     7
100
AcDbCircle
 10
21.4483087497
 20
172.010647488
 30
0.0
 40
0.5000000000000018
100
AcDbArc
 50
180.5
 51
270.5
  0
ARC
  5
1DC
330
196
100
AcDbEntity
  8
DV3_Default
 62
     7
100
AcDbCircle
 10
55.4470141325
 20
172.3073496949
 30
0.0
 40
0.5000000000000016
100
AcDbArc
 50
270.5
 51
0.5
  0
LINE
  5
1DD
330
196
100
AcDbEntity
  8
DV3_Default
 62
     7
100
AcDbLine
 10
23.1189209595
 20
496.2460100579
 30
0.0
 11
23.1189209595
 21
218.5375720338
 31
0.0
  0
LINE
  5
1DE
330
196
100
AcDbEntity
  8
DV3_Default
 62
     7
100
AcDbLine
 10
48.1179690361
 20
218.7557354213
 30
0.0
 11
48.1179690361
 21
496.4641734454
 31
0.0
  0
CIRCLE
  5
1DF
330
196
100
AcDbEntity
  8
DV3_Default
 62
     7
100
AcDbCircle
 10
35.5460883879
 20
504.6463380103
 30
0.0
 40
15.0
  0
ENDBLK
  5
1E1
330
196
100
AcDbEntity
  8
0
100
AcDbBlockEnd
  0
ENDSEC
  0
SECTION
  2
ENTITIES
  0
INSERT
  5
70
330
1F
100
AcDbEntity
  8
Default
100
AcDbBlockReference
  2
SEANNOT_GROUP
 10
0.0
 20
0.0
 30
0.0
  0
INSERT
  5
76
330
1F
100
AcDbEntity
  8
Default
100
AcDbBlockReference
  2
SEANNOT_GROUP1
 10
0.0
 20
0.0
 30
0.0
  0
INSERT
  5
7C
330
1F
100
AcDbEntity
  8
Default
100
AcDbBlockReference
  2
SEANNOT_GROUP2
 10
0.0
 20
0.0
 30
0.0
  0
INSERT
  5
82
330
1F
100
AcDbEntity
  8
Default
100
AcDbBlockReference
  2
SEANNOT_GROUP3
 10
0.0
 20
0.0
 30
0.0
  0
INSERT
  5
88
330
1F
100
AcDbEntity
  8
Default
100
AcDbBlockReference
  2
SEANNOT_GROUP4
 10
0.0
 20
0.0
 30
0.0
  0
INSERT
  5
8E
330
1F
100
AcDbEntity
  8
Default
100
AcDbBlockReference
  2
SEANNOT_GROUP5
 10
0.0
 20
0.0
 30
0.0
  0
INSERT
  5
94
330
1F
100
AcDbEntity
  8
Default
100
AcDbBlockReference
  2
SE
 10
0.0
 20
0.0
 30
0.0
  0
INSERT
  5
FD
330
1F
100
AcDbEntity
  8
Default
100
AcDbBlockReference
  2
SE1
 10
0.0
 20
0.0
 30
0.0
  0
INSERT
  5
197
330
1F
100
AcDbEntity
  8
Default
100
AcDbBlockReference
  2
SE2
 10
0.0
 20
0.0
 30
0.0
  0
MTEXT
  5
1E2
330
1F
100
AcDbEntity
  8
Default
100
AcDbMText
 10
5.9362635081
 20
63.4225120485
 30
0.0
 40
10.0
 41
113.8626497168
 46
65.4545454545
 71
     1
 72
     1
  1
{\fArial Narrow|b0||i0||c0|p34;\C7;\H10.;\W1.;Grohe AG\P}{\fArial Narrow|b0||i0||c0|p34;\C7;\H10.;\W1.;\P}{\fArial Narrow|b0||i0||c0|p34;\C7;\H10.;\W1.;ecn:\P}{\fArial Narrow|b0||i0||c0|p34;\C7;\H10.;\W1.;unit: mm}
 73
     1
 44
1.0
1001
ACAD
1000
ACAD_MTEXT_DEFINED_HEIGHT_BEGIN
1070
    46
1040
65.4545454545
1000
ACAD_MTEXT_DEFINED_HEIGHT_END
  0
LINE
  5
1E3
330
1F
100
AcDbEntity
  8
Default
 62
     7
100
AcDbLine
 10
0.0
 20
0.0
 30
0.0
 11
100.0
 21
0.0
 31
0.0
  0
LINE
  5
1E4
330
1F
100
AcDbEntity
  8
Default
 62
     7
100
AcDbLine
 10
0.0
 20
0.0
 30
0.0
 11
0.0
 21
100.0
 31
0.0
  0
MTEXT
  5
1E5
330
1F
100
AcDbEntity
  8
Default
100
AcDbMText
 10
24.3923665681
 20
-8.2375342018
 30
0.0
 40
10.0
 41
35.00001
 46
16.3636363636
 71
     1
 72
     1
  1
{\fArial Narrow|b0||i0||c0|p34;\C7;\H10.;\W0.82;100 mm}
 73
     1
 44
1.0
1001
ACAD
1000
ACAD_MTEXT_DEFINED_HEIGHT_BEGIN
1070
    46
1040
16.3636363636
1000
ACAD_MTEXT_DEFINED_HEIGHT_END
  0
MTEXT
  5
1E6
330
1F
100
AcDbEntity
  8
Default
100
AcDbMText
 10
-17.6150308803
 20
24.6231930421
 30
0.0
 40
10.0
 41
35.00001
 46
16.3636363636
 71
     1
 72
     1
  1
{\fArial Narrow|b0||i0||c0|p34;\C7;\H10.;\W0.82;100 mm}
 11
6.123233995736766E-17
 21
1.0
 31
0.0
 73
     1
 44
1.0
1001
ACAD
1000
ACAD_MTEXT_DEFINED_HEIGHT_BEGIN
1070
    46
1040
16.3636363636
1000
ACAD_MTEXT_DEFINED_HEIGHT_END
  0
MTEXT
  5
1E7
330
1F
100
AcDbEntity
  8
Default
100
AcDbMText
 10
28.4878128572
 20
24.8634936442
 30
0.0
 40
10.0
 41
86.691737001
 46
16.3636363636
 71
     4
 72
     1
  1
{\fArial Narrow|b0||i0||c0|p34;\C7;\H10.;\W1.;244594}
 73
     1
 44
1.0
1001
ACAD
1000
ACAD_MTEXT_DEFINED_HEIGHT_BEGIN
1070
    46
1040
16.3636363636
1000
ACAD_MTEXT_DEFINED_HEIGHT_END
  0
MTEXT
  5
1E8
330
1F
100
AcDbEntity
  8
Default
100
AcDbMText
 10
5.9012241913
 20
41.4970052916
 30
0.0
 40
10.0
 41
109.9146987306
 46
16.3636363636
 71
     4
 72
     1
  1
{\fArial Narrow|b0||i0||c0|p34;\C7;\H10.;\W1.;31075DC2}
 73
     1
 44
1.0
1001
ACAD
1000
ACAD_MTEXT_DEFINED_HEIGHT_BEGIN
1070
    46
1040
16.3636363636
1000
ACAD_MTEXT_DEFINED_HEIGHT_END
  0
ENDSEC
  0
SECTION
  2
OBJECTS
  0
DICTIONARY
  5
C
330
0
100
AcDbDictionary
281
     1
  3
ACAD_DETAILVIEWSTYLE
350
224
  3
ACAD_GROUP
350
D
  3
ACAD_LAYOUT
350
1A
  3
ACAD_MATERIAL
350
43
  3
ACAD_MLEADERSTYLE
350
6B
  3
ACAD_MLINESTYLE
350
17
  3
ACAD_PLOTSETTINGS
350
19
  3
ACAD_PLOTSTYLENAME
350
E
  3
ACAD_SCALELIST
350
47
  3
ACAD_SECTIONVIEWSTYLE
350
225
  3
ACAD_TABLESTYLE
350
69
  3
ACAD_VISUALSTYLE
350
2A
  3
ACDB_RECOMPOSE_DATA
350
221
  3
AcDbVariableDictionary
350
1E9
  0
SUN
  5
6D
330
29
100
AcDbSun
 90
        1
290
     0
 63
     7
421
 16777215
 40
1.0
291
     1
 91
  2455826
 92
 54000000
292
     0
 70
     2
 71
   256
280
     1
  0
DICTIONARY
  5
224
102
{ACAD_REACTORS
330
C
102
}
330
C
100
AcDbDictionary
281
     1
  0
DICTIONARY
  5
D
102
{ACAD_REACTORS
330
C
102
}
330
C
100
AcDbDictionary
281
     1
  0
DICTIONARY
  5
1A
102
{ACAD_REACTORS
330
C
102
}
330
C
100
AcDbDictionary
281
     1
  3
Layout1
350
1E
  3
Model
350
22
  0
DICTIONARY
  5
43
102
{ACAD_REACTORS
330
C
102
}
330
C
100
AcDbDictionary
281
     1
  3
ByBlock
350
45
  3
ByLayer
350
44
  3
Global
350
46
  0
DICTIONARY
  5
6B
102
{ACAD_REACTORS
330
C
102
}
330
C
100
AcDbDictionary
281
     1
  3
Standard
350
6C
  0
DICTIONARY
  5
17
102
{ACAD_REACTORS
330
C
102
}
330
C
100
AcDbDictionary
281
     1
  3
Standard
350
18
  0
DICTIONARY
  5
19
102
{ACAD_REACTORS
330
C
102
}
330
C
100
AcDbDictionary
281
     1
  0
ACDBDICTIONARYWDFLT
  5
E
102
{ACAD_REACTORS
330
C
102
}
330
C
100
AcDbDictionary
281
     1
  3
Normal
350
F
100
AcDbDictionaryWithDefault
340
F
  0
DICTIONARY
  5
47
102
{ACAD_REACTORS
330
C
102
}
330
C
100
AcDbDictionary
281
     1
  3
A0
350
48
  3
A1
350
49
  3
A2
350
4A
  3
A3
350
4B
  3
A4
350
4C
  3
A5
350
4D
  3
A6
350
4E
  3
A7
350
4F
  3
A8
350
50
  3
A9
350
51
  3
B0
350
52
  3
B1
350
53
  3
B2
350
54
  3
B3
350
55
  3
B4
350
56
  3
B5
350
57
  3
B6
350
58
  3
B7
350
59
  3
B8
350
5A
  3
B9
350
5B
  3
C0
350
5C
  3
C1
350
5D
  3
C2
350
5E
  3
C3
350
5F
  3
C4
350
60
  3
C5
350
61
  3
C6
350
62
  3
C7
350
63
  3
C8
350
64
  3
C9
350
65
  3
D0
350
66
  3
D1
350
67
  3
D2
350
68
  0
DICTIONARY
  5
225
102
{ACAD_REACTORS
330
C
102
}
330
C
100
AcDbDictionary
281
     1
  0
DICTIONARY
  5
69
102
{ACAD_REACTORS
330
C
102
}
330
C
100
AcDbDictionary
281
     1
  3
Standard
350
6A
  0
DICTIONARY
  5
2A
102
{ACAD_REACTORS
330
C
102
}
330
C
100
AcDbDictionary
281
     1
  3
2dWireframe
350
2F
  3
Basic
350
32
  3
Brighten
350
36
  3
ColorChange
350
3A
  3
Conceptual
350
34
  3
Dim
350
35
  3
EdgeColorOff
350
3D
  3
Facepattern
350
39
  3
Flat
350
2B
  3
FlatWithEdges
350
2C
  3
Gouraud
350
2D
  3
GouraudWithEdges
350
2E
  3
Hidden
350
31
  3
JitterOff
350
3B
  3
Linepattern
350
38
  3
OverhangOff
350
3C
  3
Realistic
350
33
  3
Shaded
350
42
  3
Shaded with edges
350
41
  3
Shades of Gray
350
3E
  3
Sketchy
350
3F
  3
Thicken
350
37
  3
Wireframe
350
30
  3
X-Ray
350
40
  0
XRECORD
  5
221
102
{ACAD_REACTORS
330
C
102
}
330
C
100
AcDbXrecord
280
     1
 90
        1
330
6A
  0
DICTIONARY
  5
1E9
102
{ACAD_REACTORS
330
C
102
}
330
C
100
AcDbDictionary
281
     1
  3
CANNOSCALE
350
1EA
  3
CENTEREXE
350
226
  3
CENTERLTYPEFILE
350
227
  3
CMLEADERSTYLE
350
223
  3
CTABLESTYLE
350
222
  3
XCLIPFRAME
350
1EB
  0
LAYOUT
  5
1E
102
{ACAD_REACTORS
330
1A
102
}
330
1A
100
AcDbPlotSettings
  1

  2
none_device
  4

  6

 40
0.0
 41
0.0
 42
0.0
 43
0.0
 44
0.0
 45
0.0
 46
0.0
 47
0.0
 48
0.0
 49
0.0
140
0.0
141
0.0
142
1.0
143
1.0
 70
   688
 72
     1
 73
     0
 74
     5
  7

 75
    16
 76
     0
 77
     2
 78
   300
147
1.0
148
0.0
149
0.0
100
AcDbLayout
  1
Layout1
 70
     1
 71
     1
 10
0.0
 20
0.0
 11
3000.0
 21
4500.0
 12
0.0
 22
0.0
 32
0.0
 14
0.0
 24
0.0
 34
0.0
 15
3000.0
 25
4500.0
 35
0.0
146
0.0
 13
0.0
 23
0.0
 33
0.0
 16
1.0
 26
0.0
 36
0.0
 17
0.0
 27
1.0
 37
0.0
 76
     0
330
1B
  0
LAYOUT
  5
22
102
{ACAD_REACTORS
330
1A
102
}
330
1A
100
AcDbPlotSettings
  1

  2
none_device
  4
Letter_(8.50_x_11.00_Inches)
  6

 40
6.35
 41
6.35
 42
6.35000508
 43
6.35000508
 44
215.9
 45
279.4
 46
0.0
 47
0.0
 48
0.0
 49
0.0
140
0.0
141
0.0
142
1.0
143
1.0
 70
  1712
 72
     1
 73
     0
 74
     0
  7

 75
     0
 76
     0
 77
     2
 78
   300
147
1.0
148
0.0
149
0.0
100
AcDbLayout
  1
Model
 70
     1
 71
     0
 10
0.0
 20
0.0
 11
3000.0
 21
4500.0
 12
0.0
 22
0.0
 32
0.0
 14
0.0
 24
0.0
 34
0.0
 15
3000.0
 25
4500.0
 35
0.0
146
0.0
 13
0.0
 23
0.0
 33
0.0
 16
1.0
 26
0.0
 36
0.0
 17
0.0
 27
1.0
 37
0.0
 76
     0
330
1F
331
29
  0
MATERIAL
  5
45
102
{ACAD_REACTORS
330
43
102
}
330
43
100
AcDbMaterial
  1
ByBlock
 72
     1
 94
      127
  0
MATERIAL
  5
44
102
{ACAD_REACTORS
330
43
102
}
330
43
100
AcDbMaterial
  1
ByLayer
 72
     1
 94
      127
  0
MATERIAL
  5
46
102
{ACAD_REACTORS
330
43
102
}
330
43
100
AcDbMaterial
  1
Global
 72
     1
 94
      127
  0
MLEADERSTYLE
  5
6C
102
{ACAD_REACTORS
330
6B
102
}
102
{ACAD_XDICTIONARY
360
21F
102
}
330
6B
100
AcDbMLeaderStyle
170
     2
171
     1
172
     0
 90
        2
 40
0.0
 41
0.0
173
     1
 91
-1056964608
340
14
 92
       -2
290
     1
 42
2.0
291
     1
 43
8.0
  3
Standard
341
0
 44
4.0
300

342
11
174
     1
178
     6
175
     1
176
     0
 93
-1056964608
 45
4.0
292
     0
297
     0
 46
4.0
343
0
 94
-1056964608
 47
1.0
 49
1.0
140
1.0
293
     1
141
0.0
294
     1
177
     0
142
1.0
295
     0
296
     0
143
3.75
1001
ACAD_MLEADERVER
1070
     2
  0
MLINESTYLE
  5
18
102
{ACAD_REACTORS
330
17
102
}
330
17
100
AcDbMlineStyle
  2
Standard
 70
     0
  3

 62
   256
 51
90.0
 52
90.0
 71
     2
 49
0.5
 62
   256
  6
BYLAYER
 49
-0.5
 62
   256
  6
BYLAYER
  0
ACDBPLACEHOLDER
  5
F
102
{ACAD_REACTORS
330
E
102
}
330
E
  0
SCALE
  5
48
102
{ACAD_REACTORS
330
47
102
}
330
47
100
AcDbScale
 70
     0
300
1:1
140
1.0
141
1.0
290
     1
  0
SCALE
  5
49
102
{ACAD_REACTORS
330
47
102
}
330
47
100
AcDbScale
 70
     0
300
1:2
140
1.0
141
2.0
290
     0
  0
SCALE
  5
4A
102
{ACAD_REACTORS
330
47
102
}
330
47
100
AcDbScale
 70
     0
300
1:4
140
1.0
141
4.0
290
     0
  0
SCALE
  5
4B
102
{ACAD_REACTORS
330
47
102
}
330
47
100
AcDbScale
 70
     0
300
1:5
140
1.0
141
5.0
290
     0
  0
SCALE
  5
4C
102
{ACAD_REACTORS
330
47
102
}
330
47
100
AcDbScale
 70
     0
300
1:8
140
1.0
141
8.0
290
     0
  0
SCALE
  5
4D
102
{ACAD_REACTORS
330
47
102
}
330
47
100
AcDbScale
 70
     0
300
1:10
140
1.0
141
10.0
290
     0
  0
SCALE
  5
4E
102
{ACAD_REACTORS
330
47
102
}
330
47
100
AcDbScale
 70
     0
300
1:16
140
1.0
141
16.0
290
     0
  0
SCALE
  5
4F
102
{ACAD_REACTORS
330
47
102
}
330
47
100
AcDbScale
 70
     0
300
1:20
140
1.0
141
20.0
290
     0
  0
SCALE
  5
50
102
{ACAD_REACTORS
330
47
102
}
330
47
100
AcDbScale
 70
     0
300
1:30
140
1.0
141
30.0
290
     0
  0
SCALE
  5
51
102
{ACAD_REACTORS
330
47
102
}
330
47
100
AcDbScale
 70
     0
300
1:40
140
1.0
141
40.0
290
     0
  0
SCALE
  5
52
102
{ACAD_REACTORS
330
47
102
}
330
47
100
AcDbScale
 70
     0
300
1:50
140
1.0
141
50.0
290
     0
  0
SCALE
  5
53
102
{ACAD_REACTORS
330
47
102
}
330
47
100
AcDbScale
 70
     0
300
1:100
140
1.0
141
100.0
290
     0
  0
SCALE
  5
54
102
{ACAD_REACTORS
330
47
102
}
330
47
100
AcDbScale
 70
     0
300
2:1
140
2.0
141
1.0
290
     0
  0
SCALE
  5
55
102
{ACAD_REACTORS
330
47
102
}
330
47
100
AcDbScale
 70
     0
300
4:1
140
4.0
141
1.0
290
     0
  0
SCALE
  5
56
102
{ACAD_REACTORS
330
47
102
}
330
47
100
AcDbScale
 70
     0
300
8:1
140
8.0
141
1.0
290
     0
  0
SCALE
  5
57
102
{ACAD_REACTORS
330
47
102
}
330
47
100
AcDbScale
 70
     0
300
10:1
140
10.0
141
1.0
290
     0
  0
SCALE
  5
58
102
{ACAD_REACTORS
330
47
102
}
330
47
100
AcDbScale
 70
     0
300
100:1
140
100.0
141
1.0
290
     0
  0
SCALE
  5
59
102
{ACAD_REACTORS
330
47
102
}
330
47
100
AcDbScale
 70
     0
300
1/128" = 1'-0"
140
0.0078125
141
12.0
290
     0
  0
SCALE
  5
5A
102
{ACAD_REACTORS
330
47
102
}
330
47
100
AcDbScale
 70
     0
300
1/64" = 1'-0"
140
0.015625
141
12.0
290
     0
  0
SCALE
  5
5B
102
{ACAD_REACTORS
330
47
102
}
330
47
100
AcDbScale
 70
     0
300
1/32" = 1'-0"
140
0.03125
141
12.0
290
     0
  0
SCALE
  5
5C
102
{ACAD_REACTORS
330
47
102
}
330
47
100
AcDbScale
 70
     0
300
1/16" = 1'-0"
140
0.0625
141
12.0
290
     0
  0
SCALE
  5
5D
102
{ACAD_REACTORS
330
47
102
}
330
47
100
AcDbScale
 70
     0
300
3/32" = 1'-0"
140
0.09375
141
12.0
290
     0
  0
SCALE
  5
5E
102
{ACAD_REACTORS
330
47
102
}
330
47
100
AcDbScale
 70
     0
300
1/8" = 1'-0"
140
0.125
141
12.0
290
     0
  0
SCALE
  5
5F
102
{ACAD_REACTORS
330
47
102
}
330
47
100
AcDbScale
 70
     0
300
3/16" = 1'-0"
140
0.1875
141
12.0
290
     0
  0
SCALE
  5
60
102
{ACAD_REACTORS
330
47
102
}
330
47
100
AcDbScale
 70
     0
300
1/4" = 1'-0"
140
0.25
141
12.0
290
     0
  0
SCALE
  5
61
102
{ACAD_REACTORS
330
47
102
}
330
47
100
AcDbScale
 70
     0
300
3/8" = 1'-0"
140
0.375
141
12.0
290
     0
  0
SCALE
  5
62
102
{ACAD_REACTORS
330
47
102
}
330
47
100
AcDbScale
 70
     0
300
1/2" = 1'-0"
140
0.5
141
12.0
290
     0
  0
SCALE
  5
63
102
{ACAD_REACTORS
330
47
102
}
330
47
100
AcDbScale
 70
     0
300
3/4" = 1'-0"
140
0.75
141
12.0
290
     0
  0
SCALE
  5
64
102
{ACAD_REACTORS
330
47
102
}
330
47
100
AcDbScale
 70
     0
300
1" = 1'-0"
140
1.0
141
12.0
290
     0
  0
SCALE
  5
65
102
{ACAD_REACTORS
330
47
102
}
330
47
100
AcDbScale
 70
     0
300
1-1/2" = 1'-0"
140
1.5
141
12.0
290
     0
  0
SCALE
  5
66
102
{ACAD_REACTORS
330
47
102
}
330
47
100
AcDbScale
 70
     0
300
3" = 1'-0"
140
3.0
141
12.0
290
     0
  0
SCALE
  5
67
102
{ACAD_REACTORS
330
47
102
}
330
47
100
AcDbScale
 70
     0
300
6" = 1'-0"
140
6.0
141
12.0
290
     0
  0
SCALE
  5
68
102
{ACAD_REACTORS
330
47
102
}
330
47
100
AcDbScale
 70
     0
300
1'-0" = 1'-0"
140
12.0
141
12.0
290
     0
  0
TABLESTYLE
  5
6A
102
{ACAD_REACTORS
330
69
102
}
102
{ACAD_XDICTIONARY
360
21C
102
}
330
69
100
AcDbTableStyle
  3
Standard
 70
     0
 71
     0
 40
0.06
 41
0.06
280
     0
281
     0
  7
Standard
140
4.5
170
     2
 62
     0
 63
   257
283
     0
 90
        4
 91
        0
  1

274
    -2
284
     1
 64
     0
275
    -2
285
     1
 65
     0
276
    -2
286
     1
 66
     0
277
    -2
287
     1
 67
     0
278
    -2
288
     1
 68
     0
279
    -2
289
     1
 69
     0
  7
Standard
140
6.0
170
     5
 62
     0
 63
   257
283
     0
 90
        4
 91
        0
  1

274
    -2
284
     1
 64
     0
275
    -2
285
     1
 65
     0
276
    -2
286
     1
 66
     0
277
    -2
287
     1
 67
     0
278
    -2
288
     1
 68
     0
279
    -2
289
     1
 69
     0
  7
Standard
140
4.5
170
     5
 62
     0
 63
   257
283
     0
 90
        4
 91
        0
  1

274
    -2
284
     1
 64
     0
275
    -2
285
     1
 65
     0
276
    -2
286
     1
 66
     0
277
    -2
287
     1
 67
     0
278
    -2
288
     1
 68
     0
279
    -2
289
     1
 69
     0
  0
VISUALSTYLE
  5
2F
102
{ACAD_REACTORS
330
2A
102
}
102
{ACAD_XDICTIONARY
360
1F4
102
}
330
2A
100
AcDbVisualStyle
  2
2dWireframe
 70
     4
 71
     0
 72
     2
 73
     0
 90
        0
 40
0.6
 41
30.0
 62
     5
 63
     7
421
 16777215
 74
     1
 91
        4
 64
     7
 65
   257
 75
     1
175
     1
 42
1.0
 92
        0
 66
   257
 43
1.0
 76
     1
 77
     6
 78
     2
 67
     7
 79
     5
170
     0
171
     0
290
     0
174
     0
 93
        1
 44
0.0
173
     0
291
     0
 45
0.0
  0
VISUALSTYLE
  5
32
102
{ACAD_REACTORS
330
2A
102
}
102
{ACAD_XDICTIONARY
360
1FA
102
}
330
2A
100
AcDbVisualStyle
  2
Basic
 70
     7
 71
     1
 72
     0
 73
     1
 90
        0
 40
0.6
 41
30.0
 62
     5
 63
     7
421
 16777215
 74
     0
 91
        4
 64
     7
 65
   257
 75
     1
175
     1
 42
1.0
 92
        8
 66
     7
 43
1.0
 76
     1
 77
     6
 78
     2
 67
     7
 79
     5
170
     0
171
     0
290
     0
174
     0
 93
        1
 44
0.0
173
     0
291
     1
 45
0.0
  0
VISUALSTYLE
  5
36
102
{ACAD_REACTORS
330
2A
102
}
102
{ACAD_XDICTIONARY
360
202
102
}
330
2A
100
AcDbVisualStyle
  2
Brighten
 70
    12
 71
     2
 72
     2
 73
     0
 90
        0
 40
0.6
 41
30.0
 62
     5
 63
     7
421
 16777215
 74
     1
 91
        4
 64
     7
 65
   257
 75
     1
175
     1
 42
1.0
 92
        8
 66
     7
 43
1.0
 76
     1
 77
     6
 78
     2
 67
     7
 79
     5
170
     0
171
     0
290
     0
174
     0
 93
        1
 44
50.0
173
     0
291
     1
 45
0.0
  0
VISUALSTYLE
  5
3A
102
{ACAD_REACTORS
330
2A
102
}
102
{ACAD_XDICTIONARY
360
20A
102
}
330
2A
100
AcDbVisualStyle
  2
ColorChange
 70
    16
 71
     2
 72
     2
 73
     3
 90
        0
 40
0.6
 41
30.0
 62
     5
 63
     8
421
  8421504
 74
     1
 91
        4
 64
     7
 65
   257
 75
     1
175
     1
 42
1.0
 92
        8
 66
     8
424
  8421504
 43
1.0
 76
     1
 77
     6
 78
     2
 67
     7
 79
     5
170
     0
171
     0
290
     0
174
     0
 93
        1
 44
0.0
173
     0
291
     1
 45
0.0
  0
VISUALSTYLE
  5
34
102
{ACAD_REACTORS
330
2A
102
}
102
{ACAD_XDICTIONARY
360
1FE
102
}
330
2A
100
AcDbVisualStyle
  2
Conceptual
 70
     9
 71
     3
 72
     2
 73
     0
 90
        0
 40
0.6
 41
30.0
 62
     5
 63
     7
421
 16777215
 74
     2
 91
        2
 64
     7
 65
   257
 75
     1
175
     1
 42
179.0
 92
        8
 66
     7
 43
1.0
 76
     1
 77
     6
 78
     2
 67
     7
 79
     3
170
     0
171
     0
290
     0
174
     0
 93
        1
 44
0.0
173
     0
291
     0
 45
0.0
  0
VISUALSTYLE
  5
35
102
{ACAD_REACTORS
330
2A
102
}
102
{ACAD_XDICTIONARY
360
200
102
}
330
2A
100
AcDbVisualStyle
  2
Dim
 70
    11
 71
     2
 72
     2
 73
     0
 90
        0
 40
0.6
 41
30.0
 62
     5
 63
     7
421
 16777215
 74
     1
 91
        4
 64
     7
 65
   257
 75
     1
175
     1
 42
1.0
 92
        8
 66
     7
 43
1.0
 76
     1
 77
     6
 78
     2
 67
     7
 79
     5
170
     0
171
     0
290
     0
174
     0
 93
        1
 44
-50.0
173
     0
291
     1
 45
0.0
  0
VISUALSTYLE
  5
3D
102
{ACAD_REACTORS
330
2A
102
}
102
{ACAD_XDICTIONARY
360
210
102
}
330
2A
100
AcDbVisualStyle
  2
EdgeColorOff
 70
    22
 71
     2
 72
     2
 73
     0
 90
        0
 40
0.6
 41
30.0
 62
     5
 63
     7
421
 16777215
 74
     1
 91
        4
 64
     7
 65
   257
 75
     1
175
     1
 42
1.0
 92
        8
 66
     7
 43
1.0
 76
     1
 77
     6
 78
     2
 67
     7
 79
     5
170
     0
171
     0
290
     0
174
     0
 93
        1
 44
0.0
173
     0
291
     1
 45
0.0
  0
VISUALSTYLE
  5
39
102
{ACAD_REACTORS
330
2A
102
}
102
{ACAD_XDICTIONARY
360
208
102
}
330
2A
100
AcDbVisualStyle
  2
Facepattern
 70
    15
 71
     2
 72
     2
 73
     0
 90
        0
 40
0.6
 41
30.0
 62
     5
 63
     7
421
 16777215
 74
     1
 91
        4
 64
     7
 65
   257
 75
     1
175
     1
 42
1.0
 92
        8
 66
     7
 43
1.0
 76
     1
 77
     6
 78
     2
 67
     7
 79
     5
170
     0
171
     0
290
     0
174
     0
 93
        1
 44
0.0
173
     0
291
     1
 45
0.0
  0
VISUALSTYLE
  5
2B
102
{ACAD_REACTORS
330
2A
102
}
102
{ACAD_XDICTIONARY
360
1EC
102
}
330
2A
100
AcDbVisualStyle
  2
Flat
 70
     0
 71
     2
 72
     1
 73
     1
 90
        2
 40
0.6
 41
30.0
 62
     5
 63
     7
421
 16777215
 74
     0
 91
        0
 64
     7
 65
   257
 75
     1
175
     1
 42
1.0
 92
        8
 66
     7
 43
1.0
 76
     1
 77
     6
 78
     2
 67
     7
 79
     5
170
     0
171
     0
290
     0
174
     0
 93
       13
 44
0.0
173
     0
291
     1
 45
0.0
  0
VISUALSTYLE
  5
2C
102
{ACAD_REACTORS
330
2A
102
}
102
{ACAD_XDICTIONARY
360
1EE
102
}
330
2A
100
AcDbVisualStyle
  2
FlatWithEdges
 70
     1
 71
     2
 72
     1
 73
     1
 90
        2
 40
0.6
 41
30.0
 62
     5
 63
     7
421
 16777215
 74
     1
 91
        0
 64
     7
 65
   257
 75
     1
175
     1
 42
1.0
 92
        0
 66
   257
 43
1.0
 76
     1
 77
     6
 78
     2
 67
     7
 79
     5
170
     0
171
     0
290
     0
174
     0
 93
       13
 44
0.0
173
     0
291
     1
 45
0.0
  0
VISUALSTYLE
  5
2D
102
{ACAD_REACTORS
330
2A
102
}
102
{ACAD_XDICTIONARY
360
1F0
102
}
330
2A
100
AcDbVisualStyle
  2
Gouraud
 70
     2
 71
     2
 72
     2
 73
     1
 90
        2
 40
0.6
 41
30.0
 62
     5
 63
     7
421
 16777215
 74
     0
 91
        0
 64
     7
 65
   257
 75
     1
175
     1
 42
1.0
 92
        0
 66
     7
 43
1.0
 76
     1
 77
     6
 78
     2
 67
     7
 79
     5
170
     0
171
     0
290
     0
174
     0
 93
       13
 44
0.0
173
     0
291
     1
 45
0.0
  0
VISUALSTYLE
  5
2E
102
{ACAD_REACTORS
330
2A
102
}
102
{ACAD_XDICTIONARY
360
1F2
102
}
330
2A
100
AcDbVisualStyle
  2
GouraudWithEdges
 70
     3
 71
     2
 72
     2
 73
     1
 90
        2
 40
0.6
 41
30.0
 62
     5
 63
     7
421
 16777215
 74
     1
 91
        0
 64
     7
 65
   257
 75
     1
175
     1
 42
1.0
 92
        0
 66
   257
 43
1.0
 76
     1
 77
     6
 78
     2
 67
     7
 79
     5
170
     0
171
     0
290
     0
174
     0
 93
       13
 44
0.0
173
     0
291
     1
 45
0.0
  0
VISUALSTYLE
  5
31
102
{ACAD_REACTORS
330
2A
102
}
102
{ACAD_XDICTIONARY
360
1F8
102
}
330
2A
100
AcDbVisualStyle
  2
Hidden
 70
     6
 71
     1
 72
     2
 73
     2
 90
        0
 40
0.6
 41
30.0
 62
     5
 63
     7
421
 16777215
 74
     2
 91
        2
 64
     7
 65
   257
 75
     2
175
     1
 42
40.0
 92
        0
 66
   257
 43
1.0
 76
     1
 77
     6
 78
     2
 67
     7
 79
     3
170
     0
171
     0
290
     0
174
     0
 93
        1
 44
0.0
173
     0
291
     0
 45
0.0
  0
VISUALSTYLE
  5
3B
102
{ACAD_REACTORS
330
2A
102
}
102
{ACAD_XDICTIONARY
360
20C
102
}
330
2A
100
AcDbVisualStyle
  2
JitterOff
 70
    20
 71
     2
 72
     2
 73
     0
 90
        0
 40
0.6
 41
30.0
 62
     5
 63
     7
421
 16777215
 74
     1
 91
        4
 64
     7
 65
   257
 75
     1
175
     1
 42
1.0
 92
       10
 66
     7
 43
1.0
 76
     1
 77
     6
 78
     2
 67
     7
 79
     5
170
     0
171
     0
290
     0
174
     0
 93
        1
 44
0.0
173
     0
291
     1
 45
0.0
  0
VISUALSTYLE
  5
38
102
{ACAD_REACTORS
330
2A
102
}
102
{ACAD_XDICTIONARY
360
206
102
}
330
2A
100
AcDbVisualStyle
  2
Linepattern
 70
    14
 71
     2
 72
     2
 73
     0
 90
        0
 40
0.6
 41
30.0
 62
     5
 63
     7
421
 16777215
 74
     1
 91
        4
 64
     7
 65
   257
 75
     7
175
     7
 42
1.0
 92
        8
 66
     7
 43
1.0
 76
     1
 77
     6
 78
     2
 67
     7
 79
     5
170
     0
171
     0
290
     0
174
     0
 93
        1
 44
0.0
173
     0
291
     1
 45
0.0
  0
VISUALSTYLE
  5
3C
102
{ACAD_REACTORS
330
2A
102
}
102
{ACAD_XDICTIONARY
360
20E
102
}
330
2A
100
AcDbVisualStyle
  2
OverhangOff
 70
    21
 71
     2
 72
     2
 73
     0
 90
        0
 40
0.6
 41
30.0
 62
     5
 63
     7
421
 16777215
 74
     1
 91
        4
 64
     7
 65
   257
 75
     1
175
     1
 42
1.0
 92
        9
 66
     7
 43
1.0
 76
     1
 77
     6
 78
     2
 67
     7
 79
     5
170
     0
171
     0
290
     0
174
     0
 93
        1
 44
0.0
173
     0
291
     1
 45
0.0
  0
VISUALSTYLE
  5
33
102
{ACAD_REACTORS
330
2A
102
}
102
{ACAD_XDICTIONARY
360
1FC
102
}
330
2A
100
AcDbVisualStyle
  2
Realistic
 70
     8
 71
     2
 72
     3
 73
     0
 90
        2
 40
0.6
 41
30.0
 62
     5
 63
     7
421
 16777215
 74
     0
 91
        0
 64
     7
 65
   257
 75
     1
175
     1
 42
1.0
 92
        8
 66
   257
 43
1.0
 76
     1
 77
     6
 78
     2
 67
     7
 79
     3
170
     0
171
     0
290
     0
174
     0
 93
       13
 44
0.0
173
     0
291
     0
 45
0.0
  0
VISUALSTYLE
  5
42
102
{ACAD_REACTORS
330
2A
102
}
102
{ACAD_XDICTIONARY
360
21A
102
}
330
2A
100
AcDbVisualStyle
  2
Shaded
 70
    27
 71
     2
 72
     2
 73
     1
 90
        2
 40
0.6
 41
30.0
 62
     5
 63
     7
421
 16777215
 74
     0
 91
        4
 64
     7
 65
   257
 75
     1
175
     1
 42
1.0
 92
        8
 66
   257
 43
1.0
 76
     1
 77
     6
 78
     2
 67
     8
425
  7895160
 79
     3
170
     0
171
     0
290
     0
174
     0
 93
        5
 44
0.0
173
     0
291
     0
 45
0.0
  0
VISUALSTYLE
  5
41
102
{ACAD_REACTORS
330
2A
102
}
102
{ACAD_XDICTIONARY
360
218
102
}
330
2A
100
AcDbVisualStyle
  2
Shaded with edges
 70
    26
 71
     2
 72
     2
 73
     1
 90
        2
 40
0.6
 41
30.0
 62
     5
 63
     7
421
 16777215
 74
     1
 91
       10
 64
     7
 65
   257
 75
     2
175
     1
 42
1.0
 92
        8
 66
   257
 43
1.0
 76
     1
 77
     6
 78
     2
 67
     7
 79
     3
170
     0
171
     0
290
     0
174
     0
 93
        5
 44
0.0
173
     0
291
     0
 45
0.0
  0
VISUALSTYLE
  5
3E
102
{ACAD_REACTORS
330
2A
102
}
102
{ACAD_XDICTIONARY
360
212
102
}
330
2A
100
AcDbVisualStyle
  2
Shades of Gray
 70
    23
 71
     2
 72
     2
 73
     3
 90
        0
 40
0.6
 41
30.0
 62
     5
 63
     7
421
 16777215
 74
     2
 91
        2
 64
     7
 65
     7
 75
     1
175
     1
 42
40.0
 92
        8
 66
     7
 43
1.0
 76
     1
 77
     6
 78
     2
 67
     7
 79
     3
170
     0
171
     0
290
     0
174
     0
 93
        1
 44
0.0
173
     0
291
     0
 45
0.0
  0
VISUALSTYLE
  5
3F
102
{ACAD_REACTORS
330
2A
102
}
102
{ACAD_XDICTIONARY
360
214
102
}
330
2A
100
AcDbVisualStyle
  2
Sketchy
 70
    24
 71
     1
 72
     2
 73
     2
 90
        0
 40
0.6
 41
30.0
 62
     5
 63
     7
421
 16777215
 74
     2
 91
        2
 64
     7
 65
     7
 75
     1
175
     1
 42
40.0
 92
       11
 66
     7
 43
1.0
 76
     1
 77
     6
 78
     2
 67
     7
 79
     6
170
     0
171
     0
290
     0
174
     0
 93
        1
 44
0.0
173
     0
291
     0
 45
0.0
  0
VISUALSTYLE
  5
37
102
{ACAD_REACTORS
330
2A
102
}
102
{ACAD_XDICTIONARY
360
204
102
}
330
2A
100
AcDbVisualStyle
  2
Thicken
 70
    13
 71
     2
 72
     2
 73
     0
 90
        0
 40
0.6
 41
30.0
 62
     5
 63
     7
421
 16777215
 74
     1
 91
        4
 64
     7
 65
   257
 75
     1
175
     1
 42
1.0
 92
       12
 66
     7
 43
1.0
 76
     1
 77
     6
 78
     2
 67
     7
 79
     5
170
     0
171
     0
290
     0
174
     0
 93
        1
 44
0.0
173
     0
291
     1
 45
0.0
  0
VISUALSTYLE
  5
30
102
{ACAD_REACTORS
330
2A
102
}
102
{ACAD_XDICTIONARY
360
1F6
102
}
330
2A
100
AcDbVisualStyle
  2
Wireframe
 70
     5
 71
     0
 72
     2
 73
     0
 90
        0
 40
0.6
 41
30.0
 62
     5
 63
     7
421
 16777215
 74
     1
 91
        4
 64
     7
 65
   257
 75
     1
175
     1
 42
1.0
 92
        0
 66
   257
 43
1.0
 76
     1
 77
     6
 78
     2
 67
     7
 79
     3
170
     0
171
     0
290
     0
174
     0
 93
        1
 44
0.0
173
     0
291
     0
 45
0.0
  0
VISUALSTYLE
  5
40
102
{ACAD_REACTORS
330
2A
102
}
102
{ACAD_XDICTIONARY
360
216
102
}
330
2A
100
AcDbVisualStyle
  2
X-Ray
 70
    25
 71
     2
 72
     2
 73
     1
 90
        1
 40
0.5
 41
30.0
 62
     5
 63
     7
421
 16777215
 74
     1
 91
        0
 64
     7
 65
   257
 75
     1
175
     1
 42
1.0
 92
        8
 66
     7
 43
1.0
 76
     1
 77
     6
 78
     2
 67
     7
 79
     3
170
     0
171
     0
290
     0
174
     0
 93
       13
 44
0.0
173
     0
291
     0
 45
0.0
  0
DICTIONARYVAR
  5
1EA
102
{ACAD_REACTORS
330
1E9
102
}
330
1E9
100
DictionaryVariables
280
     0
  1
1:1
  0
DICTIONARYVAR
  5
226
102
{ACAD_REACTORS
330
1E9
102
}
330
1E9
100
DictionaryVariables
280
     0
  1
3.500000
  0
DICTIONARYVAR
  5
227
102
{ACAD_REACTORS
330
1E9
102
}
330
1E9
100
DictionaryVariables
280
     0
  1
acadiso.lin
  0
DICTIONARYVAR
  5
223
102
{ACAD_REACTORS
330
1E9
102
}
330
1E9
100
DictionaryVariables
280
     0
  1
Standard
  0
DICTIONARYVAR
  5
222
102
{ACAD_REACTORS
330
1E9
102
}
330
1E9
100
DictionaryVariables
280
     0
  1
Standard
  0
DICTIONARYVAR
  5
1EB
102
{ACAD_REACTORS
330
1E9
102
}
330
1E9
100
DictionaryVariables
280
     0
  1
2
  0
DICTIONARY
  5
21F
330
6C
100
AcDbDictionary
280
     1
281
     1
  3
ACAD_XREC_ROUNDTRIP
360
220
  0
DICTIONARY
  5
21C
330
6A
100
AcDbDictionary
280
     1
281
     1
  3
ACAD_ROUNDTRIP_2008_TABLESTYLE_CELLSTYLEMAP
360
21D
  0
DICTIONARY
  5
1F4
330
2F
100
AcDbDictionary
280
     1
281
     1
  3
ACAD_XREC_ROUNDTRIP
360
1F5
  0
DICTIONARY
  5
1FA
330
32
100
AcDbDictionary
280
     1
281
     1
  3
ACAD_XREC_ROUNDTRIP
360
1FB
  0
DICTIONARY
  5
202
330
36
100
AcDbDictionary
280
     1
281
     1
  3
ACAD_XREC_ROUNDTRIP
360
203
  0
DICTIONARY
  5
20A
330
3A
100
AcDbDictionary
280
     1
281
     1
  3
ACAD_XREC_ROUNDTRIP
360
20B
  0
DICTIONARY
  5
1FE
330
34
100
AcDbDictionary
280
     1
281
     1
  3
ACAD_XREC_ROUNDTRIP
360
1FF
  0
DICTIONARY
  5
200
330
35
100
AcDbDictionary
280
     1
281
     1
  3
ACAD_XREC_ROUNDTRIP
360
201
  0
DICTIONARY
  5
210
330
3D
100
AcDbDictionary
280
     1
281
     1
  3
ACAD_XREC_ROUNDTRIP
360
211
  0
DICTIONARY
  5
208
330
39
100
AcDbDictionary
280
     1
281
     1
  3
ACAD_XREC_ROUNDTRIP
360
209
  0
DICTIONARY
  5
1EC
330
2B
100
AcDbDictionary
280
     1
281
     1
  3
ACAD_XREC_ROUNDTRIP
360
1ED
  0
DICTIONARY
  5
1EE
330
2C
100
AcDbDictionary
280
     1
281
     1
  3
ACAD_XREC_ROUNDTRIP
360
1EF
  0
DICTIONARY
  5
1F0
330
2D
100
AcDbDictionary
280
     1
281
     1
  3
ACAD_XREC_ROUNDTRIP
360
1F1
  0
DICTIONARY
  5
1F2
330
2E
100
AcDbDictionary
280
     1
281
     1
  3
ACAD_XREC_ROUNDTRIP
360
1F3
  0
DICTIONARY
  5
1F8
330
31
100
AcDbDictionary
280
     1
281
     1
  3
ACAD_XREC_ROUNDTRIP
360
1F9
  0
DICTIONARY
  5
20C
330
3B
100
AcDbDictionary
280
     1
281
     1
  3
ACAD_XREC_ROUNDTRIP
360
20D
  0
DICTIONARY
  5
206
330
38
100
AcDbDictionary
280
     1
281
     1
  3
ACAD_XREC_ROUNDTRIP
360
207
  0
DICTIONARY
  5
20E
330
3C
100
AcDbDictionary
280
     1
281
     1
  3
ACAD_XREC_ROUNDTRIP
360
20F
  0
DICTIONARY
  5
1FC
330
33
100
AcDbDictionary
280
     1
281
     1
  3
ACAD_XREC_ROUNDTRIP
360
1FD
  0
DICTIONARY
  5
21A
330
42
100
AcDbDictionary
280
     1
281
     1
  3
ACAD_XREC_ROUNDTRIP
360
21B
  0
DICTIONARY
  5
218
330
41
100
AcDbDictionary
280
     1
281
     1
  3
ACAD_XREC_ROUNDTRIP
360
219
  0
DICTIONARY
  5
212
330
3E
100
AcDbDictionary
280
     1
281
     1
  3
ACAD_XREC_ROUNDTRIP
360
213
  0
DICTIONARY
  5
214
330
3F
100
AcDbDictionary
280
     1
281
     1
  3
ACAD_XREC_ROUNDTRIP
360
215
  0
DICTIONARY
  5
204
330
37
100
AcDbDictionary
280
     1
281
     1
  3
ACAD_XREC_ROUNDTRIP
360
205
  0
DICTIONARY
  5
1F6
330
30
100
AcDbDictionary
280
     1
281
     1
  3
ACAD_XREC_ROUNDTRIP
360
1F7
  0
DICTIONARY
  5
216
330
40
100
AcDbDictionary
280
     1
281
     1
  3
ACAD_XREC_ROUNDTRIP
360
217
  0
XRECORD
  5
220
102
{ACAD_REACTORS
330
21F
102
}
330
21F
100
AcDbXrecord
280
     1
102
ACAD_ROUNDTRIP_2010_MLEADER_STYLE
  0
CELLSTYLEMAP
  5
21D
102
{ACAD_REACTORS
330
21C
102
}
330
21C
100
AcDbCellStyleMap
 90
        3
300
CELLSTYLE
  1
TABLEFORMAT_BEGIN
 90
        5
170
     1
 91
        0
 92
    32768
 62
   257
 93
        1
300
CONTENTFORMAT
  1
CONTENTFORMAT_BEGIN
 90
        0
 91
        0
 92
        4
 93
        0
300

 40
0.0
140
1.0
 94
        5
 62
     0
340
11
144
6.0
309
CONTENTFORMAT_END
171
     1
301
MARGIN
  1
CELLMARGIN_BEGIN
 40
1.5
 40
1.5
 40
1.5
 40
1.5
 40
1.5
 40
1.5
309
CELLMARGIN_END
 94
        6
 95
        1
302
GRIDFORMAT
  1
GRIDFORMAT_BEGIN
 90
        0
 91
        1
 62
     0
 92
       -2
340
14
 93
        0
 40
0.045
309
GRIDFORMAT_END
 95
        2
302
GRIDFORMAT
  1
GRIDFORMAT_BEGIN
 90
        0
 91
        1
 62
     0
 92
       -2
340
14
 93
        0
 40
0.045
309
GRIDFORMAT_END
 95
        4
302
GRIDFORMAT
  1
GRIDFORMAT_BEGIN
 90
        0
 91
        1
 62
     0
 92
       -2
340
14
 93
        0
 40
0.045
309
GRIDFORMAT_END
 95
        8
302
GRIDFORMAT
  1
GRIDFORMAT_BEGIN
 90
        0
 91
        1
 62
     0
 92
       -2
340
14
 93
        0
 40
0.045
309
GRIDFORMAT_END
 95
       16
302
GRIDFORMAT
  1
GRIDFORMAT_BEGIN
 90
        0
 91
        1
 62
     0
 92
       -2
340
14
 93
        0
 40
0.045
309
GRIDFORMAT_END
 95
       32
302
GRIDFORMAT
  1
GRIDFORMAT_BEGIN
 90
        0
 91
        1
 62
     0
 92
       -2
340
14
 93
        0
 40
0.045
309
GRIDFORMAT_END
309
TABLEFORMAT_END
  1
CELLSTYLE_BEGIN
 90
        1
 91
        1
300
_TITLE
309
CELLSTYLE_END
300
CELLSTYLE
  1
TABLEFORMAT_BEGIN
 90
        5
170
     1
 91
        0
 92
        0
 62
   257
 93
        1
300
CONTENTFORMAT
  1
CONTENTFORMAT_BEGIN
 90
        0
 91
        0
 92
        4
 93
        0
300

 40
0.0
140
1.0
 94
        5
 62
     0
340
11
144
4.5
309
CONTENTFORMAT_END
171
     1
301
MARGIN
  1
CELLMARGIN_BEGIN
 40
1.5
 40
1.5
 40
1.5
 40
1.5
 40
1.5
 40
1.5
309
CELLMARGIN_END
 94
        6
 95
        1
302
GRIDFORMAT
  1
GRIDFORMAT_BEGIN
 90
        0
 91
        1
 62
     0
 92
       -2
340
14
 93
        0
 40
0.045
309
GRIDFORMAT_END
 95
        2
302
GRIDFORMAT
  1
GRIDFORMAT_BEGIN
 90
        0
 91
        1
 62
     0
 92
       -2
340
14
 93
        0
 40
0.045
309
GRIDFORMAT_END
 95
        4
302
GRIDFORMAT
  1
GRIDFORMAT_BEGIN
 90
        0
 91
        1
 62
     0
 92
       -2
340
14
 93
        0
 40
0.045
309
GRIDFORMAT_END
 95
        8
302
GRIDFORMAT
  1
GRIDFORMAT_BEGIN
 90
        0
 91
        1
 62
     0
 92
       -2
340
14
 93
        0
 40
0.045
309
GRIDFORMAT_END
 95
       16
302
GRIDFORMAT
  1
GRIDFORMAT_BEGIN
 90
        0
 91
        1
 62
     0
 92
       -2
340
14
 93
        0
 40
0.045
309
GRIDFORMAT_END
 95
       32
302
GRIDFORMAT
  1
GRIDFORMAT_BEGIN
 90
        0
 91
        1
 62
     0
 92
       -2
340
14
 93
        0
 40
0.045
309
GRIDFORMAT_END
309
TABLEFORMAT_END
  1
CELLSTYLE_BEGIN
 90
        2
 91
        1
300
_HEADER
309
CELLSTYLE_END
300
CELLSTYLE
  1
TABLEFORMAT_BEGIN
 90
        5
170
     1
 91
        0
 92
        0
 62
   257
 93
        1
300
CONTENTFORMAT
  1
CONTENTFORMAT_BEGIN
 90
        0
 91
        0
 92
        4
 93
        0
300

 40
0.0
140
1.0
 94
        2
 62
     0
340
11
144
4.5
309
CONTENTFORMAT_END
171
     1
301
MARGIN
  1
CELLMARGIN_BEGIN
 40
1.5
 40
1.5
 40
1.5
 40
1.5
 40
1.5
 40
1.5
309
CELLMARGIN_END
 94
        6
 95
        1
302
GRIDFORMAT
  1
GRIDFORMAT_BEGIN
 90
        0
 91
        1
 62
     0
 92
       -2
340
14
 93
        0
 40
0.045
309
GRIDFORMAT_END
 95
        2
302
GRIDFORMAT
  1
GRIDFORMAT_BEGIN
 90
        0
 91
        1
 62
     0
 92
       -2
340
14
 93
        0
 40
0.045
309
GRIDFORMAT_END
 95
        4
302
GRIDFORMAT
  1
GRIDFORMAT_BEGIN
 90
        0
 91
        1
 62
     0
 92
       -2
340
14
 93
        0
 40
0.045
309
GRIDFORMAT_END
 95
        8
302
GRIDFORMAT
  1
GRIDFORMAT_BEGIN
 90
        0
 91
        1
 62
     0
 92
       -2
340
14
 93
        0
 40
0.045
309
GRIDFORMAT_END
 95
       16
302
GRIDFORMAT
  1
GRIDFORMAT_BEGIN
 90
        0
 91
        1
 62
     0
 92
       -2
340
14
 93
        0
 40
0.045
309
GRIDFORMAT_END
 95
       32
302
GRIDFORMAT
  1
GRIDFORMAT_BEGIN
 90
        0
 91
        1
 62
     0
 92
       -2
340
14
 93
        0
 40
0.045
309
GRIDFORMAT_END
309
TABLEFORMAT_END
  1
CELLSTYLE_BEGIN
 90
        3
 91
        2
300
_DATA
309
CELLSTYLE_END
  0
XRECORD
  5
1F5
102
{ACAD_REACTORS
330
1F4
102
}
330
1F4
100
AcDbXrecord
280
     1
102
RTVSPropertyOp0
 70
     1
102
RTVSPropertyOp1
 70
     1
102
RTVSPropertyOp2
 70
     1
102
RTVSPropertyOp3
 70
     1
102
RTVSPropertyOp4
 70
     1
102
RTVSPropertyOp5
 70
     1
102
RTVSPropertyOp6
 70
     1
102
RTVSPropertyOp7
 70
     1
102
RTVSPropertyOp8
 70
     1
102
RTVSPropertyOp9
 70
     1
102
RTVSPropertyOp10
 70
     1
102
RTVSPropertyOp11
 70
     1
102
RTVSPropertyOp12
 70
     1
102
RTVSPropertyOp13
 70
     1
102
RTVSPropertyOp14
 70
     1
102
RTVSPropertyOp15
 70
     1
102
RTVSPropertyOp16
 70
     1
102
RTVSPropertyOp17
 70
     1
102
RTVSPropertyOp18
 70
     1
102
RTVSPropertyOp19
 70
     1
102
RTVSPropertyOp20
 70
     1
102
RTVSPropertyOp21
 70
     1
102
RTVSPropertyOp22
 70
     1
102
RTVSPropertyOp23
 70
     1
102
RTVSPropertyOp24
 70
     1
102
RTVSPropertyOp25
 70
     1
102
RTVSPropertyOp26
 70
     1
102
RTVSPropertyOp27
 70
     1
102
RTVSPropertyOp28
 70
     1
102
RTVSPropertyOp29
 70
     1
102
RTVSPropertyOp30
 70
     1
102
RTVSPropertyOp31
 70
     1
102
RTVSPropertyOp32
 70
     1
102
RTVSPropertyOp33
 70
     1
102
RTVSPropertyOp34
 70
     1
102
RTVSPropertyOp35
 70
     1
102
RTVSPropertyOp36
 70
     1
102
RTVSPropertyOp37
 70
     1
102
RTVSPropertyOp38
 70
     1
102
RTVSPropertyOp39
 70
     1
102
RTVSPropertyOp40
 70
     1
102
RTVSPropertyOp41
 70
     1
102
RTVSPropertyOp42
 70
     1
102
RTVSPropertyOp43
 70
     1
102
RTVSPropertyOp44
 70
     1
102
RTVSPropertyOp45
 70
     1
102
RTVSPropertyOp46
 70
     1
102
RTVSPropertyOp47
 70
     1
102
RTVSPropertyOp48
 70
     1
102
RTVSPropertyOp49
 70
     1
102
RTVSPropertyOp50
 70
     1
102
RTVSPropertyOp51
 70
     0
102
RTVSPropertyOp52
 70
     0
102
RTVSPropertyOp53
 70
     1
102
RTVSPropertyOp54
 70
     1
102
RTVSPropertyOp55
 70
     1
102
RTVSPropertyOp56
 70
     1
102
RTVSPropertyOp57
 70
     1
102
RTVSPost2010Prop28
280
     1
102
RTVSPost2010PropOp28
 70
     1
102
RTVSPost2010Prop29
280
     1
102
RTVSPost2010PropOp29
 70
     1
102
RTVSPost2010Prop30
280
     0
102
RTVSPost2010PropOp30
 70
     1
102
RTVSPost2010Prop31
280
     0
102
RTVSPost2010PropOp31
 70
     1
102
RTVSPost2010Prop32
280
     0
102
RTVSPost2010PropOp32
 70
     1
102
RTVSPost2010Prop33
280
     0
102
RTVSPost2010PropOp33
 70
     1
102
RTVSPost2010Prop34
280
     0
102
RTVSPost2010PropOp34
 70
     1
102
RTVSPost2010Prop35
280
     0
102
RTVSPost2010PropOp35
 70
     1
102
RTVSPost2010Prop36
280
     0
102
RTVSPost2010PropOp36
 70
     1
102
RTVSPost2010Prop37
 90
       50
102
RTVSPost2010PropOp37
 70
     1
102
RTVSPost2010Prop38
140
0.0
102
RTVSPost2010PropOp38
 70
     1
102
RTVSPost2010Prop39
140
1.0
102
RTVSPost2010PropOp39
 70
     1
102
RTVSPost2010Prop40
 90
        0
102
RTVSPost2010PropOp40
 70
     1
102
RTVSPost2010Prop41ColorIndex
 90
       18
102
RTVSPost2010Prop41ColorRGB
 90
        0
102
RTVSPost2010PropOp41
 70
     1
102
RTVSPost2010Prop42
 90
       50
102
RTVSPost2010PropOp42
 70
     1
102
RTVSPost2010Prop43
 90
        3
102
RTVSPost2010PropOp43
 70
     1
102
RTVSPost2010Prop44ColorIndex
 90
        5
102
RTVSPost2010Prop44ColorRGB
 90
      255
102
RTVSPost2010PropOp44
 70
     1
102
RTVSPost2010Prop45
280
     0
102
RTVSPost2010PropOp45
 70
     1
102
RTVSPost2010Prop46
 90
       50
102
RTVSPost2010PropOp46
 70
     1
102
RTVSPost2010Prop47
 90
       50
102
RTVSPost2010PropOp47
 70
     1
102
RTVSPost2010Prop48
 90
       50
102
RTVSPost2010PropOp48
 70
     1
102
RTVSPost2010Prop49
280
     0
102
RTVSPost2010PropOp49
 70
     1
102
RTVSPost2010Prop50
 90
       50
102
RTVSPost2010PropOp50
 70
     1
102
RTVSPost2010Prop51ColorIndex
 90
      256
102
RTVSPost2010Prop51ColorRGB
 90
-16777216
102
RTVSPost2010PropOp51
 70
     0
102
RTVSPost2010Prop52
140
1.0
102
RTVSPost2010PropOp52
 70
     0
102
RTVSPost2010Prop53
 90
        2
102
RTVSPost2010PropOp53
 70
     1
102
RTVSPost2010Prop54
  1
strokes_ogs.tif
102
RTVSPost2010PropOp54
 70
     1
102
RTVSPost2010Prop55
280
     0
102
RTVSPost2010PropOp55
 70
     1
102
RTVSPost2010Prop56
140
1.0
102
RTVSPost2010PropOp56
 70
     1
102
RTVSPost2010Prop57
140
1.0
102
RTVSPost2010PropOp57
 70
     1
  0
XRECORD
  5
1FB
102
{ACAD_REACTORS
330
1FA
102
}
330
1FA
100
AcDbXrecord
280
     1
102
RTVSPropertyOp0
 70
     1
102
RTVSPropertyOp1
 70
     1
102
RTVSPropertyOp2
 70
     1
102
RTVSPropertyOp3
 70
     1
102
RTVSPropertyOp4
 70
     1
102
RTVSPropertyOp5
 70
     1
102
RTVSPropertyOp6
 70
     1
102
RTVSPropertyOp7
 70
     1
102
RTVSPropertyOp8
 70
     1
102
RTVSPropertyOp9
 70
     1
102
RTVSPropertyOp10
 70
     1
102
RTVSPropertyOp11
 70
     1
102
RTVSPropertyOp12
 70
     1
102
RTVSPropertyOp13
 70
     1
102
RTVSPropertyOp14
 70
     1
102
RTVSPropertyOp15
 70
     1
102
RTVSPropertyOp16
 70
     1
102
RTVSPropertyOp17
 70
     1
102
RTVSPropertyOp18
 70
     1
102
RTVSPropertyOp19
 70
     1
102
RTVSPropertyOp20
 70
     1
102
RTVSPropertyOp21
 70
     1
102
RTVSPropertyOp22
 70
     1
102
RTVSPropertyOp23
 70
     1
102
RTVSPropertyOp24
 70
     1
102
RTVSPropertyOp25
 70
     1
102
RTVSPropertyOp26
 70
     1
102
RTVSPropertyOp27
 70
     1
102
RTVSPropertyOp28
 70
     1
102
RTVSPropertyOp29
 70
     1
102
RTVSPropertyOp30
 70
     1
102
RTVSPropertyOp31
 70
     1
102
RTVSPropertyOp32
 70
     1
102
RTVSPropertyOp33
 70
     1
102
RTVSPropertyOp34
 70
     1
102
RTVSPropertyOp35
 70
     1
102
RTVSPropertyOp36
 70
     1
102
RTVSPropertyOp37
 70
     1
102
RTVSPropertyOp38
 70
     1
102
RTVSPropertyOp39
 70
     1
102
RTVSPropertyOp40
 70
     1
102
RTVSPropertyOp41
 70
     1
102
RTVSPropertyOp42
 70
     1
102
RTVSPropertyOp43
 70
     1
102
RTVSPropertyOp44
 70
     1
102
RTVSPropertyOp45
 70
     1
102
RTVSPropertyOp46
 70
     1
102
RTVSPropertyOp47
 70
     1
102
RTVSPropertyOp48
 70
     1
102
RTVSPropertyOp49
 70
     1
102
RTVSPropertyOp50
 70
     1
102
RTVSPropertyOp51
 70
     0
102
RTVSPropertyOp52
 70
     0
102
RTVSPropertyOp53
 70
     1
102
RTVSPropertyOp54
 70
     1
102
RTVSPropertyOp55
 70
     1
102
RTVSPropertyOp56
 70
     1
102
RTVSPropertyOp57
 70
     1
102
RTVSPost2010Prop28
280
     0
102
RTVSPost2010PropOp28
 70
     1
102
RTVSPost2010Prop29
280
     1
102
RTVSPost2010PropOp29
 70
     1
102
RTVSPost2010Prop30
280
     1
102
RTVSPost2010PropOp30
 70
     1
102
RTVSPost2010Prop31
280
     0
102
RTVSPost2010PropOp31
 70
     1
102
RTVSPost2010Prop32
280
     0
102
RTVSPost2010PropOp32
 70
     1
102
RTVSPost2010Prop33
280
     0
102
RTVSPost2010PropOp33
 70
     1
102
RTVSPost2010Prop34
280
     0
102
RTVSPost2010PropOp34
 70
     1
102
RTVSPost2010Prop35
280
     0
102
RTVSPost2010PropOp35
 70
     1
102
RTVSPost2010Prop36
280
     0
102
RTVSPost2010PropOp36
 70
     1
102
RTVSPost2010Prop37
 90
       50
102
RTVSPost2010PropOp37
 70
     1
102
RTVSPost2010Prop38
140
0.0
102
RTVSPost2010PropOp38
 70
     1
102
RTVSPost2010Prop39
140
1.0
102
RTVSPost2010PropOp39
 70
     1
102
RTVSPost2010Prop40
 90
        0
102
RTVSPost2010PropOp40
 70
     1
102
RTVSPost2010Prop41ColorIndex
 90
       18
102
RTVSPost2010Prop41ColorRGB
 90
        0
102
RTVSPost2010PropOp41
 70
     1
102
RTVSPost2010Prop42
 90
       50
102
RTVSPost2010PropOp42
 70
     1
102
RTVSPost2010Prop43
 90
        3
102
RTVSPost2010PropOp43
 70
     1
102
RTVSPost2010Prop44ColorIndex
 90
        5
102
RTVSPost2010Prop44ColorRGB
 90
      255
102
RTVSPost2010PropOp44
 70
     1
102
RTVSPost2010Prop45
280
     0
102
RTVSPost2010PropOp45
 70
     1
102
RTVSPost2010Prop46
 90
       50
102
RTVSPost2010PropOp46
 70
     1
102
RTVSPost2010Prop47
 90
       50
102
RTVSPost2010PropOp47
 70
     1
102
RTVSPost2010Prop48
 90
       50
102
RTVSPost2010PropOp48
 70
     1
102
RTVSPost2010Prop49
280
     0
102
RTVSPost2010PropOp49
 70
     1
102
RTVSPost2010Prop50
 90
       50
102
RTVSPost2010PropOp50
 70
     1
102
RTVSPost2010Prop51ColorIndex
 90
      256
102
RTVSPost2010Prop51ColorRGB
 90
-16777216
102
RTVSPost2010PropOp51
 70
     0
102
RTVSPost2010Prop52
140
1.0
102
RTVSPost2010PropOp52
 70
     0
102
RTVSPost2010Prop53
 90
        2
102
RTVSPost2010PropOp53
 70
     1
102
RTVSPost2010Prop54
  1
strokes_ogs.tif
102
RTVSPost2010PropOp54
 70
     1
102
RTVSPost2010Prop55
280
     0
102
RTVSPost2010PropOp55
 70
     1
102
RTVSPost2010Prop56
140
1.0
102
RTVSPost2010PropOp56
 70
     1
102
RTVSPost2010Prop57
140
1.0
102
RTVSPost2010PropOp57
 70
     1
  0
XRECORD
  5
203
102
{ACAD_REACTORS
330
202
102
}
330
202
100
AcDbXrecord
280
     1
102
RTVSPropertyOp0
 70
     1
102
RTVSPropertyOp1
 70
     1
102
RTVSPropertyOp2
 70
     1
102
RTVSPropertyOp3
 70
     1
102
RTVSPropertyOp4
 70
     1
102
RTVSPropertyOp5
 70
     1
102
RTVSPropertyOp6
 70
     1
102
RTVSPropertyOp7
 70
     1
102
RTVSPropertyOp8
 70
     1
102
RTVSPropertyOp9
 70
     1
102
RTVSPropertyOp10
 70
     1
102
RTVSPropertyOp11
 70
     1
102
RTVSPropertyOp12
 70
     1
102
RTVSPropertyOp13
 70
     1
102
RTVSPropertyOp14
 70
     1
102
RTVSPropertyOp15
 70
     1
102
RTVSPropertyOp16
 70
     1
102
RTVSPropertyOp17
 70
     1
102
RTVSPropertyOp18
 70
     1
102
RTVSPropertyOp19
 70
     1
102
RTVSPropertyOp20
 70
     1
102
RTVSPropertyOp21
 70
     1
102
RTVSPropertyOp22
 70
     1
102
RTVSPropertyOp23
 70
     1
102
RTVSPropertyOp24
 70
     1
102
RTVSPropertyOp25
 70
     1
102
RTVSPropertyOp26
 70
     1
102
RTVSPropertyOp27
 70
     1
102
RTVSPropertyOp28
 70
     1
102
RTVSPropertyOp29
 70
     1
102
RTVSPropertyOp30
 70
     1
102
RTVSPropertyOp31
 70
     1
102
RTVSPropertyOp32
 70
     1
102
RTVSPropertyOp33
 70
     1
102
RTVSPropertyOp34
 70
     1
102
RTVSPropertyOp35
 70
     1
102
RTVSPropertyOp36
 70
     1
102
RTVSPropertyOp37
 70
     1
102
RTVSPropertyOp38
 70
     1
102
RTVSPropertyOp39
 70
     1
102
RTVSPropertyOp40
 70
     1
102
RTVSPropertyOp41
 70
     1
102
RTVSPropertyOp42
 70
     1
102
RTVSPropertyOp43
 70
     1
102
RTVSPropertyOp44
 70
     1
102
RTVSPropertyOp45
 70
     1
102
RTVSPropertyOp46
 70
     1
102
RTVSPropertyOp47
 70
     1
102
RTVSPropertyOp48
 70
     1
102
RTVSPropertyOp49
 70
     1
102
RTVSPropertyOp50
 70
     1
102
RTVSPropertyOp51
 70
     0
102
RTVSPropertyOp52
 70
     0
102
RTVSPropertyOp53
 70
     1
102
RTVSPropertyOp54
 70
     1
102
RTVSPropertyOp55
 70
     1
102
RTVSPropertyOp56
 70
     1
102
RTVSPropertyOp57
 70
     1
102
RTVSPost2010Prop28
280
     0
102
RTVSPost2010PropOp28
 70
     1
102
RTVSPost2010Prop29
280
     1
102
RTVSPost2010PropOp29
 70
     1
102
RTVSPost2010Prop30
280
     1
102
RTVSPost2010PropOp30
 70
     1
102
RTVSPost2010Prop31
280
     0
102
RTVSPost2010PropOp31
 70
     1
102
RTVSPost2010Prop32
280
     0
102
RTVSPost2010PropOp32
 70
     1
102
RTVSPost2010Prop33
280
     0
102
RTVSPost2010PropOp33
 70
     1
102
RTVSPost2010Prop34
280
     0
102
RTVSPost2010PropOp34
 70
     1
102
RTVSPost2010Prop35
280
     0
102
RTVSPost2010PropOp35
 70
     1
102
RTVSPost2010Prop36
280
     0
102
RTVSPost2010PropOp36
 70
     1
102
RTVSPost2010Prop37
 90
       50
102
RTVSPost2010PropOp37
 70
     1
102
RTVSPost2010Prop38
140
0.0
102
RTVSPost2010PropOp38
 70
     1
102
RTVSPost2010Prop39
140
1.0
102
RTVSPost2010PropOp39
 70
     1
102
RTVSPost2010Prop40
 90
        0
102
RTVSPost2010PropOp40
 70
     1
102
RTVSPost2010Prop41ColorIndex
 90
       18
102
RTVSPost2010Prop41ColorRGB
 90
        0
102
RTVSPost2010PropOp41
 70
     1
102
RTVSPost2010Prop42
 90
       50
102
RTVSPost2010PropOp42
 70
     1
102
RTVSPost2010Prop43
 90
        3
102
RTVSPost2010PropOp43
 70
     1
102
RTVSPost2010Prop44ColorIndex
 90
        5
102
RTVSPost2010Prop44ColorRGB
 90
      255
102
RTVSPost2010PropOp44
 70
     1
102
RTVSPost2010Prop45
280
     0
102
RTVSPost2010PropOp45
 70
     1
102
RTVSPost2010Prop46
 90
       50
102
RTVSPost2010PropOp46
 70
     1
102
RTVSPost2010Prop47
 90
       50
102
RTVSPost2010PropOp47
 70
     1
102
RTVSPost2010Prop48
 90
       50
102
RTVSPost2010PropOp48
 70
     1
102
RTVSPost2010Prop49
280
     0
102
RTVSPost2010PropOp49
 70
     1
102
RTVSPost2010Prop50
 90
       50
102
RTVSPost2010PropOp50
 70
     1
102
RTVSPost2010Prop51ColorIndex
 90
      256
102
RTVSPost2010Prop51ColorRGB
 90
-16777216
102
RTVSPost2010PropOp51
 70
     0
102
RTVSPost2010Prop52
140
1.0
102
RTVSPost2010PropOp52
 70
     0
102
RTVSPost2010Prop53
 90
        2
102
RTVSPost2010PropOp53
 70
     1
102
RTVSPost2010Prop54
  1
strokes_ogs.tif
102
RTVSPost2010PropOp54
 70
     1
102
RTVSPost2010Prop55
280
     0
102
RTVSPost2010PropOp55
 70
     1
102
RTVSPost2010Prop56
140
1.0
102
RTVSPost2010PropOp56
 70
     1
102
RTVSPost2010Prop57
140
1.0
102
RTVSPost2010PropOp57
 70
     1
  0
XRECORD
  5
20B
102
{ACAD_REACTORS
330
20A
102
}
330
20A
100
AcDbXrecord
280
     1
102
RTVSPropertyOp0
 70
     1
102
RTVSPropertyOp1
 70
     1
102
RTVSPropertyOp2
 70
     1
102
RTVSPropertyOp3
 70
     1
102
RTVSPropertyOp4
 70
     1
102
RTVSPropertyOp5
 70
     1
102
RTVSPropertyOp6
 70
     1
102
RTVSPropertyOp7
 70
     1
102
RTVSPropertyOp8
 70
     1
102
RTVSPropertyOp9
 70
     1
102
RTVSPropertyOp10
 70
     1
102
RTVSPropertyOp11
 70
     1
102
RTVSPropertyOp12
 70
     1
102
RTVSPropertyOp13
 70
     1
102
RTVSPropertyOp14
 70
     1
102
RTVSPropertyOp15
 70
     1
102
RTVSPropertyOp16
 70
     1
102
RTVSPropertyOp17
 70
     1
102
RTVSPropertyOp18
 70
     1
102
RTVSPropertyOp19
 70
     1
102
RTVSPropertyOp20
 70
     1
102
RTVSPropertyOp21
 70
     1
102
RTVSPropertyOp22
 70
     1
102
RTVSPropertyOp23
 70
     1
102
RTVSPropertyOp24
 70
     1
102
RTVSPropertyOp25
 70
     1
102
RTVSPropertyOp26
 70
     1
102
RTVSPropertyOp27
 70
     1
102
RTVSPropertyOp28
 70
     1
102
RTVSPropertyOp29
 70
     1
102
RTVSPropertyOp30
 70
     1
102
RTVSPropertyOp31
 70
     1
102
RTVSPropertyOp32
 70
     1
102
RTVSPropertyOp33
 70
     1
102
RTVSPropertyOp34
 70
     1
102
RTVSPropertyOp35
 70
     1
102
RTVSPropertyOp36
 70
     1
102
RTVSPropertyOp37
 70
     1
102
RTVSPropertyOp38
 70
     1
102
RTVSPropertyOp39
 70
     1
102
RTVSPropertyOp40
 70
     1
102
RTVSPropertyOp41
 70
     1
102
RTVSPropertyOp42
 70
     1
102
RTVSPropertyOp43
 70
     1
102
RTVSPropertyOp44
 70
     1
102
RTVSPropertyOp45
 70
     1
102
RTVSPropertyOp46
 70
     1
102
RTVSPropertyOp47
 70
     1
102
RTVSPropertyOp48
 70
     1
102
RTVSPropertyOp49
 70
     1
102
RTVSPropertyOp50
 70
     1
102
RTVSPropertyOp51
 70
     0
102
RTVSPropertyOp52
 70
     0
102
RTVSPropertyOp53
 70
     1
102
RTVSPropertyOp54
 70
     1
102
RTVSPropertyOp55
 70
     1
102
RTVSPropertyOp56
 70
     1
102
RTVSPropertyOp57
 70
     1
102
RTVSPost2010Prop28
280
     0
102
RTVSPost2010PropOp28
 70
     1
102
RTVSPost2010Prop29
280
     1
102
RTVSPost2010PropOp29
 70
     1
102
RTVSPost2010Prop30
280
     1
102
RTVSPost2010PropOp30
 70
     1
102
RTVSPost2010Prop31
280
     0
102
RTVSPost2010PropOp31
 70
     1
102
RTVSPost2010Prop32
280
     0
102
RTVSPost2010PropOp32
 70
     1
102
RTVSPost2010Prop33
280
     0
102
RTVSPost2010PropOp33
 70
     1
102
RTVSPost2010Prop34
280
     0
102
RTVSPost2010PropOp34
 70
     1
102
RTVSPost2010Prop35
280
     0
102
RTVSPost2010PropOp35
 70
     1
102
RTVSPost2010Prop36
280
     0
102
RTVSPost2010PropOp36
 70
     1
102
RTVSPost2010Prop37
 90
       50
102
RTVSPost2010PropOp37
 70
     1
102
RTVSPost2010Prop38
140
0.0
102
RTVSPost2010PropOp38
 70
     1
102
RTVSPost2010Prop39
140
1.0
102
RTVSPost2010PropOp39
 70
     1
102
RTVSPost2010Prop40
 90
        0
102
RTVSPost2010PropOp40
 70
     1
102
RTVSPost2010Prop41ColorIndex
 90
       18
102
RTVSPost2010Prop41ColorRGB
 90
        0
102
RTVSPost2010PropOp41
 70
     1
102
RTVSPost2010Prop42
 90
       50
102
RTVSPost2010PropOp42
 70
     1
102
RTVSPost2010Prop43
 90
        3
102
RTVSPost2010PropOp43
 70
     1
102
RTVSPost2010Prop44ColorIndex
 90
        5
102
RTVSPost2010Prop44ColorRGB
 90
      255
102
RTVSPost2010PropOp44
 70
     1
102
RTVSPost2010Prop45
280
     0
102
RTVSPost2010PropOp45
 70
     1
102
RTVSPost2010Prop46
 90
       50
102
RTVSPost2010PropOp46
 70
     1
102
RTVSPost2010Prop47
 90
       50
102
RTVSPost2010PropOp47
 70
     1
102
RTVSPost2010Prop48
 90
       50
102
RTVSPost2010PropOp48
 70
     1
102
RTVSPost2010Prop49
280
     0
102
RTVSPost2010PropOp49
 70
     1
102
RTVSPost2010Prop50
 90
       50
102
RTVSPost2010PropOp50
 70
     1
102
RTVSPost2010Prop51ColorIndex
 90
      256
102
RTVSPost2010Prop51ColorRGB
 90
-16777216
102
RTVSPost2010PropOp51
 70
     0
102
RTVSPost2010Prop52
140
1.0
102
RTVSPost2010PropOp52
 70
     0
102
RTVSPost2010Prop53
 90
        2
102
RTVSPost2010PropOp53
 70
     1
102
RTVSPost2010Prop54
  1
strokes_ogs.tif
102
RTVSPost2010PropOp54
 70
     1
102
RTVSPost2010Prop55
280
     0
102
RTVSPost2010PropOp55
 70
     1
102
RTVSPost2010Prop56
140
1.0
102
RTVSPost2010PropOp56
 70
     1
102
RTVSPost2010Prop57
140
1.0
102
RTVSPost2010PropOp57
 70
     1
  0
XRECORD
  5
1FF
102
{ACAD_REACTORS
330
1FE
102
}
330
1FE
100
AcDbXrecord
280
     1
102
RTVSPropertyOp0
 70
     1
102
RTVSPropertyOp1
 70
     1
102
RTVSPropertyOp2
 70
     1
102
RTVSPropertyOp3
 70
     1
102
RTVSPropertyOp4
 70
     1
102
RTVSPropertyOp5
 70
     1
102
RTVSPropertyOp6
 70
     1
102
RTVSPropertyOp7
 70
     1
102
RTVSPropertyOp8
 70
     1
102
RTVSPropertyOp9
 70
     1
102
RTVSPropertyOp10
 70
     1
102
RTVSPropertyOp11
 70
     1
102
RTVSPropertyOp12
 70
     1
102
RTVSPropertyOp13
 70
     1
102
RTVSPropertyOp14
 70
     1
102
RTVSPropertyOp15
 70
     1
102
RTVSPropertyOp16
 70
     1
102
RTVSPropertyOp17
 70
     1
102
RTVSPropertyOp18
 70
     1
102
RTVSPropertyOp19
 70
     1
102
RTVSPropertyOp20
 70
     1
102
RTVSPropertyOp21
 70
     1
102
RTVSPropertyOp22
 70
     1
102
RTVSPropertyOp23
 70
     1
102
RTVSPropertyOp24
 70
     1
102
RTVSPropertyOp25
 70
     1
102
RTVSPropertyOp26
 70
     1
102
RTVSPropertyOp27
 70
     1
102
RTVSPropertyOp28
 70
     1
102
RTVSPropertyOp29
 70
     1
102
RTVSPropertyOp30
 70
     1
102
RTVSPropertyOp31
 70
     1
102
RTVSPropertyOp32
 70
     1
102
RTVSPropertyOp33
 70
     1
102
RTVSPropertyOp34
 70
     1
102
RTVSPropertyOp35
 70
     1
102
RTVSPropertyOp36
 70
     1
102
RTVSPropertyOp37
 70
     1
102
RTVSPropertyOp38
 70
     1
102
RTVSPropertyOp39
 70
     1
102
RTVSPropertyOp40
 70
     1
102
RTVSPropertyOp41
 70
     1
102
RTVSPropertyOp42
 70
     1
102
RTVSPropertyOp43
 70
     1
102
RTVSPropertyOp44
 70
     1
102
RTVSPropertyOp45
 70
     1
102
RTVSPropertyOp46
 70
     1
102
RTVSPropertyOp47
 70
     1
102
RTVSPropertyOp48
 70
     1
102
RTVSPropertyOp49
 70
     1
102
RTVSPropertyOp50
 70
     1
102
RTVSPropertyOp51
 70
     0
102
RTVSPropertyOp52
 70
     0
102
RTVSPropertyOp53
 70
     1
102
RTVSPropertyOp54
 70
     1
102
RTVSPropertyOp55
 70
     1
102
RTVSPropertyOp56
 70
     1
102
RTVSPropertyOp57
 70
     1
102
RTVSPost2010Prop28
280
     0
102
RTVSPost2010PropOp28
 70
     1
102
RTVSPost2010Prop29
280
     1
102
RTVSPost2010PropOp29
 70
     1
102
RTVSPost2010Prop30
280
     1
102
RTVSPost2010PropOp30
 70
     1
102
RTVSPost2010Prop31
280
     0
102
RTVSPost2010PropOp31
 70
     1
102
RTVSPost2010Prop32
280
     0
102
RTVSPost2010PropOp32
 70
     1
102
RTVSPost2010Prop33
280
     0
102
RTVSPost2010PropOp33
 70
     1
102
RTVSPost2010Prop34
280
     0
102
RTVSPost2010PropOp34
 70
     1
102
RTVSPost2010Prop35
280
     0
102
RTVSPost2010PropOp35
 70
     1
102
RTVSPost2010Prop36
280
     0
102
RTVSPost2010PropOp36
 70
     1
102
RTVSPost2010Prop37
 90
       50
102
RTVSPost2010PropOp37
 70
     1
102
RTVSPost2010Prop38
140
0.0
102
RTVSPost2010PropOp38
 70
     1
102
RTVSPost2010Prop39
140
1.0
102
RTVSPost2010PropOp39
 70
     1
102
RTVSPost2010Prop40
 90
        0
102
RTVSPost2010PropOp40
 70
     1
102
RTVSPost2010Prop41ColorIndex
 90
       18
102
RTVSPost2010Prop41ColorRGB
 90
        0
102
RTVSPost2010PropOp41
 70
     1
102
RTVSPost2010Prop42
 90
       50
102
RTVSPost2010PropOp42
 70
     1
102
RTVSPost2010Prop43
 90
        3
102
RTVSPost2010PropOp43
 70
     1
102
RTVSPost2010Prop44ColorIndex
 90
        5
102
RTVSPost2010Prop44ColorRGB
 90
      255
102
RTVSPost2010PropOp44
 70
     1
102
RTVSPost2010Prop45
280
     0
102
RTVSPost2010PropOp45
 70
     1
102
RTVSPost2010Prop46
 90
       50
102
RTVSPost2010PropOp46
 70
     1
102
RTVSPost2010Prop47
 90
       50
102
RTVSPost2010PropOp47
 70
     1
102
RTVSPost2010Prop48
 90
       50
102
RTVSPost2010PropOp48
 70
     1
102
RTVSPost2010Prop49
280
     0
102
RTVSPost2010PropOp49
 70
     1
102
RTVSPost2010Prop50
 90
       50
102
RTVSPost2010PropOp50
 70
     1
102
RTVSPost2010Prop51ColorIndex
 90
      256
102
RTVSPost2010Prop51ColorRGB
 90
-16777216
102
RTVSPost2010PropOp51
 70
     0
102
RTVSPost2010Prop52
140
1.0
102
RTVSPost2010PropOp52
 70
     0
102
RTVSPost2010Prop53
 90
        2
102
RTVSPost2010PropOp53
 70
     1
102
RTVSPost2010Prop54
  1
strokes_ogs.tif
102
RTVSPost2010PropOp54
 70
     1
102
RTVSPost2010Prop55
280
     0
102
RTVSPost2010PropOp55
 70
     1
102
RTVSPost2010Prop56
140
1.0
102
RTVSPost2010PropOp56
 70
     1
102
RTVSPost2010Prop57
140
1.0
102
RTVSPost2010PropOp57
 70
     1
  0
XRECORD
  5
201
102
{ACAD_REACTORS
330
200
102
}
330
200
100
AcDbXrecord
280
     1
102
RTVSPropertyOp0
 70
     1
102
RTVSPropertyOp1
 70
     1
102
RTVSPropertyOp2
 70
     1
102
RTVSPropertyOp3
 70
     1
102
RTVSPropertyOp4
 70
     1
102
RTVSPropertyOp5
 70
     1
102
RTVSPropertyOp6
 70
     1
102
RTVSPropertyOp7
 70
     1
102
RTVSPropertyOp8
 70
     1
102
RTVSPropertyOp9
 70
     1
102
RTVSPropertyOp10
 70
     1
102
RTVSPropertyOp11
 70
     1
102
RTVSPropertyOp12
 70
     1
102
RTVSPropertyOp13
 70
     1
102
RTVSPropertyOp14
 70
     1
102
RTVSPropertyOp15
 70
     1
102
RTVSPropertyOp16
 70
     1
102
RTVSPropertyOp17
 70
     1
102
RTVSPropertyOp18
 70
     1
102
RTVSPropertyOp19
 70
     1
102
RTVSPropertyOp20
 70
     1
102
RTVSPropertyOp21
 70
     1
102
RTVSPropertyOp22
 70
     1
102
RTVSPropertyOp23
 70
     1
102
RTVSPropertyOp24
 70
     1
102
RTVSPropertyOp25
 70
     1
102
RTVSPropertyOp26
 70
     1
102
RTVSPropertyOp27
 70
     1
102
RTVSPropertyOp28
 70
     1
102
RTVSPropertyOp29
 70
     1
102
RTVSPropertyOp30
 70
     1
102
RTVSPropertyOp31
 70
     1
102
RTVSPropertyOp32
 70
     1
102
RTVSPropertyOp33
 70
     1
102
RTVSPropertyOp34
 70
     1
102
RTVSPropertyOp35
 70
     1
102
RTVSPropertyOp36
 70
     1
102
RTVSPropertyOp37
 70
     1
102
RTVSPropertyOp38
 70
     1
102
RTVSPropertyOp39
 70
     1
102
RTVSPropertyOp40
 70
     1
102
RTVSPropertyOp41
 70
     1
102
RTVSPropertyOp42
 70
     1
102
RTVSPropertyOp43
 70
     1
102
RTVSPropertyOp44
 70
     1
102
RTVSPropertyOp45
 70
     1
102
RTVSPropertyOp46
 70
     1
102
RTVSPropertyOp47
 70
     1
102
RTVSPropertyOp48
 70
     1
102
RTVSPropertyOp49
 70
     1
102
RTVSPropertyOp50
 70
     1
102
RTVSPropertyOp51
 70
     0
102
RTVSPropertyOp52
 70
     0
102
RTVSPropertyOp53
 70
     1
102
RTVSPropertyOp54
 70
     1
102
RTVSPropertyOp55
 70
     1
102
RTVSPropertyOp56
 70
     1
102
RTVSPropertyOp57
 70
     1
102
RTVSPost2010Prop28
280
     0
102
RTVSPost2010PropOp28
 70
     1
102
RTVSPost2010Prop29
280
     1
102
RTVSPost2010PropOp29
 70
     1
102
RTVSPost2010Prop30
280
     1
102
RTVSPost2010PropOp30
 70
     1
102
RTVSPost2010Prop31
280
     0
102
RTVSPost2010PropOp31
 70
     1
102
RTVSPost2010Prop32
280
     0
102
RTVSPost2010PropOp32
 70
     1
102
RTVSPost2010Prop33
280
     0
102
RTVSPost2010PropOp33
 70
     1
102
RTVSPost2010Prop34
280
     0
102
RTVSPost2010PropOp34
 70
     1
102
RTVSPost2010Prop35
280
     0
102
RTVSPost2010PropOp35
 70
     1
102
RTVSPost2010Prop36
280
     0
102
RTVSPost2010PropOp36
 70
     1
102
RTVSPost2010Prop37
 90
       50
102
RTVSPost2010PropOp37
 70
     1
102
RTVSPost2010Prop38
140
0.0
102
RTVSPost2010PropOp38
 70
     1
102
RTVSPost2010Prop39
140
1.0
102
RTVSPost2010PropOp39
 70
     1
102
RTVSPost2010Prop40
 90
        0
102
RTVSPost2010PropOp40
 70
     1
102
RTVSPost2010Prop41ColorIndex
 90
       18
102
RTVSPost2010Prop41ColorRGB
 90
        0
102
RTVSPost2010PropOp41
 70
     1
102
RTVSPost2010Prop42
 90
       50
102
RTVSPost2010PropOp42
 70
     1
102
RTVSPost2010Prop43
 90
        3
102
RTVSPost2010PropOp43
 70
     1
102
RTVSPost2010Prop44ColorIndex
 90
        5
102
RTVSPost2010Prop44ColorRGB
 90
      255
102
RTVSPost2010PropOp44
 70
     1
102
RTVSPost2010Prop45
280
     0
102
RTVSPost2010PropOp45
 70
     1
102
RTVSPost2010Prop46
 90
       50
102
RTVSPost2010PropOp46
 70
     1
102
RTVSPost2010Prop47
 90
       50
102
RTVSPost2010PropOp47
 70
     1
102
RTVSPost2010Prop48
 90
       50
102
RTVSPost2010PropOp48
 70
     1
102
RTVSPost2010Prop49
280
     0
102
RTVSPost2010PropOp49
 70
     1
102
RTVSPost2010Prop50
 90
       50
102
RTVSPost2010PropOp50
 70
     1
102
RTVSPost2010Prop51ColorIndex
 90
      256
102
RTVSPost2010Prop51ColorRGB
 90
-16777216
102
RTVSPost2010PropOp51
 70
     0
102
RTVSPost2010Prop52
140
1.0
102
RTVSPost2010PropOp52
 70
     0
102
RTVSPost2010Prop53
 90
        2
102
RTVSPost2010PropOp53
 70
     1
102
RTVSPost2010Prop54
  1
strokes_ogs.tif
102
RTVSPost2010PropOp54
 70
     1
102
RTVSPost2010Prop55
280
     0
102
RTVSPost2010PropOp55
 70
     1
102
RTVSPost2010Prop56
140
1.0
102
RTVSPost2010PropOp56
 70
     1
102
RTVSPost2010Prop57
140
1.0
102
RTVSPost2010PropOp57
 70
     1
  0
XRECORD
  5
211
102
{ACAD_REACTORS
330
210
102
}
330
210
100
AcDbXrecord
280
     1
102
RTVSPropertyOp0
 70
     0
102
RTVSPropertyOp1
 70
     0
102
RTVSPropertyOp2
 70
     0
102
RTVSPropertyOp3
 70
     0
102
RTVSPropertyOp4
 70
     0
102
RTVSPropertyOp5
 70
     0
102
RTVSPropertyOp6
 70
     0
102
RTVSPropertyOp7
 70
     0
102
RTVSPropertyOp8
 70
     0
102
RTVSPropertyOp9
 70
     0
102
RTVSPropertyOp10
 70
     0
102
RTVSPropertyOp11
 70
     0
102
RTVSPropertyOp12
 70
     0
102
RTVSPropertyOp13
 70
     0
102
RTVSPropertyOp14
 70
     2
102
RTVSPropertyOp15
 70
     0
102
RTVSPropertyOp16
 70
     0
102
RTVSPropertyOp17
 70
     0
102
RTVSPropertyOp18
 70
     0
102
RTVSPropertyOp19
 70
     0
102
RTVSPropertyOp20
 70
     0
102
RTVSPropertyOp21
 70
     0
102
RTVSPropertyOp22
 70
     0
102
RTVSPropertyOp23
 70
     0
102
RTVSPropertyOp24
 70
     0
102
RTVSPropertyOp25
 70
     0
102
RTVSPropertyOp26
 70
     0
102
RTVSPropertyOp27
 70
     0
102
RTVSPropertyOp28
 70
     0
102
RTVSPropertyOp29
 70
     0
102
RTVSPropertyOp30
 70
     0
102
RTVSPropertyOp31
 70
     0
102
RTVSPropertyOp32
 70
     0
102
RTVSPropertyOp33
 70
     0
102
RTVSPropertyOp34
 70
     0
102
RTVSPropertyOp35
 70
     0
102
RTVSPropertyOp36
 70
     0
102
RTVSPropertyOp37
 70
     0
102
RTVSPropertyOp38
 70
     0
102
RTVSPropertyOp39
 70
     0
102
RTVSPropertyOp40
 70
     0
102
RTVSPropertyOp41
 70
     0
102
RTVSPropertyOp42
 70
     0
102
RTVSPropertyOp43
 70
     0
102
RTVSPropertyOp44
 70
     0
102
RTVSPropertyOp45
 70
     0
102
RTVSPropertyOp46
 70
     0
102
RTVSPropertyOp47
 70
     0
102
RTVSPropertyOp48
 70
     0
102
RTVSPropertyOp49
 70
     0
102
RTVSPropertyOp50
 70
     0
102
RTVSPropertyOp51
 70
     0
102
RTVSPropertyOp52
 70
     0
102
RTVSPropertyOp53
 70
     0
102
RTVSPropertyOp54
 70
     0
102
RTVSPropertyOp55
 70
     0
102
RTVSPropertyOp56
 70
     0
102
RTVSPropertyOp57
 70
     0
102
RTVSPost2010Prop28
280
     0
102
RTVSPost2010PropOp28
 70
     0
102
RTVSPost2010Prop29
280
     1
102
RTVSPost2010PropOp29
 70
     0
102
RTVSPost2010Prop30
280
     1
102
RTVSPost2010PropOp30
 70
     0
102
RTVSPost2010Prop31
280
     0
102
RTVSPost2010PropOp31
 70
     0
102
RTVSPost2010Prop32
280
     0
102
RTVSPost2010PropOp32
 70
     0
102
RTVSPost2010Prop33
280
     0
102
RTVSPost2010PropOp33
 70
     0
102
RTVSPost2010Prop34
280
     0
102
RTVSPost2010PropOp34
 70
     0
102
RTVSPost2010Prop35
280
     0
102
RTVSPost2010PropOp35
 70
     0
102
RTVSPost2010Prop36
280
     0
102
RTVSPost2010PropOp36
 70
     0
102
RTVSPost2010Prop37
 90
       50
102
RTVSPost2010PropOp37
 70
     0
102
RTVSPost2010Prop38
140
0.0
102
RTVSPost2010PropOp38
 70
     0
102
RTVSPost2010Prop39
140
1.0
102
RTVSPost2010PropOp39
 70
     0
102
RTVSPost2010Prop40
 90
        0
102
RTVSPost2010PropOp40
 70
     0
102
RTVSPost2010Prop41ColorIndex
 90
       18
102
RTVSPost2010Prop41ColorRGB
 90
        0
102
RTVSPost2010PropOp41
 70
     0
102
RTVSPost2010Prop42
 90
       50
102
RTVSPost2010PropOp42
 70
     0
102
RTVSPost2010Prop43
 90
        3
102
RTVSPost2010PropOp43
 70
     0
102
RTVSPost2010Prop44ColorIndex
 90
        5
102
RTVSPost2010Prop44ColorRGB
 90
      255
102
RTVSPost2010PropOp44
 70
     0
102
RTVSPost2010Prop45
280
     0
102
RTVSPost2010PropOp45
 70
     0
102
RTVSPost2010Prop46
 90
       50
102
RTVSPost2010PropOp46
 70
     0
102
RTVSPost2010Prop47
 90
       50
102
RTVSPost2010PropOp47
 70
     0
102
RTVSPost2010Prop48
 90
       50
102
RTVSPost2010PropOp48
 70
     0
102
RTVSPost2010Prop49
280
     0
102
RTVSPost2010PropOp49
 70
     0
102
RTVSPost2010Prop50
 90
       50
102
RTVSPost2010PropOp50
 70
     0
102
RTVSPost2010Prop51ColorIndex
 90
      256
102
RTVSPost2010Prop51ColorRGB
 90
-16777216
102
RTVSPost2010PropOp51
 70
     0
102
RTVSPost2010Prop52
140
1.0
102
RTVSPost2010PropOp52
 70
     0
102
RTVSPost2010Prop53
 90
        2
102
RTVSPost2010PropOp53
 70
     0
102
RTVSPost2010Prop54
  1
strokes_ogs.tif
102
RTVSPost2010PropOp54
 70
     0
102
RTVSPost2010Prop55
280
     0
102
RTVSPost2010PropOp55
 70
     0
102
RTVSPost2010Prop56
140
1.0
102
RTVSPost2010PropOp56
 70
     0
102
RTVSPost2010Prop57
140
1.0
102
RTVSPost2010PropOp57
 70
     0
  0
XRECORD
  5
209
102
{ACAD_REACTORS
330
208
102
}
330
208
100
AcDbXrecord
280
     1
102
RTVSPropertyOp0
 70
     1
102
RTVSPropertyOp1
 70
     1
102
RTVSPropertyOp2
 70
     1
102
RTVSPropertyOp3
 70
     1
102
RTVSPropertyOp4
 70
     1
102
RTVSPropertyOp5
 70
     1
102
RTVSPropertyOp6
 70
     1
102
RTVSPropertyOp7
 70
     1
102
RTVSPropertyOp8
 70
     1
102
RTVSPropertyOp9
 70
     1
102
RTVSPropertyOp10
 70
     1
102
RTVSPropertyOp11
 70
     1
102
RTVSPropertyOp12
 70
     1
102
RTVSPropertyOp13
 70
     1
102
RTVSPropertyOp14
 70
     1
102
RTVSPropertyOp15
 70
     1
102
RTVSPropertyOp16
 70
     1
102
RTVSPropertyOp17
 70
     1
102
RTVSPropertyOp18
 70
     1
102
RTVSPropertyOp19
 70
     1
102
RTVSPropertyOp20
 70
     1
102
RTVSPropertyOp21
 70
     1
102
RTVSPropertyOp22
 70
     1
102
RTVSPropertyOp23
 70
     1
102
RTVSPropertyOp24
 70
     1
102
RTVSPropertyOp25
 70
     1
102
RTVSPropertyOp26
 70
     1
102
RTVSPropertyOp27
 70
     1
102
RTVSPropertyOp28
 70
     1
102
RTVSPropertyOp29
 70
     1
102
RTVSPropertyOp30
 70
     1
102
RTVSPropertyOp31
 70
     1
102
RTVSPropertyOp32
 70
     1
102
RTVSPropertyOp33
 70
     1
102
RTVSPropertyOp34
 70
     1
102
RTVSPropertyOp35
 70
     1
102
RTVSPropertyOp36
 70
     1
102
RTVSPropertyOp37
 70
     1
102
RTVSPropertyOp38
 70
     1
102
RTVSPropertyOp39
 70
     1
102
RTVSPropertyOp40
 70
     1
102
RTVSPropertyOp41
 70
     1
102
RTVSPropertyOp42
 70
     1
102
RTVSPropertyOp43
 70
     1
102
RTVSPropertyOp44
 70
     1
102
RTVSPropertyOp45
 70
     1
102
RTVSPropertyOp46
 70
     1
102
RTVSPropertyOp47
 70
     1
102
RTVSPropertyOp48
 70
     1
102
RTVSPropertyOp49
 70
     1
102
RTVSPropertyOp50
 70
     1
102
RTVSPropertyOp51
 70
     0
102
RTVSPropertyOp52
 70
     0
102
RTVSPropertyOp53
 70
     1
102
RTVSPropertyOp54
 70
     1
102
RTVSPropertyOp55
 70
     1
102
RTVSPropertyOp56
 70
     1
102
RTVSPropertyOp57
 70
     1
102
RTVSPost2010Prop28
280
     0
102
RTVSPost2010PropOp28
 70
     1
102
RTVSPost2010Prop29
280
     1
102
RTVSPost2010PropOp29
 70
     1
102
RTVSPost2010Prop30
280
     1
102
RTVSPost2010PropOp30
 70
     1
102
RTVSPost2010Prop31
280
     0
102
RTVSPost2010PropOp31
 70
     1
102
RTVSPost2010Prop32
280
     0
102
RTVSPost2010PropOp32
 70
     1
102
RTVSPost2010Prop33
280
     0
102
RTVSPost2010PropOp33
 70
     1
102
RTVSPost2010Prop34
280
     0
102
RTVSPost2010PropOp34
 70
     1
102
RTVSPost2010Prop35
280
     0
102
RTVSPost2010PropOp35
 70
     1
102
RTVSPost2010Prop36
280
     0
102
RTVSPost2010PropOp36
 70
     1
102
RTVSPost2010Prop37
 90
       50
102
RTVSPost2010PropOp37
 70
     1
102
RTVSPost2010Prop38
140
0.0
102
RTVSPost2010PropOp38
 70
     1
102
RTVSPost2010Prop39
140
1.0
102
RTVSPost2010PropOp39
 70
     1
102
RTVSPost2010Prop40
 90
        0
102
RTVSPost2010PropOp40
 70
     1
102
RTVSPost2010Prop41ColorIndex
 90
       18
102
RTVSPost2010Prop41ColorRGB
 90
        0
102
RTVSPost2010PropOp41
 70
     1
102
RTVSPost2010Prop42
 90
       50
102
RTVSPost2010PropOp42
 70
     1
102
RTVSPost2010Prop43
 90
        3
102
RTVSPost2010PropOp43
 70
     1
102
RTVSPost2010Prop44ColorIndex
 90
        5
102
RTVSPost2010Prop44ColorRGB
 90
      255
102
RTVSPost2010PropOp44
 70
     1
102
RTVSPost2010Prop45
280
     0
102
RTVSPost2010PropOp45
 70
     1
102
RTVSPost2010Prop46
 90
       50
102
RTVSPost2010PropOp46
 70
     1
102
RTVSPost2010Prop47
 90
       50
102
RTVSPost2010PropOp47
 70
     1
102
RTVSPost2010Prop48
 90
       50
102
RTVSPost2010PropOp48
 70
     1
102
RTVSPost2010Prop49
280
     0
102
RTVSPost2010PropOp49
 70
     1
102
RTVSPost2010Prop50
 90
       50
102
RTVSPost2010PropOp50
 70
     1
102
RTVSPost2010Prop51ColorIndex
 90
      256
102
RTVSPost2010Prop51ColorRGB
 90
-16777216
102
RTVSPost2010PropOp51
 70
     0
102
RTVSPost2010Prop52
140
1.0
102
RTVSPost2010PropOp52
 70
     0
102
RTVSPost2010Prop53
 90
        2
102
RTVSPost2010PropOp53
 70
     1
102
RTVSPost2010Prop54
  1
strokes_ogs.tif
102
RTVSPost2010PropOp54
 70
     1
102
RTVSPost2010Prop55
280
     0
102
RTVSPost2010PropOp55
 70
     1
102
RTVSPost2010Prop56
140
1.0
102
RTVSPost2010PropOp56
 70
     1
102
RTVSPost2010Prop57
140
1.0
102
RTVSPost2010PropOp57
 70
     1
  0
XRECORD
  5
1ED
102
{ACAD_REACTORS
330
1EC
102
}
330
1EC
100
AcDbXrecord
280
     1
102
RTVSPropertyOp0
 70
     1
102
RTVSPropertyOp1
 70
     1
102
RTVSPropertyOp2
 70
     1
102
RTVSPropertyOp3
 70
     1
102
RTVSPropertyOp4
 70
     1
102
RTVSPropertyOp5
 70
     1
102
RTVSPropertyOp6
 70
     1
102
RTVSPropertyOp7
 70
     1
102
RTVSPropertyOp8
 70
     1
102
RTVSPropertyOp9
 70
     1
102
RTVSPropertyOp10
 70
     1
102
RTVSPropertyOp11
 70
     1
102
RTVSPropertyOp12
 70
     1
102
RTVSPropertyOp13
 70
     1
102
RTVSPropertyOp14
 70
     1
102
RTVSPropertyOp15
 70
     1
102
RTVSPropertyOp16
 70
     1
102
RTVSPropertyOp17
 70
     1
102
RTVSPropertyOp18
 70
     1
102
RTVSPropertyOp19
 70
     1
102
RTVSPropertyOp20
 70
     1
102
RTVSPropertyOp21
 70
     1
102
RTVSPropertyOp22
 70
     1
102
RTVSPropertyOp23
 70
     1
102
RTVSPropertyOp24
 70
     1
102
RTVSPropertyOp25
 70
     1
102
RTVSPropertyOp26
 70
     1
102
RTVSPropertyOp27
 70
     1
102
RTVSPropertyOp28
 70
     1
102
RTVSPropertyOp29
 70
     1
102
RTVSPropertyOp30
 70
     1
102
RTVSPropertyOp31
 70
     1
102
RTVSPropertyOp32
 70
     1
102
RTVSPropertyOp33
 70
     1
102
RTVSPropertyOp34
 70
     1
102
RTVSPropertyOp35
 70
     1
102
RTVSPropertyOp36
 70
     1
102
RTVSPropertyOp37
 70
     1
102
RTVSPropertyOp38
 70
     1
102
RTVSPropertyOp39
 70
     1
102
RTVSPropertyOp40
 70
     1
102
RTVSPropertyOp41
 70
     1
102
RTVSPropertyOp42
 70
     1
102
RTVSPropertyOp43
 70
     1
102
RTVSPropertyOp44
 70
     1
102
RTVSPropertyOp45
 70
     1
102
RTVSPropertyOp46
 70
     1
102
RTVSPropertyOp47
 70
     1
102
RTVSPropertyOp48
 70
     1
102
RTVSPropertyOp49
 70
     1
102
RTVSPropertyOp50
 70
     1
102
RTVSPropertyOp51
 70
     0
102
RTVSPropertyOp52
 70
     0
102
RTVSPropertyOp53
 70
     1
102
RTVSPropertyOp54
 70
     1
102
RTVSPropertyOp55
 70
     1
102
RTVSPropertyOp56
 70
     1
102
RTVSPropertyOp57
 70
     1
102
RTVSPost2010Prop28
280
     0
102
RTVSPost2010PropOp28
 70
     1
102
RTVSPost2010Prop29
280
     1
102
RTVSPost2010PropOp29
 70
     1
102
RTVSPost2010Prop30
280
     1
102
RTVSPost2010PropOp30
 70
     1
102
RTVSPost2010Prop31
280
     0
102
RTVSPost2010PropOp31
 70
     1
102
RTVSPost2010Prop32
280
     0
102
RTVSPost2010PropOp32
 70
     1
102
RTVSPost2010Prop33
280
     0
102
RTVSPost2010PropOp33
 70
     1
102
RTVSPost2010Prop34
280
     0
102
RTVSPost2010PropOp34
 70
     1
102
RTVSPost2010Prop35
280
     0
102
RTVSPost2010PropOp35
 70
     1
102
RTVSPost2010Prop36
280
     0
102
RTVSPost2010PropOp36
 70
     1
102
RTVSPost2010Prop37
 90
       50
102
RTVSPost2010PropOp37
 70
     1
102
RTVSPost2010Prop38
140
0.0
102
RTVSPost2010PropOp38
 70
     1
102
RTVSPost2010Prop39
140
1.0
102
RTVSPost2010PropOp39
 70
     1
102
RTVSPost2010Prop40
 90
        0
102
RTVSPost2010PropOp40
 70
     1
102
RTVSPost2010Prop41ColorIndex
 90
       18
102
RTVSPost2010Prop41ColorRGB
 90
        0
102
RTVSPost2010PropOp41
 70
     1
102
RTVSPost2010Prop42
 90
       50
102
RTVSPost2010PropOp42
 70
     1
102
RTVSPost2010Prop43
 90
        3
102
RTVSPost2010PropOp43
 70
     1
102
RTVSPost2010Prop44ColorIndex
 90
        5
102
RTVSPost2010Prop44ColorRGB
 90
      255
102
RTVSPost2010PropOp44
 70
     1
102
RTVSPost2010Prop45
280
     0
102
RTVSPost2010PropOp45
 70
     1
102
RTVSPost2010Prop46
 90
       50
102
RTVSPost2010PropOp46
 70
     1
102
RTVSPost2010Prop47
 90
       50
102
RTVSPost2010PropOp47
 70
     1
102
RTVSPost2010Prop48
 90
       50
102
RTVSPost2010PropOp48
 70
     1
102
RTVSPost2010Prop49
280
     0
102
RTVSPost2010PropOp49
 70
     1
102
RTVSPost2010Prop50
 90
       50
102
RTVSPost2010PropOp50
 70
     1
102
RTVSPost2010Prop51ColorIndex
 90
      256
102
RTVSPost2010Prop51ColorRGB
 90
-16777216
102
RTVSPost2010PropOp51
 70
     0
102
RTVSPost2010Prop52
140
1.0
102
RTVSPost2010PropOp52
 70
     0
102
RTVSPost2010Prop53
 90
        2
102
RTVSPost2010PropOp53
 70
     1
102
RTVSPost2010Prop54
  1
strokes_ogs.tif
102
RTVSPost2010PropOp54
 70
     1
102
RTVSPost2010Prop55
280
     0
102
RTVSPost2010PropOp55
 70
     1
102
RTVSPost2010Prop56
140
1.0
102
RTVSPost2010PropOp56
 70
     1
102
RTVSPost2010Prop57
140
1.0
102
RTVSPost2010PropOp57
 70
     1
  0
XRECORD
  5
1EF
102
{ACAD_REACTORS
330
1EE
102
}
330
1EE
100
AcDbXrecord
280
     1
102
RTVSPropertyOp0
 70
     1
102
RTVSPropertyOp1
 70
     1
102
RTVSPropertyOp2
 70
     1
102
RTVSPropertyOp3
 70
     1
102
RTVSPropertyOp4
 70
     1
102
RTVSPropertyOp5
 70
     1
102
RTVSPropertyOp6
 70
     1
102
RTVSPropertyOp7
 70
     1
102
RTVSPropertyOp8
 70
     1
102
RTVSPropertyOp9
 70
     1
102
RTVSPropertyOp10
 70
     1
102
RTVSPropertyOp11
 70
     1
102
RTVSPropertyOp12
 70
     1
102
RTVSPropertyOp13
 70
     1
102
RTVSPropertyOp14
 70
     1
102
RTVSPropertyOp15
 70
     1
102
RTVSPropertyOp16
 70
     1
102
RTVSPropertyOp17
 70
     1
102
RTVSPropertyOp18
 70
     1
102
RTVSPropertyOp19
 70
     1
102
RTVSPropertyOp20
 70
     1
102
RTVSPropertyOp21
 70
     1
102
RTVSPropertyOp22
 70
     1
102
RTVSPropertyOp23
 70
     1
102
RTVSPropertyOp24
 70
     1
102
RTVSPropertyOp25
 70
     1
102
RTVSPropertyOp26
 70
     1
102
RTVSPropertyOp27
 70
     1
102
RTVSPropertyOp28
 70
     1
102
RTVSPropertyOp29
 70
     1
102
RTVSPropertyOp30
 70
     1
102
RTVSPropertyOp31
 70
     1
102
RTVSPropertyOp32
 70
     1
102
RTVSPropertyOp33
 70
     1
102
RTVSPropertyOp34
 70
     1
102
RTVSPropertyOp35
 70
     1
102
RTVSPropertyOp36
 70
     1
102
RTVSPropertyOp37
 70
     1
102
RTVSPropertyOp38
 70
     1
102
RTVSPropertyOp39
 70
     1
102
RTVSPropertyOp40
 70
     1
102
RTVSPropertyOp41
 70
     1
102
RTVSPropertyOp42
 70
     1
102
RTVSPropertyOp43
 70
     1
102
RTVSPropertyOp44
 70
     1
102
RTVSPropertyOp45
 70
     1
102
RTVSPropertyOp46
 70
     1
102
RTVSPropertyOp47
 70
     1
102
RTVSPropertyOp48
 70
     1
102
RTVSPropertyOp49
 70
     1
102
RTVSPropertyOp50
 70
     1
102
RTVSPropertyOp51
 70
     0
102
RTVSPropertyOp52
 70
     0
102
RTVSPropertyOp53
 70
     1
102
RTVSPropertyOp54
 70
     1
102
RTVSPropertyOp55
 70
     1
102
RTVSPropertyOp56
 70
     1
102
RTVSPropertyOp57
 70
     1
102
RTVSPost2010Prop28
280
     0
102
RTVSPost2010PropOp28
 70
     1
102
RTVSPost2010Prop29
280
     1
102
RTVSPost2010PropOp29
 70
     1
102
RTVSPost2010Prop30
280
     1
102
RTVSPost2010PropOp30
 70
     1
102
RTVSPost2010Prop31
280
     0
102
RTVSPost2010PropOp31
 70
     1
102
RTVSPost2010Prop32
280
     0
102
RTVSPost2010PropOp32
 70
     1
102
RTVSPost2010Prop33
280
     0
102
RTVSPost2010PropOp33
 70
     1
102
RTVSPost2010Prop34
280
     0
102
RTVSPost2010PropOp34
 70
     1
102
RTVSPost2010Prop35
280
     0
102
RTVSPost2010PropOp35
 70
     1
102
RTVSPost2010Prop36
280
     0
102
RTVSPost2010PropOp36
 70
     1
102
RTVSPost2010Prop37
 90
       50
102
RTVSPost2010PropOp37
 70
     1
102
RTVSPost2010Prop38
140
0.0
102
RTVSPost2010PropOp38
 70
     1
102
RTVSPost2010Prop39
140
1.0
102
RTVSPost2010PropOp39
 70
     1
102
RTVSPost2010Prop40
 90
        0
102
RTVSPost2010PropOp40
 70
     1
102
RTVSPost2010Prop41ColorIndex
 90
       18
102
RTVSPost2010Prop41ColorRGB
 90
        0
102
RTVSPost2010PropOp41
 70
     1
102
RTVSPost2010Prop42
 90
       50
102
RTVSPost2010PropOp42
 70
     1
102
RTVSPost2010Prop43
 90
        3
102
RTVSPost2010PropOp43
 70
     1
102
RTVSPost2010Prop44ColorIndex
 90
        5
102
RTVSPost2010Prop44ColorRGB
 90
      255
102
RTVSPost2010PropOp44
 70
     1
102
RTVSPost2010Prop45
280
     0
102
RTVSPost2010PropOp45
 70
     1
102
RTVSPost2010Prop46
 90
       50
102
RTVSPost2010PropOp46
 70
     1
102
RTVSPost2010Prop47
 90
       50
102
RTVSPost2010PropOp47
 70
     1
102
RTVSPost2010Prop48
 90
       50
102
RTVSPost2010PropOp48
 70
     1
102
RTVSPost2010Prop49
280
     0
102
RTVSPost2010PropOp49
 70
     1
102
RTVSPost2010Prop50
 90
       50
102
RTVSPost2010PropOp50
 70
     1
102
RTVSPost2010Prop51ColorIndex
 90
      256
102
RTVSPost2010Prop51ColorRGB
 90
-16777216
102
RTVSPost2010PropOp51
 70
     0
102
RTVSPost2010Prop52
140
1.0
102
RTVSPost2010PropOp52
 70
     0
102
RTVSPost2010Prop53
 90
        2
102
RTVSPost2010PropOp53
 70
     1
102
RTVSPost2010Prop54
  1
strokes_ogs.tif
102
RTVSPost2010PropOp54
 70
     1
102
RTVSPost2010Prop55
280
     0
102
RTVSPost2010PropOp55
 70
     1
102
RTVSPost2010Prop56
140
1.0
102
RTVSPost2010PropOp56
 70
     1
102
RTVSPost2010Prop57
140
1.0
102
RTVSPost2010PropOp57
 70
     1
  0
XRECORD
  5
1F1
102
{ACAD_REACTORS
330
1F0
102
}
330
1F0
100
AcDbXrecord
280
     1
102
RTVSPropertyOp0
 70
     1
102
RTVSPropertyOp1
 70
     1
102
RTVSPropertyOp2
 70
     1
102
RTVSPropertyOp3
 70
     1
102
RTVSPropertyOp4
 70
     1
102
RTVSPropertyOp5
 70
     1
102
RTVSPropertyOp6
 70
     1
102
RTVSPropertyOp7
 70
     1
102
RTVSPropertyOp8
 70
     1
102
RTVSPropertyOp9
 70
     1
102
RTVSPropertyOp10
 70
     1
102
RTVSPropertyOp11
 70
     1
102
RTVSPropertyOp12
 70
     1
102
RTVSPropertyOp13
 70
     1
102
RTVSPropertyOp14
 70
     1
102
RTVSPropertyOp15
 70
     1
102
RTVSPropertyOp16
 70
     1
102
RTVSPropertyOp17
 70
     1
102
RTVSPropertyOp18
 70
     1
102
RTVSPropertyOp19
 70
     1
102
RTVSPropertyOp20
 70
     1
102
RTVSPropertyOp21
 70
     1
102
RTVSPropertyOp22
 70
     1
102
RTVSPropertyOp23
 70
     1
102
RTVSPropertyOp24
 70
     1
102
RTVSPropertyOp25
 70
     1
102
RTVSPropertyOp26
 70
     1
102
RTVSPropertyOp27
 70
     1
102
RTVSPropertyOp28
 70
     1
102
RTVSPropertyOp29
 70
     1
102
RTVSPropertyOp30
 70
     1
102
RTVSPropertyOp31
 70
     1
102
RTVSPropertyOp32
 70
     1
102
RTVSPropertyOp33
 70
     1
102
RTVSPropertyOp34
 70
     1
102
RTVSPropertyOp35
 70
     1
102
RTVSPropertyOp36
 70
     1
102
RTVSPropertyOp37
 70
     1
102
RTVSPropertyOp38
 70
     1
102
RTVSPropertyOp39
 70
     1
102
RTVSPropertyOp40
 70
     1
102
RTVSPropertyOp41
 70
     1
102
RTVSPropertyOp42
 70
     1
102
RTVSPropertyOp43
 70
     1
102
RTVSPropertyOp44
 70
     1
102
RTVSPropertyOp45
 70
     1
102
RTVSPropertyOp46
 70
     1
102
RTVSPropertyOp47
 70
     1
102
RTVSPropertyOp48
 70
     1
102
RTVSPropertyOp49
 70
     1
102
RTVSPropertyOp50
 70
     1
102
RTVSPropertyOp51
 70
     0
102
RTVSPropertyOp52
 70
     0
102
RTVSPropertyOp53
 70
     1
102
RTVSPropertyOp54
 70
     1
102
RTVSPropertyOp55
 70
     1
102
RTVSPropertyOp56
 70
     1
102
RTVSPropertyOp57
 70
     1
102
RTVSPost2010Prop28
280
     0
102
RTVSPost2010PropOp28
 70
     1
102
RTVSPost2010Prop29
280
     1
102
RTVSPost2010PropOp29
 70
     1
102
RTVSPost2010Prop30
280
     1
102
RTVSPost2010PropOp30
 70
     1
102
RTVSPost2010Prop31
280
     0
102
RTVSPost2010PropOp31
 70
     1
102
RTVSPost2010Prop32
280
     0
102
RTVSPost2010PropOp32
 70
     1
102
RTVSPost2010Prop33
280
     0
102
RTVSPost2010PropOp33
 70
     1
102
RTVSPost2010Prop34
280
     0
102
RTVSPost2010PropOp34
 70
     1
102
RTVSPost2010Prop35
280
     0
102
RTVSPost2010PropOp35
 70
     1
102
RTVSPost2010Prop36
280
     0
102
RTVSPost2010PropOp36
 70
     1
102
RTVSPost2010Prop37
 90
       50
102
RTVSPost2010PropOp37
 70
     1
102
RTVSPost2010Prop38
140
0.0
102
RTVSPost2010PropOp38
 70
     1
102
RTVSPost2010Prop39
140
1.0
102
RTVSPost2010PropOp39
 70
     1
102
RTVSPost2010Prop40
 90
        0
102
RTVSPost2010PropOp40
 70
     1
102
RTVSPost2010Prop41ColorIndex
 90
       18
102
RTVSPost2010Prop41ColorRGB
 90
        0
102
RTVSPost2010PropOp41
 70
     1
102
RTVSPost2010Prop42
 90
       50
102
RTVSPost2010PropOp42
 70
     1
102
RTVSPost2010Prop43
 90
        3
102
RTVSPost2010PropOp43
 70
     1
102
RTVSPost2010Prop44ColorIndex
 90
        5
102
RTVSPost2010Prop44ColorRGB
 90
      255
102
RTVSPost2010PropOp44
 70
     1
102
RTVSPost2010Prop45
280
     0
102
RTVSPost2010PropOp45
 70
     1
102
RTVSPost2010Prop46
 90
       50
102
RTVSPost2010PropOp46
 70
     1
102
RTVSPost2010Prop47
 90
       50
102
RTVSPost2010PropOp47
 70
     1
102
RTVSPost2010Prop48
 90
       50
102
RTVSPost2010PropOp48
 70
     1
102
RTVSPost2010Prop49
280
     0
102
RTVSPost2010PropOp49
 70
     1
102
RTVSPost2010Prop50
 90
       50
102
RTVSPost2010PropOp50
 70
     1
102
RTVSPost2010Prop51ColorIndex
 90
      256
102
RTVSPost2010Prop51ColorRGB
 90
-16777216
102
RTVSPost2010PropOp51
 70
     0
102
RTVSPost2010Prop52
140
1.0
102
RTVSPost2010PropOp52
 70
     0
102
RTVSPost2010Prop53
 90
        2
102
RTVSPost2010PropOp53
 70
     1
102
RTVSPost2010Prop54
  1
strokes_ogs.tif
102
RTVSPost2010PropOp54
 70
     1
102
RTVSPost2010Prop55
280
     0
102
RTVSPost2010PropOp55
 70
     1
102
RTVSPost2010Prop56
140
1.0
102
RTVSPost2010PropOp56
 70
     1
102
RTVSPost2010Prop57
140
1.0
102
RTVSPost2010PropOp57
 70
     1
  0
XRECORD
  5
1F3
102
{ACAD_REACTORS
330
1F2
102
}
330
1F2
100
AcDbXrecord
280
     1
102
RTVSPropertyOp0
 70
     1
102
RTVSPropertyOp1
 70
     1
102
RTVSPropertyOp2
 70
     1
102
RTVSPropertyOp3
 70
     1
102
RTVSPropertyOp4
 70
     1
102
RTVSPropertyOp5
 70
     1
102
RTVSPropertyOp6
 70
     1
102
RTVSPropertyOp7
 70
     1
102
RTVSPropertyOp8
 70
     1
102
RTVSPropertyOp9
 70
     1
102
RTVSPropertyOp10
 70
     1
102
RTVSPropertyOp11
 70
     1
102
RTVSPropertyOp12
 70
     1
102
RTVSPropertyOp13
 70
     1
102
RTVSPropertyOp14
 70
     1
102
RTVSPropertyOp15
 70
     1
102
RTVSPropertyOp16
 70
     1
102
RTVSPropertyOp17
 70
     1
102
RTVSPropertyOp18
 70
     1
102
RTVSPropertyOp19
 70
     1
102
RTVSPropertyOp20
 70
     1
102
RTVSPropertyOp21
 70
     1
102
RTVSPropertyOp22
 70
     1
102
RTVSPropertyOp23
 70
     1
102
RTVSPropertyOp24
 70
     1
102
RTVSPropertyOp25
 70
     1
102
RTVSPropertyOp26
 70
     1
102
RTVSPropertyOp27
 70
     1
102
RTVSPropertyOp28
 70
     1
102
RTVSPropertyOp29
 70
     1
102
RTVSPropertyOp30
 70
     1
102
RTVSPropertyOp31
 70
     1
102
RTVSPropertyOp32
 70
     1
102
RTVSPropertyOp33
 70
     1
102
RTVSPropertyOp34
 70
     1
102
RTVSPropertyOp35
 70
     1
102
RTVSPropertyOp36
 70
     1
102
RTVSPropertyOp37
 70
     1
102
RTVSPropertyOp38
 70
     1
102
RTVSPropertyOp39
 70
     1
102
RTVSPropertyOp40
 70
     1
102
RTVSPropertyOp41
 70
     1
102
RTVSPropertyOp42
 70
     1
102
RTVSPropertyOp43
 70
     1
102
RTVSPropertyOp44
 70
     1
102
RTVSPropertyOp45
 70
     1
102
RTVSPropertyOp46
 70
     1
102
RTVSPropertyOp47
 70
     1
102
RTVSPropertyOp48
 70
     1
102
RTVSPropertyOp49
 70
     1
102
RTVSPropertyOp50
 70
     1
102
RTVSPropertyOp51
 70
     0
102
RTVSPropertyOp52
 70
     0
102
RTVSPropertyOp53
 70
     1
102
RTVSPropertyOp54
 70
     1
102
RTVSPropertyOp55
 70
     1
102
RTVSPropertyOp56
 70
     1
102
RTVSPropertyOp57
 70
     1
102
RTVSPost2010Prop28
280
     0
102
RTVSPost2010PropOp28
 70
     1
102
RTVSPost2010Prop29
280
     1
102
RTVSPost2010PropOp29
 70
     1
102
RTVSPost2010Prop30
280
     1
102
RTVSPost2010PropOp30
 70
     1
102
RTVSPost2010Prop31
280
     0
102
RTVSPost2010PropOp31
 70
     1
102
RTVSPost2010Prop32
280
     0
102
RTVSPost2010PropOp32
 70
     1
102
RTVSPost2010Prop33
280
     0
102
RTVSPost2010PropOp33
 70
     1
102
RTVSPost2010Prop34
280
     0
102
RTVSPost2010PropOp34
 70
     1
102
RTVSPost2010Prop35
280
     0
102
RTVSPost2010PropOp35
 70
     1
102
RTVSPost2010Prop36
280
     0
102
RTVSPost2010PropOp36
 70
     1
102
RTVSPost2010Prop37
 90
       50
102
RTVSPost2010PropOp37
 70
     1
102
RTVSPost2010Prop38
140
0.0
102
RTVSPost2010PropOp38
 70
     1
102
RTVSPost2010Prop39
140
1.0
102
RTVSPost2010PropOp39
 70
     1
102
RTVSPost2010Prop40
 90
        0
102
RTVSPost2010PropOp40
 70
     1
102
RTVSPost2010Prop41ColorIndex
 90
       18
102
RTVSPost2010Prop41ColorRGB
 90
        0
102
RTVSPost2010PropOp41
 70
     1
102
RTVSPost2010Prop42
 90
       50
102
RTVSPost2010PropOp42
 70
     1
102
RTVSPost2010Prop43
 90
        3
102
RTVSPost2010PropOp43
 70
     1
102
RTVSPost2010Prop44ColorIndex
 90
        5
102
RTVSPost2010Prop44ColorRGB
 90
      255
102
RTVSPost2010PropOp44
 70
     1
102
RTVSPost2010Prop45
280
     0
102
RTVSPost2010PropOp45
 70
     1
102
RTVSPost2010Prop46
 90
       50
102
RTVSPost2010PropOp46
 70
     1
102
RTVSPost2010Prop47
 90
       50
102
RTVSPost2010PropOp47
 70
     1
102
RTVSPost2010Prop48
 90
       50
102
RTVSPost2010PropOp48
 70
     1
102
RTVSPost2010Prop49
280
     0
102
RTVSPost2010PropOp49
 70
     1
102
RTVSPost2010Prop50
 90
       50
102
RTVSPost2010PropOp50
 70
     1
102
RTVSPost2010Prop51ColorIndex
 90
      256
102
RTVSPost2010Prop51ColorRGB
 90
-16777216
102
RTVSPost2010PropOp51
 70
     0
102
RTVSPost2010Prop52
140
1.0
102
RTVSPost2010PropOp52
 70
     0
102
RTVSPost2010Prop53
 90
        2
102
RTVSPost2010PropOp53
 70
     1
102
RTVSPost2010Prop54
  1
strokes_ogs.tif
102
RTVSPost2010PropOp54
 70
     1
102
RTVSPost2010Prop55
280
     0
102
RTVSPost2010PropOp55
 70
     1
102
RTVSPost2010Prop56
140
1.0
102
RTVSPost2010PropOp56
 70
     1
102
RTVSPost2010Prop57
140
1.0
102
RTVSPost2010PropOp57
 70
     1
  0
XRECORD
  5
1F9
102
{ACAD_REACTORS
330
1F8
102
}
330
1F8
100
AcDbXrecord
280
     1
102
RTVSPropertyOp0
 70
     1
102
RTVSPropertyOp1
 70
     1
102
RTVSPropertyOp2
 70
     1
102
RTVSPropertyOp3
 70
     1
102
RTVSPropertyOp4
 70
     1
102
RTVSPropertyOp5
 70
     1
102
RTVSPropertyOp6
 70
     1
102
RTVSPropertyOp7
 70
     1
102
RTVSPropertyOp8
 70
     1
102
RTVSPropertyOp9
 70
     1
102
RTVSPropertyOp10
 70
     1
102
RTVSPropertyOp11
 70
     1
102
RTVSPropertyOp12
 70
     1
102
RTVSPropertyOp13
 70
     1
102
RTVSPropertyOp14
 70
     1
102
RTVSPropertyOp15
 70
     1
102
RTVSPropertyOp16
 70
     1
102
RTVSPropertyOp17
 70
     1
102
RTVSPropertyOp18
 70
     1
102
RTVSPropertyOp19
 70
     1
102
RTVSPropertyOp20
 70
     1
102
RTVSPropertyOp21
 70
     1
102
RTVSPropertyOp22
 70
     1
102
RTVSPropertyOp23
 70
     1
102
RTVSPropertyOp24
 70
     1
102
RTVSPropertyOp25
 70
     1
102
RTVSPropertyOp26
 70
     1
102
RTVSPropertyOp27
 70
     1
102
RTVSPropertyOp28
 70
     1
102
RTVSPropertyOp29
 70
     1
102
RTVSPropertyOp30
 70
     1
102
RTVSPropertyOp31
 70
     1
102
RTVSPropertyOp32
 70
     1
102
RTVSPropertyOp33
 70
     1
102
RTVSPropertyOp34
 70
     1
102
RTVSPropertyOp35
 70
     1
102
RTVSPropertyOp36
 70
     1
102
RTVSPropertyOp37
 70
     1
102
RTVSPropertyOp38
 70
     1
102
RTVSPropertyOp39
 70
     1
102
RTVSPropertyOp40
 70
     1
102
RTVSPropertyOp41
 70
     1
102
RTVSPropertyOp42
 70
     1
102
RTVSPropertyOp43
 70
     1
102
RTVSPropertyOp44
 70
     1
102
RTVSPropertyOp45
 70
     1
102
RTVSPropertyOp46
 70
     1
102
RTVSPropertyOp47
 70
     1
102
RTVSPropertyOp48
 70
     1
102
RTVSPropertyOp49
 70
     1
102
RTVSPropertyOp50
 70
     1
102
RTVSPropertyOp51
 70
     0
102
RTVSPropertyOp52
 70
     0
102
RTVSPropertyOp53
 70
     1
102
RTVSPropertyOp54
 70
     1
102
RTVSPropertyOp55
 70
     1
102
RTVSPropertyOp56
 70
     1
102
RTVSPropertyOp57
 70
     1
102
RTVSPost2010Prop28
280
     0
102
RTVSPost2010PropOp28
 70
     1
102
RTVSPost2010Prop29
280
     1
102
RTVSPost2010PropOp29
 70
     1
102
RTVSPost2010Prop30
280
     1
102
RTVSPost2010PropOp30
 70
     1
102
RTVSPost2010Prop31
280
     0
102
RTVSPost2010PropOp31
 70
     1
102
RTVSPost2010Prop32
280
     0
102
RTVSPost2010PropOp32
 70
     1
102
RTVSPost2010Prop33
280
     0
102
RTVSPost2010PropOp33
 70
     1
102
RTVSPost2010Prop34
280
     0
102
RTVSPost2010PropOp34
 70
     1
102
RTVSPost2010Prop35
280
     0
102
RTVSPost2010PropOp35
 70
     1
102
RTVSPost2010Prop36
280
     0
102
RTVSPost2010PropOp36
 70
     1
102
RTVSPost2010Prop37
 90
       50
102
RTVSPost2010PropOp37
 70
     1
102
RTVSPost2010Prop38
140
0.0
102
RTVSPost2010PropOp38
 70
     1
102
RTVSPost2010Prop39
140
1.0
102
RTVSPost2010PropOp39
 70
     1
102
RTVSPost2010Prop40
 90
        0
102
RTVSPost2010PropOp40
 70
     1
102
RTVSPost2010Prop41ColorIndex
 90
       18
102
RTVSPost2010Prop41ColorRGB
 90
        0
102
RTVSPost2010PropOp41
 70
     1
102
RTVSPost2010Prop42
 90
       50
102
RTVSPost2010PropOp42
 70
     1
102
RTVSPost2010Prop43
 90
        3
102
RTVSPost2010PropOp43
 70
     1
102
RTVSPost2010Prop44ColorIndex
 90
        5
102
RTVSPost2010Prop44ColorRGB
 90
      255
102
RTVSPost2010PropOp44
 70
     1
102
RTVSPost2010Prop45
280
     0
102
RTVSPost2010PropOp45
 70
     1
102
RTVSPost2010Prop46
 90
       50
102
RTVSPost2010PropOp46
 70
     1
102
RTVSPost2010Prop47
 90
       50
102
RTVSPost2010PropOp47
 70
     1
102
RTVSPost2010Prop48
 90
       50
102
RTVSPost2010PropOp48
 70
     1
102
RTVSPost2010Prop49
280
     0
102
RTVSPost2010PropOp49
 70
     1
102
RTVSPost2010Prop50
 90
       50
102
RTVSPost2010PropOp50
 70
     1
102
RTVSPost2010Prop51ColorIndex
 90
      256
102
RTVSPost2010Prop51ColorRGB
 90
-16777216
102
RTVSPost2010PropOp51
 70
     0
102
RTVSPost2010Prop52
140
1.0
102
RTVSPost2010PropOp52
 70
     0
102
RTVSPost2010Prop53
 90
        2
102
RTVSPost2010PropOp53
 70
     1
102
RTVSPost2010Prop54
  1
strokes_ogs.tif
102
RTVSPost2010PropOp54
 70
     1
102
RTVSPost2010Prop55
280
     0
102
RTVSPost2010PropOp55
 70
     1
102
RTVSPost2010Prop56
140
1.0
102
RTVSPost2010PropOp56
 70
     1
102
RTVSPost2010Prop57
140
1.0
102
RTVSPost2010PropOp57
 70
     1
  0
XRECORD
  5
20D
102
{ACAD_REACTORS
330
20C
102
}
330
20C
100
AcDbXrecord
280
     1
102
RTVSPropertyOp0
 70
     0
102
RTVSPropertyOp1
 70
     0
102
RTVSPropertyOp2
 70
     0
102
RTVSPropertyOp3
 70
     0
102
RTVSPropertyOp4
 70
     0
102
RTVSPropertyOp5
 70
     0
102
RTVSPropertyOp6
 70
     0
102
RTVSPropertyOp7
 70
     0
102
RTVSPropertyOp8
 70
     0
102
RTVSPropertyOp9
 70
     0
102
RTVSPropertyOp10
 70
     0
102
RTVSPropertyOp11
 70
     0
102
RTVSPropertyOp12
 70
     0
102
RTVSPropertyOp13
 70
     0
102
RTVSPropertyOp14
 70
     2
102
RTVSPropertyOp15
 70
     0
102
RTVSPropertyOp16
 70
     0
102
RTVSPropertyOp17
 70
     0
102
RTVSPropertyOp18
 70
     0
102
RTVSPropertyOp19
 70
     0
102
RTVSPropertyOp20
 70
     0
102
RTVSPropertyOp21
 70
     0
102
RTVSPropertyOp22
 70
     0
102
RTVSPropertyOp23
 70
     0
102
RTVSPropertyOp24
 70
     0
102
RTVSPropertyOp25
 70
     0
102
RTVSPropertyOp26
 70
     0
102
RTVSPropertyOp27
 70
     0
102
RTVSPropertyOp28
 70
     0
102
RTVSPropertyOp29
 70
     0
102
RTVSPropertyOp30
 70
     0
102
RTVSPropertyOp31
 70
     0
102
RTVSPropertyOp32
 70
     0
102
RTVSPropertyOp33
 70
     0
102
RTVSPropertyOp34
 70
     0
102
RTVSPropertyOp35
 70
     0
102
RTVSPropertyOp36
 70
     0
102
RTVSPropertyOp37
 70
     0
102
RTVSPropertyOp38
 70
     0
102
RTVSPropertyOp39
 70
     0
102
RTVSPropertyOp40
 70
     0
102
RTVSPropertyOp41
 70
     0
102
RTVSPropertyOp42
 70
     0
102
RTVSPropertyOp43
 70
     0
102
RTVSPropertyOp44
 70
     0
102
RTVSPropertyOp45
 70
     0
102
RTVSPropertyOp46
 70
     0
102
RTVSPropertyOp47
 70
     0
102
RTVSPropertyOp48
 70
     0
102
RTVSPropertyOp49
 70
     0
102
RTVSPropertyOp50
 70
     0
102
RTVSPropertyOp51
 70
     0
102
RTVSPropertyOp52
 70
     0
102
RTVSPropertyOp53
 70
     0
102
RTVSPropertyOp54
 70
     0
102
RTVSPropertyOp55
 70
     0
102
RTVSPropertyOp56
 70
     0
102
RTVSPropertyOp57
 70
     0
102
RTVSPost2010Prop28
280
     0
102
RTVSPost2010PropOp28
 70
     0
102
RTVSPost2010Prop29
280
     1
102
RTVSPost2010PropOp29
 70
     0
102
RTVSPost2010Prop30
280
     1
102
RTVSPost2010PropOp30
 70
     0
102
RTVSPost2010Prop31
280
     0
102
RTVSPost2010PropOp31
 70
     0
102
RTVSPost2010Prop32
280
     0
102
RTVSPost2010PropOp32
 70
     0
102
RTVSPost2010Prop33
280
     0
102
RTVSPost2010PropOp33
 70
     0
102
RTVSPost2010Prop34
280
     0
102
RTVSPost2010PropOp34
 70
     0
102
RTVSPost2010Prop35
280
     0
102
RTVSPost2010PropOp35
 70
     0
102
RTVSPost2010Prop36
280
     0
102
RTVSPost2010PropOp36
 70
     0
102
RTVSPost2010Prop37
 90
       50
102
RTVSPost2010PropOp37
 70
     0
102
RTVSPost2010Prop38
140
0.0
102
RTVSPost2010PropOp38
 70
     0
102
RTVSPost2010Prop39
140
1.0
102
RTVSPost2010PropOp39
 70
     0
102
RTVSPost2010Prop40
 90
        0
102
RTVSPost2010PropOp40
 70
     0
102
RTVSPost2010Prop41ColorIndex
 90
       18
102
RTVSPost2010Prop41ColorRGB
 90
        0
102
RTVSPost2010PropOp41
 70
     0
102
RTVSPost2010Prop42
 90
       50
102
RTVSPost2010PropOp42
 70
     0
102
RTVSPost2010Prop43
 90
        3
102
RTVSPost2010PropOp43
 70
     0
102
RTVSPost2010Prop44ColorIndex
 90
        5
102
RTVSPost2010Prop44ColorRGB
 90
      255
102
RTVSPost2010PropOp44
 70
     0
102
RTVSPost2010Prop45
280
     0
102
RTVSPost2010PropOp45
 70
     0
102
RTVSPost2010Prop46
 90
       50
102
RTVSPost2010PropOp46
 70
     0
102
RTVSPost2010Prop47
 90
       50
102
RTVSPost2010PropOp47
 70
     0
102
RTVSPost2010Prop48
 90
       50
102
RTVSPost2010PropOp48
 70
     0
102
RTVSPost2010Prop49
280
     0
102
RTVSPost2010PropOp49
 70
     0
102
RTVSPost2010Prop50
 90
       50
102
RTVSPost2010PropOp50
 70
     0
102
RTVSPost2010Prop51ColorIndex
 90
      256
102
RTVSPost2010Prop51ColorRGB
 90
-16777216
102
RTVSPost2010PropOp51
 70
     0
102
RTVSPost2010Prop52
140
1.0
102
RTVSPost2010PropOp52
 70
     0
102
RTVSPost2010Prop53
 90
        2
102
RTVSPost2010PropOp53
 70
     0
102
RTVSPost2010Prop54
  1
strokes_ogs.tif
102
RTVSPost2010PropOp54
 70
     0
102
RTVSPost2010Prop55
280
     0
102
RTVSPost2010PropOp55
 70
     0
102
RTVSPost2010Prop56
140
1.0
102
RTVSPost2010PropOp56
 70
     0
102
RTVSPost2010Prop57
140
1.0
102
RTVSPost2010PropOp57
 70
     0
  0
XRECORD
  5
207
102
{ACAD_REACTORS
330
206
102
}
330
206
100
AcDbXrecord
280
     1
102
RTVSPropertyOp0
 70
     1
102
RTVSPropertyOp1
 70
     1
102
RTVSPropertyOp2
 70
     1
102
RTVSPropertyOp3
 70
     1
102
RTVSPropertyOp4
 70
     1
102
RTVSPropertyOp5
 70
     1
102
RTVSPropertyOp6
 70
     1
102
RTVSPropertyOp7
 70
     1
102
RTVSPropertyOp8
 70
     1
102
RTVSPropertyOp9
 70
     1
102
RTVSPropertyOp10
 70
     1
102
RTVSPropertyOp11
 70
     1
102
RTVSPropertyOp12
 70
     1
102
RTVSPropertyOp13
 70
     1
102
RTVSPropertyOp14
 70
     1
102
RTVSPropertyOp15
 70
     1
102
RTVSPropertyOp16
 70
     1
102
RTVSPropertyOp17
 70
     1
102
RTVSPropertyOp18
 70
     1
102
RTVSPropertyOp19
 70
     1
102
RTVSPropertyOp20
 70
     1
102
RTVSPropertyOp21
 70
     1
102
RTVSPropertyOp22
 70
     1
102
RTVSPropertyOp23
 70
     1
102
RTVSPropertyOp24
 70
     1
102
RTVSPropertyOp25
 70
     1
102
RTVSPropertyOp26
 70
     1
102
RTVSPropertyOp27
 70
     1
102
RTVSPropertyOp28
 70
     1
102
RTVSPropertyOp29
 70
     1
102
RTVSPropertyOp30
 70
     1
102
RTVSPropertyOp31
 70
     1
102
RTVSPropertyOp32
 70
     1
102
RTVSPropertyOp33
 70
     1
102
RTVSPropertyOp34
 70
     1
102
RTVSPropertyOp35
 70
     1
102
RTVSPropertyOp36
 70
     1
102
RTVSPropertyOp37
 70
     1
102
RTVSPropertyOp38
 70
     1
102
RTVSPropertyOp39
 70
     1
102
RTVSPropertyOp40
 70
     1
102
RTVSPropertyOp41
 70
     1
102
RTVSPropertyOp42
 70
     1
102
RTVSPropertyOp43
 70
     1
102
RTVSPropertyOp44
 70
     1
102
RTVSPropertyOp45
 70
     1
102
RTVSPropertyOp46
 70
     1
102
RTVSPropertyOp47
 70
     1
102
RTVSPropertyOp48
 70
     1
102
RTVSPropertyOp49
 70
     1
102
RTVSPropertyOp50
 70
     1
102
RTVSPropertyOp51
 70
     0
102
RTVSPropertyOp52
 70
     0
102
RTVSPropertyOp53
 70
     1
102
RTVSPropertyOp54
 70
     1
102
RTVSPropertyOp55
 70
     1
102
RTVSPropertyOp56
 70
     1
102
RTVSPropertyOp57
 70
     1
102
RTVSPost2010Prop28
280
     0
102
RTVSPost2010PropOp28
 70
     1
102
RTVSPost2010Prop29
280
     1
102
RTVSPost2010PropOp29
 70
     1
102
RTVSPost2010Prop30
280
     1
102
RTVSPost2010PropOp30
 70
     1
102
RTVSPost2010Prop31
280
     0
102
RTVSPost2010PropOp31
 70
     1
102
RTVSPost2010Prop32
280
     0
102
RTVSPost2010PropOp32
 70
     1
102
RTVSPost2010Prop33
280
     0
102
RTVSPost2010PropOp33
 70
     1
102
RTVSPost2010Prop34
280
     0
102
RTVSPost2010PropOp34
 70
     1
102
RTVSPost2010Prop35
280
     0
102
RTVSPost2010PropOp35
 70
     1
102
RTVSPost2010Prop36
280
     0
102
RTVSPost2010PropOp36
 70
     1
102
RTVSPost2010Prop37
 90
       50
102
RTVSPost2010PropOp37
 70
     1
102
RTVSPost2010Prop38
140
0.0
102
RTVSPost2010PropOp38
 70
     1
102
RTVSPost2010Prop39
140
1.0
102
RTVSPost2010PropOp39
 70
     1
102
RTVSPost2010Prop40
 90
        0
102
RTVSPost2010PropOp40
 70
     1
102
RTVSPost2010Prop41ColorIndex
 90
       18
102
RTVSPost2010Prop41ColorRGB
 90
        0
102
RTVSPost2010PropOp41
 70
     1
102
RTVSPost2010Prop42
 90
       50
102
RTVSPost2010PropOp42
 70
     1
102
RTVSPost2010Prop43
 90
        3
102
RTVSPost2010PropOp43
 70
     1
102
RTVSPost2010Prop44ColorIndex
 90
        5
102
RTVSPost2010Prop44ColorRGB
 90
      255
102
RTVSPost2010PropOp44
 70
     1
102
RTVSPost2010Prop45
280
     0
102
RTVSPost2010PropOp45
 70
     1
102
RTVSPost2010Prop46
 90
       50
102
RTVSPost2010PropOp46
 70
     1
102
RTVSPost2010Prop47
 90
       50
102
RTVSPost2010PropOp47
 70
     1
102
RTVSPost2010Prop48
 90
       50
102
RTVSPost2010PropOp48
 70
     1
102
RTVSPost2010Prop49
280
     0
102
RTVSPost2010PropOp49
 70
     1
102
RTVSPost2010Prop50
 90
       50
102
RTVSPost2010PropOp50
 70
     1
102
RTVSPost2010Prop51ColorIndex
 90
      256
102
RTVSPost2010Prop51ColorRGB
 90
-16777216
102
RTVSPost2010PropOp51
 70
     0
102
RTVSPost2010Prop52
140
1.0
102
RTVSPost2010PropOp52
 70
     0
102
RTVSPost2010Prop53
 90
        2
102
RTVSPost2010PropOp53
 70
     1
102
RTVSPost2010Prop54
  1
strokes_ogs.tif
102
RTVSPost2010PropOp54
 70
     1
102
RTVSPost2010Prop55
280
     0
102
RTVSPost2010PropOp55
 70
     1
102
RTVSPost2010Prop56
140
1.0
102
RTVSPost2010PropOp56
 70
     1
102
RTVSPost2010Prop57
140
1.0
102
RTVSPost2010PropOp57
 70
     1
  0
XRECORD
  5
20F
102
{ACAD_REACTORS
330
20E
102
}
330
20E
100
AcDbXrecord
280
     1
102
RTVSPropertyOp0
 70
     0
102
RTVSPropertyOp1
 70
     0
102
RTVSPropertyOp2
 70
     0
102
RTVSPropertyOp3
 70
     0
102
RTVSPropertyOp4
 70
     0
102
RTVSPropertyOp5
 70
     0
102
RTVSPropertyOp6
 70
     0
102
RTVSPropertyOp7
 70
     0
102
RTVSPropertyOp8
 70
     0
102
RTVSPropertyOp9
 70
     0
102
RTVSPropertyOp10
 70
     0
102
RTVSPropertyOp11
 70
     0
102
RTVSPropertyOp12
 70
     0
102
RTVSPropertyOp13
 70
     0
102
RTVSPropertyOp14
 70
     2
102
RTVSPropertyOp15
 70
     0
102
RTVSPropertyOp16
 70
     0
102
RTVSPropertyOp17
 70
     0
102
RTVSPropertyOp18
 70
     0
102
RTVSPropertyOp19
 70
     0
102
RTVSPropertyOp20
 70
     0
102
RTVSPropertyOp21
 70
     0
102
RTVSPropertyOp22
 70
     0
102
RTVSPropertyOp23
 70
     0
102
RTVSPropertyOp24
 70
     0
102
RTVSPropertyOp25
 70
     0
102
RTVSPropertyOp26
 70
     0
102
RTVSPropertyOp27
 70
     0
102
RTVSPropertyOp28
 70
     0
102
RTVSPropertyOp29
 70
     0
102
RTVSPropertyOp30
 70
     0
102
RTVSPropertyOp31
 70
     0
102
RTVSPropertyOp32
 70
     0
102
RTVSPropertyOp33
 70
     0
102
RTVSPropertyOp34
 70
     0
102
RTVSPropertyOp35
 70
     0
102
RTVSPropertyOp36
 70
     0
102
RTVSPropertyOp37
 70
     0
102
RTVSPropertyOp38
 70
     0
102
RTVSPropertyOp39
 70
     0
102
RTVSPropertyOp40
 70
     0
102
RTVSPropertyOp41
 70
     0
102
RTVSPropertyOp42
 70
     0
102
RTVSPropertyOp43
 70
     0
102
RTVSPropertyOp44
 70
     0
102
RTVSPropertyOp45
 70
     0
102
RTVSPropertyOp46
 70
     0
102
RTVSPropertyOp47
 70
     0
102
RTVSPropertyOp48
 70
     0
102
RTVSPropertyOp49
 70
     0
102
RTVSPropertyOp50
 70
     0
102
RTVSPropertyOp51
 70
     0
102
RTVSPropertyOp52
 70
     0
102
RTVSPropertyOp53
 70
     0
102
RTVSPropertyOp54
 70
     0
102
RTVSPropertyOp55
 70
     0
102
RTVSPropertyOp56
 70
     0
102
RTVSPropertyOp57
 70
     0
102
RTVSPost2010Prop28
280
     0
102
RTVSPost2010PropOp28
 70
     0
102
RTVSPost2010Prop29
280
     1
102
RTVSPost2010PropOp29
 70
     0
102
RTVSPost2010Prop30
280
     1
102
RTVSPost2010PropOp30
 70
     0
102
RTVSPost2010Prop31
280
     0
102
RTVSPost2010PropOp31
 70
     0
102
RTVSPost2010Prop32
280
     0
102
RTVSPost2010PropOp32
 70
     0
102
RTVSPost2010Prop33
280
     0
102
RTVSPost2010PropOp33
 70
     0
102
RTVSPost2010Prop34
280
     0
102
RTVSPost2010PropOp34
 70
     0
102
RTVSPost2010Prop35
280
     0
102
RTVSPost2010PropOp35
 70
     0
102
RTVSPost2010Prop36
280
     0
102
RTVSPost2010PropOp36
 70
     0
102
RTVSPost2010Prop37
 90
       50
102
RTVSPost2010PropOp37
 70
     0
102
RTVSPost2010Prop38
140
0.0
102
RTVSPost2010PropOp38
 70
     0
102
RTVSPost2010Prop39
140
1.0
102
RTVSPost2010PropOp39
 70
     0
102
RTVSPost2010Prop40
 90
        0
102
RTVSPost2010PropOp40
 70
     0
102
RTVSPost2010Prop41ColorIndex
 90
       18
102
RTVSPost2010Prop41ColorRGB
 90
        0
102
RTVSPost2010PropOp41
 70
     0
102
RTVSPost2010Prop42
 90
       50
102
RTVSPost2010PropOp42
 70
     0
102
RTVSPost2010Prop43
 90
        3
102
RTVSPost2010PropOp43
 70
     0
102
RTVSPost2010Prop44ColorIndex
 90
        5
102
RTVSPost2010Prop44ColorRGB
 90
      255
102
RTVSPost2010PropOp44
 70
     0
102
RTVSPost2010Prop45
280
     0
102
RTVSPost2010PropOp45
 70
     0
102
RTVSPost2010Prop46
 90
       50
102
RTVSPost2010PropOp46
 70
     0
102
RTVSPost2010Prop47
 90
       50
102
RTVSPost2010PropOp47
 70
     0
102
RTVSPost2010Prop48
 90
       50
102
RTVSPost2010PropOp48
 70
     0
102
RTVSPost2010Prop49
280
     0
102
RTVSPost2010PropOp49
 70
     0
102
RTVSPost2010Prop50
 90
       50
102
RTVSPost2010PropOp50
 70
     0
102
RTVSPost2010Prop51ColorIndex
 90
      256
102
RTVSPost2010Prop51ColorRGB
 90
-16777216
102
RTVSPost2010PropOp51
 70
     0
102
RTVSPost2010Prop52
140
1.0
102
RTVSPost2010PropOp52
 70
     0
102
RTVSPost2010Prop53
 90
        2
102
RTVSPost2010PropOp53
 70
     0
102
RTVSPost2010Prop54
  1
strokes_ogs.tif
102
RTVSPost2010PropOp54
 70
     0
102
RTVSPost2010Prop55
280
     0
102
RTVSPost2010PropOp55
 70
     0
102
RTVSPost2010Prop56
140
1.0
102
RTVSPost2010PropOp56
 70
     0
102
RTVSPost2010Prop57
140
1.0
102
RTVSPost2010PropOp57
 70
     0
  0
XRECORD
  5
1FD
102
{ACAD_REACTORS
330
1FC
102
}
330
1FC
100
AcDbXrecord
280
     1
102
RTVSPropertyOp0
 70
     1
102
RTVSPropertyOp1
 70
     1
102
RTVSPropertyOp2
 70
     1
102
RTVSPropertyOp3
 70
     1
102
RTVSPropertyOp4
 70
     1
102
RTVSPropertyOp5
 70
     1
102
RTVSPropertyOp6
 70
     1
102
RTVSPropertyOp7
 70
     1
102
RTVSPropertyOp8
 70
     1
102
RTVSPropertyOp9
 70
     1
102
RTVSPropertyOp10
 70
     1
102
RTVSPropertyOp11
 70
     1
102
RTVSPropertyOp12
 70
     1
102
RTVSPropertyOp13
 70
     1
102
RTVSPropertyOp14
 70
     1
102
RTVSPropertyOp15
 70
     1
102
RTVSPropertyOp16
 70
     1
102
RTVSPropertyOp17
 70
     1
102
RTVSPropertyOp18
 70
     1
102
RTVSPropertyOp19
 70
     1
102
RTVSPropertyOp20
 70
     1
102
RTVSPropertyOp21
 70
     1
102
RTVSPropertyOp22
 70
     1
102
RTVSPropertyOp23
 70
     1
102
RTVSPropertyOp24
 70
     1
102
RTVSPropertyOp25
 70
     1
102
RTVSPropertyOp26
 70
     1
102
RTVSPropertyOp27
 70
     1
102
RTVSPropertyOp28
 70
     1
102
RTVSPropertyOp29
 70
     1
102
RTVSPropertyOp30
 70
     1
102
RTVSPropertyOp31
 70
     1
102
RTVSPropertyOp32
 70
     1
102
RTVSPropertyOp33
 70
     1
102
RTVSPropertyOp34
 70
     1
102
RTVSPropertyOp35
 70
     1
102
RTVSPropertyOp36
 70
     1
102
RTVSPropertyOp37
 70
     1
102
RTVSPropertyOp38
 70
     1
102
RTVSPropertyOp39
 70
     1
102
RTVSPropertyOp40
 70
     1
102
RTVSPropertyOp41
 70
     1
102
RTVSPropertyOp42
 70
     1
102
RTVSPropertyOp43
 70
     1
102
RTVSPropertyOp44
 70
     1
102
RTVSPropertyOp45
 70
     1
102
RTVSPropertyOp46
 70
     1
102
RTVSPropertyOp47
 70
     1
102
RTVSPropertyOp48
 70
     1
102
RTVSPropertyOp49
 70
     1
102
RTVSPropertyOp50
 70
     1
102
RTVSPropertyOp51
 70
     0
102
RTVSPropertyOp52
 70
     0
102
RTVSPropertyOp53
 70
     1
102
RTVSPropertyOp54
 70
     1
102
RTVSPropertyOp55
 70
     1
102
RTVSPropertyOp56
 70
     1
102
RTVSPropertyOp57
 70
     1
102
RTVSPost2010Prop28
280
     0
102
RTVSPost2010PropOp28
 70
     1
102
RTVSPost2010Prop29
280
     1
102
RTVSPost2010PropOp29
 70
     1
102
RTVSPost2010Prop30
280
     1
102
RTVSPost2010PropOp30
 70
     1
102
RTVSPost2010Prop31
280
     0
102
RTVSPost2010PropOp31
 70
     1
102
RTVSPost2010Prop32
280
     0
102
RTVSPost2010PropOp32
 70
     1
102
RTVSPost2010Prop33
280
     0
102
RTVSPost2010PropOp33
 70
     1
102
RTVSPost2010Prop34
280
     0
102
RTVSPost2010PropOp34
 70
     1
102
RTVSPost2010Prop35
280
     0
102
RTVSPost2010PropOp35
 70
     1
102
RTVSPost2010Prop36
280
     0
102
RTVSPost2010PropOp36
 70
     1
102
RTVSPost2010Prop37
 90
       50
102
RTVSPost2010PropOp37
 70
     1
102
RTVSPost2010Prop38
140
0.0
102
RTVSPost2010PropOp38
 70
     1
102
RTVSPost2010Prop39
140
1.0
102
RTVSPost2010PropOp39
 70
     1
102
RTVSPost2010Prop40
 90
        0
102
RTVSPost2010PropOp40
 70
     1
102
RTVSPost2010Prop41ColorIndex
 90
       18
102
RTVSPost2010Prop41ColorRGB
 90
        0
102
RTVSPost2010PropOp41
 70
     1
102
RTVSPost2010Prop42
 90
       50
102
RTVSPost2010PropOp42
 70
     1
102
RTVSPost2010Prop43
 90
        3
102
RTVSPost2010PropOp43
 70
     1
102
RTVSPost2010Prop44ColorIndex
 90
        5
102
RTVSPost2010Prop44ColorRGB
 90
      255
102
RTVSPost2010PropOp44
 70
     1
102
RTVSPost2010Prop45
280
     0
102
RTVSPost2010PropOp45
 70
     1
102
RTVSPost2010Prop46
 90
       50
102
RTVSPost2010PropOp46
 70
     1
102
RTVSPost2010Prop47
 90
       50
102
RTVSPost2010PropOp47
 70
     1
102
RTVSPost2010Prop48
 90
       50
102
RTVSPost2010PropOp48
 70
     1
102
RTVSPost2010Prop49
280
     0
102
RTVSPost2010PropOp49
 70
     1
102
RTVSPost2010Prop50
 90
       50
102
RTVSPost2010PropOp50
 70
     1
102
RTVSPost2010Prop51ColorIndex
 90
      256
102
RTVSPost2010Prop51ColorRGB
 90
-16777216
102
RTVSPost2010PropOp51
 70
     0
102
RTVSPost2010Prop52
140
1.0
102
RTVSPost2010PropOp52
 70
     0
102
RTVSPost2010Prop53
 90
        2
102
RTVSPost2010PropOp53
 70
     1
102
RTVSPost2010Prop54
  1
strokes_ogs.tif
102
RTVSPost2010PropOp54
 70
     1
102
RTVSPost2010Prop55
280
     0
102
RTVSPost2010PropOp55
 70
     1
102
RTVSPost2010Prop56
140
1.0
102
RTVSPost2010PropOp56
 70
     1
102
RTVSPost2010Prop57
140
1.0
102
RTVSPost2010PropOp57
 70
     1
  0
XRECORD
  5
21B
102
{ACAD_REACTORS
330
21A
102
}
330
21A
100
AcDbXrecord
280
     1
102
RTVSPropertyOp0
 70
     1
102
RTVSPropertyOp1
 70
     1
102
RTVSPropertyOp2
 70
     1
102
RTVSPropertyOp3
 70
     1
102
RTVSPropertyOp4
 70
     1
102
RTVSPropertyOp5
 70
     1
102
RTVSPropertyOp6
 70
     1
102
RTVSPropertyOp7
 70
     1
102
RTVSPropertyOp8
 70
     1
102
RTVSPropertyOp9
 70
     1
102
RTVSPropertyOp10
 70
     1
102
RTVSPropertyOp11
 70
     1
102
RTVSPropertyOp12
 70
     1
102
RTVSPropertyOp13
 70
     1
102
RTVSPropertyOp14
 70
     1
102
RTVSPropertyOp15
 70
     1
102
RTVSPropertyOp16
 70
     1
102
RTVSPropertyOp17
 70
     1
102
RTVSPropertyOp18
 70
     1
102
RTVSPropertyOp19
 70
     1
102
RTVSPropertyOp20
 70
     1
102
RTVSPropertyOp21
 70
     1
102
RTVSPropertyOp22
 70
     1
102
RTVSPropertyOp23
 70
     1
102
RTVSPropertyOp24
 70
     1
102
RTVSPropertyOp25
 70
     1
102
RTVSPropertyOp26
 70
     1
102
RTVSPropertyOp27
 70
     1
102
RTVSPropertyOp28
 70
     1
102
RTVSPropertyOp29
 70
     1
102
RTVSPropertyOp30
 70
     1
102
RTVSPropertyOp31
 70
     1
102
RTVSPropertyOp32
 70
     1
102
RTVSPropertyOp33
 70
     1
102
RTVSPropertyOp34
 70
     1
102
RTVSPropertyOp35
 70
     1
102
RTVSPropertyOp36
 70
     1
102
RTVSPropertyOp37
 70
     1
102
RTVSPropertyOp38
 70
     1
102
RTVSPropertyOp39
 70
     1
102
RTVSPropertyOp40
 70
     1
102
RTVSPropertyOp41
 70
     1
102
RTVSPropertyOp42
 70
     1
102
RTVSPropertyOp43
 70
     1
102
RTVSPropertyOp44
 70
     1
102
RTVSPropertyOp45
 70
     1
102
RTVSPropertyOp46
 70
     1
102
RTVSPropertyOp47
 70
     1
102
RTVSPropertyOp48
 70
     1
102
RTVSPropertyOp49
 70
     1
102
RTVSPropertyOp50
 70
     1
102
RTVSPropertyOp51
 70
     0
102
RTVSPropertyOp52
 70
     0
102
RTVSPropertyOp53
 70
     1
102
RTVSPropertyOp54
 70
     1
102
RTVSPropertyOp55
 70
     1
102
RTVSPropertyOp56
 70
     1
102
RTVSPropertyOp57
 70
     1
102
RTVSPost2010Prop28
280
     0
102
RTVSPost2010PropOp28
 70
     1
102
RTVSPost2010Prop29
280
     1
102
RTVSPost2010PropOp29
 70
     1
102
RTVSPost2010Prop30
280
     1
102
RTVSPost2010PropOp30
 70
     1
102
RTVSPost2010Prop31
280
     0
102
RTVSPost2010PropOp31
 70
     1
102
RTVSPost2010Prop32
280
     0
102
RTVSPost2010PropOp32
 70
     1
102
RTVSPost2010Prop33
280
     0
102
RTVSPost2010PropOp33
 70
     1
102
RTVSPost2010Prop34
280
     0
102
RTVSPost2010PropOp34
 70
     1
102
RTVSPost2010Prop35
280
     0
102
RTVSPost2010PropOp35
 70
     1
102
RTVSPost2010Prop36
280
     0
102
RTVSPost2010PropOp36
 70
     1
102
RTVSPost2010Prop37
 90
       50
102
RTVSPost2010PropOp37
 70
     1
102
RTVSPost2010Prop38
140
0.0
102
RTVSPost2010PropOp38
 70
     1
102
RTVSPost2010Prop39
140
1.0
102
RTVSPost2010PropOp39
 70
     1
102
RTVSPost2010Prop40
 90
        0
102
RTVSPost2010PropOp40
 70
     1
102
RTVSPost2010Prop41ColorIndex
 90
       18
102
RTVSPost2010Prop41ColorRGB
 90
        0
102
RTVSPost2010PropOp41
 70
     1
102
RTVSPost2010Prop42
 90
       50
102
RTVSPost2010PropOp42
 70
     1
102
RTVSPost2010Prop43
 90
        3
102
RTVSPost2010PropOp43
 70
     1
102
RTVSPost2010Prop44ColorIndex
 90
        5
102
RTVSPost2010Prop44ColorRGB
 90
      255
102
RTVSPost2010PropOp44
 70
     1
102
RTVSPost2010Prop45
280
     0
102
RTVSPost2010PropOp45
 70
     1
102
RTVSPost2010Prop46
 90
       50
102
RTVSPost2010PropOp46
 70
     1
102
RTVSPost2010Prop47
 90
       50
102
RTVSPost2010PropOp47
 70
     1
102
RTVSPost2010Prop48
 90
       50
102
RTVSPost2010PropOp48
 70
     1
102
RTVSPost2010Prop49
280
     0
102
RTVSPost2010PropOp49
 70
     1
102
RTVSPost2010Prop50
 90
       50
102
RTVSPost2010PropOp50
 70
     1
102
RTVSPost2010Prop51ColorIndex
 90
      256
102
RTVSPost2010Prop51ColorRGB
 90
-16777216
102
RTVSPost2010PropOp51
 70
     0
102
RTVSPost2010Prop52
140
1.0
102
RTVSPost2010PropOp52
 70
     0
102
RTVSPost2010Prop53
 90
        2
102
RTVSPost2010PropOp53
 70
     1
102
RTVSPost2010Prop54
  1
strokes_ogs.tif
102
RTVSPost2010PropOp54
 70
     1
102
RTVSPost2010Prop55
280
     0
102
RTVSPost2010PropOp55
 70
     1
102
RTVSPost2010Prop56
140
1.0
102
RTVSPost2010PropOp56
 70
     1
102
RTVSPost2010Prop57
140
1.0
102
RTVSPost2010PropOp57
 70
     1
  0
XRECORD
  5
219
102
{ACAD_REACTORS
330
218
102
}
330
218
100
AcDbXrecord
280
     1
102
RTVSPropertyOp0
 70
     1
102
RTVSPropertyOp1
 70
     1
102
RTVSPropertyOp2
 70
     1
102
RTVSPropertyOp3
 70
     1
102
RTVSPropertyOp4
 70
     1
102
RTVSPropertyOp5
 70
     1
102
RTVSPropertyOp6
 70
     1
102
RTVSPropertyOp7
 70
     1
102
RTVSPropertyOp8
 70
     1
102
RTVSPropertyOp9
 70
     1
102
RTVSPropertyOp10
 70
     1
102
RTVSPropertyOp11
 70
     1
102
RTVSPropertyOp12
 70
     1
102
RTVSPropertyOp13
 70
     1
102
RTVSPropertyOp14
 70
     1
102
RTVSPropertyOp15
 70
     1
102
RTVSPropertyOp16
 70
     1
102
RTVSPropertyOp17
 70
     1
102
RTVSPropertyOp18
 70
     1
102
RTVSPropertyOp19
 70
     1
102
RTVSPropertyOp20
 70
     1
102
RTVSPropertyOp21
 70
     1
102
RTVSPropertyOp22
 70
     1
102
RTVSPropertyOp23
 70
     1
102
RTVSPropertyOp24
 70
     1
102
RTVSPropertyOp25
 70
     1
102
RTVSPropertyOp26
 70
     1
102
RTVSPropertyOp27
 70
     1
102
RTVSPropertyOp28
 70
     1
102
RTVSPropertyOp29
 70
     1
102
RTVSPropertyOp30
 70
     1
102
RTVSPropertyOp31
 70
     1
102
RTVSPropertyOp32
 70
     1
102
RTVSPropertyOp33
 70
     1
102
RTVSPropertyOp34
 70
     1
102
RTVSPropertyOp35
 70
     1
102
RTVSPropertyOp36
 70
     1
102
RTVSPropertyOp37
 70
     1
102
RTVSPropertyOp38
 70
     1
102
RTVSPropertyOp39
 70
     1
102
RTVSPropertyOp40
 70
     1
102
RTVSPropertyOp41
 70
     1
102
RTVSPropertyOp42
 70
     1
102
RTVSPropertyOp43
 70
     1
102
RTVSPropertyOp44
 70
     1
102
RTVSPropertyOp45
 70
     1
102
RTVSPropertyOp46
 70
     1
102
RTVSPropertyOp47
 70
     1
102
RTVSPropertyOp48
 70
     1
102
RTVSPropertyOp49
 70
     1
102
RTVSPropertyOp50
 70
     1
102
RTVSPropertyOp51
 70
     0
102
RTVSPropertyOp52
 70
     0
102
RTVSPropertyOp53
 70
     1
102
RTVSPropertyOp54
 70
     1
102
RTVSPropertyOp55
 70
     1
102
RTVSPropertyOp56
 70
     1
102
RTVSPropertyOp57
 70
     1
102
RTVSPost2010Prop28
280
     0
102
RTVSPost2010PropOp28
 70
     1
102
RTVSPost2010Prop29
280
     1
102
RTVSPost2010PropOp29
 70
     1
102
RTVSPost2010Prop30
280
     1
102
RTVSPost2010PropOp30
 70
     1
102
RTVSPost2010Prop31
280
     0
102
RTVSPost2010PropOp31
 70
     1
102
RTVSPost2010Prop32
280
     0
102
RTVSPost2010PropOp32
 70
     1
102
RTVSPost2010Prop33
280
     0
102
RTVSPost2010PropOp33
 70
     1
102
RTVSPost2010Prop34
280
     0
102
RTVSPost2010PropOp34
 70
     1
102
RTVSPost2010Prop35
280
     0
102
RTVSPost2010PropOp35
 70
     1
102
RTVSPost2010Prop36
280
     0
102
RTVSPost2010PropOp36
 70
     1
102
RTVSPost2010Prop37
 90
       50
102
RTVSPost2010PropOp37
 70
     1
102
RTVSPost2010Prop38
140
0.0
102
RTVSPost2010PropOp38
 70
     1
102
RTVSPost2010Prop39
140
1.0
102
RTVSPost2010PropOp39
 70
     1
102
RTVSPost2010Prop40
 90
        0
102
RTVSPost2010PropOp40
 70
     1
102
RTVSPost2010Prop41ColorIndex
 90
       18
102
RTVSPost2010Prop41ColorRGB
 90
        0
102
RTVSPost2010PropOp41
 70
     1
102
RTVSPost2010Prop42
 90
       50
102
RTVSPost2010PropOp42
 70
     1
102
RTVSPost2010Prop43
 90
        3
102
RTVSPost2010PropOp43
 70
     1
102
RTVSPost2010Prop44ColorIndex
 90
        5
102
RTVSPost2010Prop44ColorRGB
 90
      255
102
RTVSPost2010PropOp44
 70
     1
102
RTVSPost2010Prop45
280
     0
102
RTVSPost2010PropOp45
 70
     1
102
RTVSPost2010Prop46
 90
       50
102
RTVSPost2010PropOp46
 70
     1
102
RTVSPost2010Prop47
 90
       50
102
RTVSPost2010PropOp47
 70
     1
102
RTVSPost2010Prop48
 90
       50
102
RTVSPost2010PropOp48
 70
     1
102
RTVSPost2010Prop49
280
     0
102
RTVSPost2010PropOp49
 70
     1
102
RTVSPost2010Prop50
 90
       50
102
RTVSPost2010PropOp50
 70
     1
102
RTVSPost2010Prop51ColorIndex
 90
      256
102
RTVSPost2010Prop51ColorRGB
 90
-16777216
102
RTVSPost2010PropOp51
 70
     0
102
RTVSPost2010Prop52
140
1.0
102
RTVSPost2010PropOp52
 70
     0
102
RTVSPost2010Prop53
 90
        2
102
RTVSPost2010PropOp53
 70
     1
102
RTVSPost2010Prop54
  1
strokes_ogs.tif
102
RTVSPost2010PropOp54
 70
     1
102
RTVSPost2010Prop55
280
     0
102
RTVSPost2010PropOp55
 70
     1
102
RTVSPost2010Prop56
140
1.0
102
RTVSPost2010PropOp56
 70
     1
102
RTVSPost2010Prop57
140
1.0
102
RTVSPost2010PropOp57
 70
     1
  0
XRECORD
  5
213
102
{ACAD_REACTORS
330
212
102
}
330
212
100
AcDbXrecord
280
     1
102
RTVSPropertyOp0
 70
     1
102
RTVSPropertyOp1
 70
     1
102
RTVSPropertyOp2
 70
     1
102
RTVSPropertyOp3
 70
     1
102
RTVSPropertyOp4
 70
     1
102
RTVSPropertyOp5
 70
     1
102
RTVSPropertyOp6
 70
     1
102
RTVSPropertyOp7
 70
     1
102
RTVSPropertyOp8
 70
     1
102
RTVSPropertyOp9
 70
     1
102
RTVSPropertyOp10
 70
     1
102
RTVSPropertyOp11
 70
     1
102
RTVSPropertyOp12
 70
     1
102
RTVSPropertyOp13
 70
     1
102
RTVSPropertyOp14
 70
     1
102
RTVSPropertyOp15
 70
     1
102
RTVSPropertyOp16
 70
     1
102
RTVSPropertyOp17
 70
     1
102
RTVSPropertyOp18
 70
     1
102
RTVSPropertyOp19
 70
     1
102
RTVSPropertyOp20
 70
     1
102
RTVSPropertyOp21
 70
     1
102
RTVSPropertyOp22
 70
     1
102
RTVSPropertyOp23
 70
     1
102
RTVSPropertyOp24
 70
     1
102
RTVSPropertyOp25
 70
     1
102
RTVSPropertyOp26
 70
     1
102
RTVSPropertyOp27
 70
     1
102
RTVSPropertyOp28
 70
     1
102
RTVSPropertyOp29
 70
     1
102
RTVSPropertyOp30
 70
     1
102
RTVSPropertyOp31
 70
     1
102
RTVSPropertyOp32
 70
     1
102
RTVSPropertyOp33
 70
     1
102
RTVSPropertyOp34
 70
     1
102
RTVSPropertyOp35
 70
     1
102
RTVSPropertyOp36
 70
     1
102
RTVSPropertyOp37
 70
     1
102
RTVSPropertyOp38
 70
     1
102
RTVSPropertyOp39
 70
     1
102
RTVSPropertyOp40
 70
     1
102
RTVSPropertyOp41
 70
     1
102
RTVSPropertyOp42
 70
     1
102
RTVSPropertyOp43
 70
     1
102
RTVSPropertyOp44
 70
     1
102
RTVSPropertyOp45
 70
     1
102
RTVSPropertyOp46
 70
     1
102
RTVSPropertyOp47
 70
     1
102
RTVSPropertyOp48
 70
     1
102
RTVSPropertyOp49
 70
     1
102
RTVSPropertyOp50
 70
     1
102
RTVSPropertyOp51
 70
     0
102
RTVSPropertyOp52
 70
     0
102
RTVSPropertyOp53
 70
     1
102
RTVSPropertyOp54
 70
     1
102
RTVSPropertyOp55
 70
     1
102
RTVSPropertyOp56
 70
     1
102
RTVSPropertyOp57
 70
     1
102
RTVSPost2010Prop28
280
     0
102
RTVSPost2010PropOp28
 70
     1
102
RTVSPost2010Prop29
280
     1
102
RTVSPost2010PropOp29
 70
     1
102
RTVSPost2010Prop30
280
     1
102
RTVSPost2010PropOp30
 70
     1
102
RTVSPost2010Prop31
280
     0
102
RTVSPost2010PropOp31
 70
     1
102
RTVSPost2010Prop32
280
     0
102
RTVSPost2010PropOp32
 70
     1
102
RTVSPost2010Prop33
280
     0
102
RTVSPost2010PropOp33
 70
     1
102
RTVSPost2010Prop34
280
     0
102
RTVSPost2010PropOp34
 70
     1
102
RTVSPost2010Prop35
280
     0
102
RTVSPost2010PropOp35
 70
     1
102
RTVSPost2010Prop36
280
     0
102
RTVSPost2010PropOp36
 70
     1
102
RTVSPost2010Prop37
 90
       50
102
RTVSPost2010PropOp37
 70
     1
102
RTVSPost2010Prop38
140
0.0
102
RTVSPost2010PropOp38
 70
     1
102
RTVSPost2010Prop39
140
1.0
102
RTVSPost2010PropOp39
 70
     1
102
RTVSPost2010Prop40
 90
        0
102
RTVSPost2010PropOp40
 70
     1
102
RTVSPost2010Prop41ColorIndex
 90
       18
102
RTVSPost2010Prop41ColorRGB
 90
        0
102
RTVSPost2010PropOp41
 70
     1
102
RTVSPost2010Prop42
 90
       50
102
RTVSPost2010PropOp42
 70
     1
102
RTVSPost2010Prop43
 90
        3
102
RTVSPost2010PropOp43
 70
     1
102
RTVSPost2010Prop44ColorIndex
 90
        5
102
RTVSPost2010Prop44ColorRGB
 90
      255
102
RTVSPost2010PropOp44
 70
     1
102
RTVSPost2010Prop45
280
     0
102
RTVSPost2010PropOp45
 70
     1
102
RTVSPost2010Prop46
 90
       50
102
RTVSPost2010PropOp46
 70
     1
102
RTVSPost2010Prop47
 90
       50
102
RTVSPost2010PropOp47
 70
     1
102
RTVSPost2010Prop48
 90
       50
102
RTVSPost2010PropOp48
 70
     1
102
RTVSPost2010Prop49
280
     0
102
RTVSPost2010PropOp49
 70
     1
102
RTVSPost2010Prop50
 90
       50
102
RTVSPost2010PropOp50
 70
     1
102
RTVSPost2010Prop51ColorIndex
 90
      256
102
RTVSPost2010Prop51ColorRGB
 90
-16777216
102
RTVSPost2010PropOp51
 70
     0
102
RTVSPost2010Prop52
140
1.0
102
RTVSPost2010PropOp52
 70
     0
102
RTVSPost2010Prop53
 90
        2
102
RTVSPost2010PropOp53
 70
     1
102
RTVSPost2010Prop54
  1
strokes_ogs.tif
102
RTVSPost2010PropOp54
 70
     1
102
RTVSPost2010Prop55
280
     0
102
RTVSPost2010PropOp55
 70
     1
102
RTVSPost2010Prop56
140
1.0
102
RTVSPost2010PropOp56
 70
     1
102
RTVSPost2010Prop57
140
1.0
102
RTVSPost2010PropOp57
 70
     1
  0
XRECORD
  5
215
102
{ACAD_REACTORS
330
214
102
}
330
214
100
AcDbXrecord
280
     1
102
RTVSPropertyOp0
 70
     1
102
RTVSPropertyOp1
 70
     1
102
RTVSPropertyOp2
 70
     1
102
RTVSPropertyOp3
 70
     1
102
RTVSPropertyOp4
 70
     1
102
RTVSPropertyOp5
 70
     1
102
RTVSPropertyOp6
 70
     1
102
RTVSPropertyOp7
 70
     1
102
RTVSPropertyOp8
 70
     1
102
RTVSPropertyOp9
 70
     1
102
RTVSPropertyOp10
 70
     1
102
RTVSPropertyOp11
 70
     1
102
RTVSPropertyOp12
 70
     1
102
RTVSPropertyOp13
 70
     1
102
RTVSPropertyOp14
 70
     1
102
RTVSPropertyOp15
 70
     1
102
RTVSPropertyOp16
 70
     1
102
RTVSPropertyOp17
 70
     1
102
RTVSPropertyOp18
 70
     1
102
RTVSPropertyOp19
 70
     1
102
RTVSPropertyOp20
 70
     1
102
RTVSPropertyOp21
 70
     1
102
RTVSPropertyOp22
 70
     1
102
RTVSPropertyOp23
 70
     1
102
RTVSPropertyOp24
 70
     1
102
RTVSPropertyOp25
 70
     1
102
RTVSPropertyOp26
 70
     1
102
RTVSPropertyOp27
 70
     1
102
RTVSPropertyOp28
 70
     1
102
RTVSPropertyOp29
 70
     1
102
RTVSPropertyOp30
 70
     1
102
RTVSPropertyOp31
 70
     1
102
RTVSPropertyOp32
 70
     1
102
RTVSPropertyOp33
 70
     1
102
RTVSPropertyOp34
 70
     1
102
RTVSPropertyOp35
 70
     1
102
RTVSPropertyOp36
 70
     1
102
RTVSPropertyOp37
 70
     1
102
RTVSPropertyOp38
 70
     1
102
RTVSPropertyOp39
 70
     1
102
RTVSPropertyOp40
 70
     1
102
RTVSPropertyOp41
 70
     1
102
RTVSPropertyOp42
 70
     1
102
RTVSPropertyOp43
 70
     1
102
RTVSPropertyOp44
 70
     1
102
RTVSPropertyOp45
 70
     1
102
RTVSPropertyOp46
 70
     1
102
RTVSPropertyOp47
 70
     1
102
RTVSPropertyOp48
 70
     1
102
RTVSPropertyOp49
 70
     1
102
RTVSPropertyOp50
 70
     1
102
RTVSPropertyOp51
 70
     0
102
RTVSPropertyOp52
 70
     0
102
RTVSPropertyOp53
 70
     1
102
RTVSPropertyOp54
 70
     1
102
RTVSPropertyOp55
 70
     1
102
RTVSPropertyOp56
 70
     1
102
RTVSPropertyOp57
 70
     1
102
RTVSPost2010Prop28
280
     0
102
RTVSPost2010PropOp28
 70
     1
102
RTVSPost2010Prop29
280
     1
102
RTVSPost2010PropOp29
 70
     1
102
RTVSPost2010Prop30
280
     1
102
RTVSPost2010PropOp30
 70
     1
102
RTVSPost2010Prop31
280
     0
102
RTVSPost2010PropOp31
 70
     1
102
RTVSPost2010Prop32
280
     0
102
RTVSPost2010PropOp32
 70
     1
102
RTVSPost2010Prop33
280
     0
102
RTVSPost2010PropOp33
 70
     1
102
RTVSPost2010Prop34
280
     0
102
RTVSPost2010PropOp34
 70
     1
102
RTVSPost2010Prop35
280
     0
102
RTVSPost2010PropOp35
 70
     1
102
RTVSPost2010Prop36
280
     0
102
RTVSPost2010PropOp36
 70
     1
102
RTVSPost2010Prop37
 90
       50
102
RTVSPost2010PropOp37
 70
     1
102
RTVSPost2010Prop38
140
0.0
102
RTVSPost2010PropOp38
 70
     1
102
RTVSPost2010Prop39
140
1.0
102
RTVSPost2010PropOp39
 70
     1
102
RTVSPost2010Prop40
 90
        0
102
RTVSPost2010PropOp40
 70
     1
102
RTVSPost2010Prop41ColorIndex
 90
       18
102
RTVSPost2010Prop41ColorRGB
 90
        0
102
RTVSPost2010PropOp41
 70
     1
102
RTVSPost2010Prop42
 90
       50
102
RTVSPost2010PropOp42
 70
     1
102
RTVSPost2010Prop43
 90
        3
102
RTVSPost2010PropOp43
 70
     1
102
RTVSPost2010Prop44ColorIndex
 90
        5
102
RTVSPost2010Prop44ColorRGB
 90
      255
102
RTVSPost2010PropOp44
 70
     1
102
RTVSPost2010Prop45
280
     0
102
RTVSPost2010PropOp45
 70
     1
102
RTVSPost2010Prop46
 90
       50
102
RTVSPost2010PropOp46
 70
     1
102
RTVSPost2010Prop47
 90
       50
102
RTVSPost2010PropOp47
 70
     1
102
RTVSPost2010Prop48
 90
       50
102
RTVSPost2010PropOp48
 70
     1
102
RTVSPost2010Prop49
280
     0
102
RTVSPost2010PropOp49
 70
     1
102
RTVSPost2010Prop50
 90
       50
102
RTVSPost2010PropOp50
 70
     1
102
RTVSPost2010Prop51ColorIndex
 90
      256
102
RTVSPost2010Prop51ColorRGB
 90
-16777216
102
RTVSPost2010PropOp51
 70
     0
102
RTVSPost2010Prop52
140
1.0
102
RTVSPost2010PropOp52
 70
     0
102
RTVSPost2010Prop53
 90
        2
102
RTVSPost2010PropOp53
 70
     1
102
RTVSPost2010Prop54
  1
strokes_ogs.tif
102
RTVSPost2010PropOp54
 70
     1
102
RTVSPost2010Prop55
280
     0
102
RTVSPost2010PropOp55
 70
     1
102
RTVSPost2010Prop56
140
1.0
102
RTVSPost2010PropOp56
 70
     1
102
RTVSPost2010Prop57
140
1.0
102
RTVSPost2010PropOp57
 70
     1
  0
XRECORD
  5
205
102
{ACAD_REACTORS
330
204
102
}
330
204
100
AcDbXrecord
280
     1
102
RTVSPropertyOp0
 70
     1
102
RTVSPropertyOp1
 70
     1
102
RTVSPropertyOp2
 70
     1
102
RTVSPropertyOp3
 70
     1
102
RTVSPropertyOp4
 70
     1
102
RTVSPropertyOp5
 70
     1
102
RTVSPropertyOp6
 70
     1
102
RTVSPropertyOp7
 70
     1
102
RTVSPropertyOp8
 70
     1
102
RTVSPropertyOp9
 70
     1
102
RTVSPropertyOp10
 70
     1
102
RTVSPropertyOp11
 70
     1
102
RTVSPropertyOp12
 70
     1
102
RTVSPropertyOp13
 70
     1
102
RTVSPropertyOp14
 70
     1
102
RTVSPropertyOp15
 70
     1
102
RTVSPropertyOp16
 70
     1
102
RTVSPropertyOp17
 70
     1
102
RTVSPropertyOp18
 70
     1
102
RTVSPropertyOp19
 70
     1
102
RTVSPropertyOp20
 70
     1
102
RTVSPropertyOp21
 70
     1
102
RTVSPropertyOp22
 70
     1
102
RTVSPropertyOp23
 70
     1
102
RTVSPropertyOp24
 70
     1
102
RTVSPropertyOp25
 70
     1
102
RTVSPropertyOp26
 70
     1
102
RTVSPropertyOp27
 70
     1
102
RTVSPropertyOp28
 70
     1
102
RTVSPropertyOp29
 70
     1
102
RTVSPropertyOp30
 70
     1
102
RTVSPropertyOp31
 70
     1
102
RTVSPropertyOp32
 70
     1
102
RTVSPropertyOp33
 70
     1
102
RTVSPropertyOp34
 70
     1
102
RTVSPropertyOp35
 70
     1
102
RTVSPropertyOp36
 70
     1
102
RTVSPropertyOp37
 70
     1
102
RTVSPropertyOp38
 70
     1
102
RTVSPropertyOp39
 70
     1
102
RTVSPropertyOp40
 70
     1
102
RTVSPropertyOp41
 70
     1
102
RTVSPropertyOp42
 70
     1
102
RTVSPropertyOp43
 70
     1
102
RTVSPropertyOp44
 70
     1
102
RTVSPropertyOp45
 70
     1
102
RTVSPropertyOp46
 70
     1
102
RTVSPropertyOp47
 70
     1
102
RTVSPropertyOp48
 70
     1
102
RTVSPropertyOp49
 70
     1
102
RTVSPropertyOp50
 70
     1
102
RTVSPropertyOp51
 70
     0
102
RTVSPropertyOp52
 70
     0
102
RTVSPropertyOp53
 70
     1
102
RTVSPropertyOp54
 70
     1
102
RTVSPropertyOp55
 70
     1
102
RTVSPropertyOp56
 70
     1
102
RTVSPropertyOp57
 70
     1
102
RTVSPost2010Prop28
280
     0
102
RTVSPost2010PropOp28
 70
     1
102
RTVSPost2010Prop29
280
     1
102
RTVSPost2010PropOp29
 70
     1
102
RTVSPost2010Prop30
280
     1
102
RTVSPost2010PropOp30
 70
     1
102
RTVSPost2010Prop31
280
     0
102
RTVSPost2010PropOp31
 70
     1
102
RTVSPost2010Prop32
280
     0
102
RTVSPost2010PropOp32
 70
     1
102
RTVSPost2010Prop33
280
     0
102
RTVSPost2010PropOp33
 70
     1
102
RTVSPost2010Prop34
280
     0
102
RTVSPost2010PropOp34
 70
     1
102
RTVSPost2010Prop35
280
     0
102
RTVSPost2010PropOp35
 70
     1
102
RTVSPost2010Prop36
280
     0
102
RTVSPost2010PropOp36
 70
     1
102
RTVSPost2010Prop37
 90
       50
102
RTVSPost2010PropOp37
 70
     1
102
RTVSPost2010Prop38
140
0.0
102
RTVSPost2010PropOp38
 70
     1
102
RTVSPost2010Prop39
140
1.0
102
RTVSPost2010PropOp39
 70
     1
102
RTVSPost2010Prop40
 90
        0
102
RTVSPost2010PropOp40
 70
     1
102
RTVSPost2010Prop41ColorIndex
 90
       18
102
RTVSPost2010Prop41ColorRGB
 90
        0
102
RTVSPost2010PropOp41
 70
     1
102
RTVSPost2010Prop42
 90
       50
102
RTVSPost2010PropOp42
 70
     1
102
RTVSPost2010Prop43
 90
        3
102
RTVSPost2010PropOp43
 70
     1
102
RTVSPost2010Prop44ColorIndex
 90
        5
102
RTVSPost2010Prop44ColorRGB
 90
      255
102
RTVSPost2010PropOp44
 70
     1
102
RTVSPost2010Prop45
280
     0
102
RTVSPost2010PropOp45
 70
     1
102
RTVSPost2010Prop46
 90
       50
102
RTVSPost2010PropOp46
 70
     1
102
RTVSPost2010Prop47
 90
       50
102
RTVSPost2010PropOp47
 70
     1
102
RTVSPost2010Prop48
 90
       50
102
RTVSPost2010PropOp48
 70
     1
102
RTVSPost2010Prop49
280
     0
102
RTVSPost2010PropOp49
 70
     1
102
RTVSPost2010Prop50
 90
       50
102
RTVSPost2010PropOp50
 70
     1
102
RTVSPost2010Prop51ColorIndex
 90
      256
102
RTVSPost2010Prop51ColorRGB
 90
-16777216
102
RTVSPost2010PropOp51
 70
     0
102
RTVSPost2010Prop52
140
1.0
102
RTVSPost2010PropOp52
 70
     0
102
RTVSPost2010Prop53
 90
        2
102
RTVSPost2010PropOp53
 70
     1
102
RTVSPost2010Prop54
  1
strokes_ogs.tif
102
RTVSPost2010PropOp54
 70
     1
102
RTVSPost2010Prop55
280
     0
102
RTVSPost2010PropOp55
 70
     1
102
RTVSPost2010Prop56
140
1.0
102
RTVSPost2010PropOp56
 70
     1
102
RTVSPost2010Prop57
140
1.0
102
RTVSPost2010PropOp57
 70
     1
  0
XRECORD
  5
1F7
102
{ACAD_REACTORS
330
1F6
102
}
330
1F6
100
AcDbXrecord
280
     1
102
RTVSPropertyOp0
 70
     1
102
RTVSPropertyOp1
 70
     1
102
RTVSPropertyOp2
 70
     1
102
RTVSPropertyOp3
 70
     1
102
RTVSPropertyOp4
 70
     1
102
RTVSPropertyOp5
 70
     1
102
RTVSPropertyOp6
 70
     1
102
RTVSPropertyOp7
 70
     1
102
RTVSPropertyOp8
 70
     1
102
RTVSPropertyOp9
 70
     1
102
RTVSPropertyOp10
 70
     1
102
RTVSPropertyOp11
 70
     1
102
RTVSPropertyOp12
 70
     1
102
RTVSPropertyOp13
 70
     1
102
RTVSPropertyOp14
 70
     1
102
RTVSPropertyOp15
 70
     1
102
RTVSPropertyOp16
 70
     1
102
RTVSPropertyOp17
 70
     1
102
RTVSPropertyOp18
 70
     1
102
RTVSPropertyOp19
 70
     1
102
RTVSPropertyOp20
 70
     1
102
RTVSPropertyOp21
 70
     1
102
RTVSPropertyOp22
 70
     1
102
RTVSPropertyOp23
 70
     1
102
RTVSPropertyOp24
 70
     1
102
RTVSPropertyOp25
 70
     1
102
RTVSPropertyOp26
 70
     1
102
RTVSPropertyOp27
 70
     1
102
RTVSPropertyOp28
 70
     1
102
RTVSPropertyOp29
 70
     1
102
RTVSPropertyOp30
 70
     1
102
RTVSPropertyOp31
 70
     1
102
RTVSPropertyOp32
 70
     1
102
RTVSPropertyOp33
 70
     1
102
RTVSPropertyOp34
 70
     1
102
RTVSPropertyOp35
 70
     1
102
RTVSPropertyOp36
 70
     1
102
RTVSPropertyOp37
 70
     1
102
RTVSPropertyOp38
 70
     1
102
RTVSPropertyOp39
 70
     1
102
RTVSPropertyOp40
 70
     1
102
RTVSPropertyOp41
 70
     1
102
RTVSPropertyOp42
 70
     1
102
RTVSPropertyOp43
 70
     1
102
RTVSPropertyOp44
 70
     1
102
RTVSPropertyOp45
 70
     1
102
RTVSPropertyOp46
 70
     1
102
RTVSPropertyOp47
 70
     1
102
RTVSPropertyOp48
 70
     1
102
RTVSPropertyOp49
 70
     1
102
RTVSPropertyOp50
 70
     1
102
RTVSPropertyOp51
 70
     0
102
RTVSPropertyOp52
 70
     0
102
RTVSPropertyOp53
 70
     1
102
RTVSPropertyOp54
 70
     1
102
RTVSPropertyOp55
 70
     1
102
RTVSPropertyOp56
 70
     1
102
RTVSPropertyOp57
 70
     1
102
RTVSPost2010Prop28
280
     0
102
RTVSPost2010PropOp28
 70
     1
102
RTVSPost2010Prop29
280
     1
102
RTVSPost2010PropOp29
 70
     1
102
RTVSPost2010Prop30
280
     1
102
RTVSPost2010PropOp30
 70
     1
102
RTVSPost2010Prop31
280
     0
102
RTVSPost2010PropOp31
 70
     1
102
RTVSPost2010Prop32
280
     0
102
RTVSPost2010PropOp32
 70
     1
102
RTVSPost2010Prop33
280
     0
102
RTVSPost2010PropOp33
 70
     1
102
RTVSPost2010Prop34
280
     0
102
RTVSPost2010PropOp34
 70
     1
102
RTVSPost2010Prop35
280
     0
102
RTVSPost2010PropOp35
 70
     1
102
RTVSPost2010Prop36
280
     0
102
RTVSPost2010PropOp36
 70
     1
102
RTVSPost2010Prop37
 90
       50
102
RTVSPost2010PropOp37
 70
     1
102
RTVSPost2010Prop38
140
0.0
102
RTVSPost2010PropOp38
 70
     1
102
RTVSPost2010Prop39
140
1.0
102
RTVSPost2010PropOp39
 70
     1
102
RTVSPost2010Prop40
 90
        0
102
RTVSPost2010PropOp40
 70
     1
102
RTVSPost2010Prop41ColorIndex
 90
       18
102
RTVSPost2010Prop41ColorRGB
 90
        0
102
RTVSPost2010PropOp41
 70
     1
102
RTVSPost2010Prop42
 90
       50
102
RTVSPost2010PropOp42
 70
     1
102
RTVSPost2010Prop43
 90
        3
102
RTVSPost2010PropOp43
 70
     1
102
RTVSPost2010Prop44ColorIndex
 90
        5
102
RTVSPost2010Prop44ColorRGB
 90
      255
102
RTVSPost2010PropOp44
 70
     1
102
RTVSPost2010Prop45
280
     0
102
RTVSPost2010PropOp45
 70
     1
102
RTVSPost2010Prop46
 90
       50
102
RTVSPost2010PropOp46
 70
     1
102
RTVSPost2010Prop47
 90
       50
102
RTVSPost2010PropOp47
 70
     1
102
RTVSPost2010Prop48
 90
       50
102
RTVSPost2010PropOp48
 70
     1
102
RTVSPost2010Prop49
280
     0
102
RTVSPost2010PropOp49
 70
     1
102
RTVSPost2010Prop50
 90
       50
102
RTVSPost2010PropOp50
 70
     1
102
RTVSPost2010Prop51ColorIndex
 90
      256
102
RTVSPost2010Prop51ColorRGB
 90
-16777216
102
RTVSPost2010PropOp51
 70
     0
102
RTVSPost2010Prop52
140
1.0
102
RTVSPost2010PropOp52
 70
     0
102
RTVSPost2010Prop53
 90
        2
102
RTVSPost2010PropOp53
 70
     1
102
RTVSPost2010Prop54
  1
strokes_ogs.tif
102
RTVSPost2010PropOp54
 70
     1
102
RTVSPost2010Prop55
280
     0
102
RTVSPost2010PropOp55
 70
     1
102
RTVSPost2010Prop56
140
1.0
102
RTVSPost2010PropOp56
 70
     1
102
RTVSPost2010Prop57
140
1.0
102
RTVSPost2010PropOp57
 70
     1
  0
XRECORD
  5
217
102
{ACAD_REACTORS
330
216
102
}
330
216
100
AcDbXrecord
280
     1
102
RTVSPropertyOp0
 70
     1
102
RTVSPropertyOp1
 70
     1
102
RTVSPropertyOp2
 70
     1
102
RTVSPropertyOp3
 70
     1
102
RTVSPropertyOp4
 70
     1
102
RTVSPropertyOp5
 70
     1
102
RTVSPropertyOp6
 70
     1
102
RTVSPropertyOp7
 70
     1
102
RTVSPropertyOp8
 70
     1
102
RTVSPropertyOp9
 70
     1
102
RTVSPropertyOp10
 70
     1
102
RTVSPropertyOp11
 70
     1
102
RTVSPropertyOp12
 70
     1
102
RTVSPropertyOp13
 70
     1
102
RTVSPropertyOp14
 70
     1
102
RTVSPropertyOp15
 70
     1
102
RTVSPropertyOp16
 70
     1
102
RTVSPropertyOp17
 70
     1
102
RTVSPropertyOp18
 70
     1
102
RTVSPropertyOp19
 70
     1
102
RTVSPropertyOp20
 70
     1
102
RTVSPropertyOp21
 70
     1
102
RTVSPropertyOp22
 70
     1
102
RTVSPropertyOp23
 70
     1
102
RTVSPropertyOp24
 70
     1
102
RTVSPropertyOp25
 70
     1
102
RTVSPropertyOp26
 70
     1
102
RTVSPropertyOp27
 70
     1
102
RTVSPropertyOp28
 70
     1
102
RTVSPropertyOp29
 70
     1
102
RTVSPropertyOp30
 70
     1
102
RTVSPropertyOp31
 70
     1
102
RTVSPropertyOp32
 70
     1
102
RTVSPropertyOp33
 70
     1
102
RTVSPropertyOp34
 70
     1
102
RTVSPropertyOp35
 70
     1
102
RTVSPropertyOp36
 70
     1
102
RTVSPropertyOp37
 70
     1
102
RTVSPropertyOp38
 70
     1
102
RTVSPropertyOp39
 70
     1
102
RTVSPropertyOp40
 70
     1
102
RTVSPropertyOp41
 70
     1
102
RTVSPropertyOp42
 70
     1
102
RTVSPropertyOp43
 70
     1
102
RTVSPropertyOp44
 70
     1
102
RTVSPropertyOp45
 70
     1
102
RTVSPropertyOp46
 70
     1
102
RTVSPropertyOp47
 70
     1
102
RTVSPropertyOp48
 70
     1
102
RTVSPropertyOp49
 70
     1
102
RTVSPropertyOp50
 70
     1
102
RTVSPropertyOp51
 70
     0
102
RTVSPropertyOp52
 70
     0
102
RTVSPropertyOp53
 70
     1
102
RTVSPropertyOp54
 70
     1
102
RTVSPropertyOp55
 70
     1
102
RTVSPropertyOp56
 70
     1
102
RTVSPropertyOp57
 70
     1
102
RTVSPost2010Prop28
280
     0
102
RTVSPost2010PropOp28
 70
     1
102
RTVSPost2010Prop29
280
     1
102
RTVSPost2010PropOp29
 70
     1
102
RTVSPost2010Prop30
280
     1
102
RTVSPost2010PropOp30
 70
     1
102
RTVSPost2010Prop31
280
     0
102
RTVSPost2010PropOp31
 70
     1
102
RTVSPost2010Prop32
280
     0
102
RTVSPost2010PropOp32
 70
     1
102
RTVSPost2010Prop33
280
     0
102
RTVSPost2010PropOp33
 70
     1
102
RTVSPost2010Prop34
280
     0
102
RTVSPost2010PropOp34
 70
     1
102
RTVSPost2010Prop35
280
     0
102
RTVSPost2010PropOp35
 70
     1
102
RTVSPost2010Prop36
280
     0
102
RTVSPost2010PropOp36
 70
     1
102
RTVSPost2010Prop37
 90
       50
102
RTVSPost2010PropOp37
 70
     1
102
RTVSPost2010Prop38
140
0.0
102
RTVSPost2010PropOp38
 70
     1
102
RTVSPost2010Prop39
140
1.0
102
RTVSPost2010PropOp39
 70
     1
102
RTVSPost2010Prop40
 90
        0
102
RTVSPost2010PropOp40
 70
     1
102
RTVSPost2010Prop41ColorIndex
 90
       18
102
RTVSPost2010Prop41ColorRGB
 90
        0
102
RTVSPost2010PropOp41
 70
     1
102
RTVSPost2010Prop42
 90
       50
102
RTVSPost2010PropOp42
 70
     1
102
RTVSPost2010Prop43
 90
        3
102
RTVSPost2010PropOp43
 70
     1
102
RTVSPost2010Prop44ColorIndex
 90
        5
102
RTVSPost2010Prop44ColorRGB
 90
      255
102
RTVSPost2010PropOp44
 70
     1
102
RTVSPost2010Prop45
280
     0
102
RTVSPost2010PropOp45
 70
     1
102
RTVSPost2010Prop46
 90
       50
102
RTVSPost2010PropOp46
 70
     1
102
RTVSPost2010Prop47
 90
       50
102
RTVSPost2010PropOp47
 70
     1
102
RTVSPost2010Prop48
 90
       50
102
RTVSPost2010PropOp48
 70
     1
102
RTVSPost2010Prop49
280
     0
102
RTVSPost2010PropOp49
 70
     1
102
RTVSPost2010Prop50
 90
       50
102
RTVSPost2010PropOp50
 70
     1
102
RTVSPost2010Prop51ColorIndex
 90
      256
102
RTVSPost2010Prop51ColorRGB
 90
-16777216
102
RTVSPost2010PropOp51
 70
     0
102
RTVSPost2010Prop52
140
1.0
102
RTVSPost2010PropOp52
 70
     0
102
RTVSPost2010Prop53
 90
        2
102
RTVSPost2010PropOp53
 70
     1
102
RTVSPost2010Prop54
  1
strokes_ogs.tif
102
RTVSPost2010PropOp54
 70
     1
102
RTVSPost2010Prop55
280
     0
102
RTVSPost2010PropOp55
 70
     1
102
RTVSPost2010Prop56
140
1.0
102
RTVSPost2010PropOp56
 70
     1
102
RTVSPost2010Prop57
140
1.0
102
RTVSPost2010PropOp57
 70
     1
  0
ENDSEC
  0
EOF
