  0
SECTION
  2
HEADER
  9
$ACADVER
  1
AC1015
  9
$ACADMAINTVER
 70
     6
  9
$DWGCODEPAGE
  3
ANSI_1252
  9
$INSBASE
 10
0.0
 20
0.0
 30
0.0
  9
$EXTMIN
 10
0.0
 20
0.0
 30
0.0
  9
$EXTMAX
 10
1682.0
 20
2378.0
 30
0.0
  9
$LIMMIN
 10
0.0
 20
0.0
  9
$LIMMAX
 10
1682.0
 20
2378.0
  9
$ORTHOMODE
 70
     0
  9
$REGENMODE
 70
     1
  9
$FILLMODE
 70
     1
  9
$QTEXTMODE
 70
     0
  9
$MIRRTEXT
 70
     1
  9
$LTSCALE
 40
1.0
  9
$ATTMODE
 70
     1
  9
$TEXTSIZE
 40
2.5
  9
$TRACEWID
 40
1.0
  9
$TEXTSTYLE
  7
Standard
  9
$CLAYER
  8
0
  9
$CELTYPE
  6
ByLayer
  9
$CECOLOR
 62
   256
  9
$CELTSCALE
 40
1.0
  9
$DISPSILH
 70
     0
  9
$DIMSCALE
 40
1.0
  9
$DIMASZ
 40
2.5
  9
$DIMEXO
 40
0.625
  9
$DIMDLI
 40
3.75
  9
$DIMRND
 40
0.0
  9
$DIMDLE
 40
0.0
  9
$DIMEXE
 40
1.25
  9
$DIMTP
 40
0.0
  9
$DIMTM
 40
0.0
  9
$DIMTXT
 40
2.5
  9
$DIMCEN
 40
2.5
  9
$DIMTSZ
 40
0.0
  9
$DIMTOL
 70
     0
  9
$DIMLIM
 70
     0
  9
$DIMTIH
 70
     0
  9
$DIMTOH
 70
     0
  9
$DIMSE1
 70
     0
  9
$DIMSE2
 70
     0
  9
$DIMTAD
 70
     1
  9
$DIMZIN
 70
     8
  9
$DIMBLK
  1

  9
$DIMASO
 70
     1
  9
$DIMSHO
 70
     1
  9
$DIMPOST
  1

  9
$DIMAPOST
  1

  9
$DIMALT
 70
     0
  9
$DIMALTD
 70
     3
  9
$DIMALTF
 40
0.0393700787
  9
$DIMLFAC
 40
1.0
  9
$DIMTOFL
 70
     1
  9
$DIMTVP
 40
0.0
  9
$DIMTIX
 70
     0
  9
$DIMSOXD
 70
     0
  9
$DIMSAH
 70
     0
  9
$DIMBLK1
  1

  9
$DIMBLK2
  1

  9
$DIMSTYLE
  2
ISO-25
  9
$DIMCLRD
 70
     0
  9
$DIMCLRE
 70
     0
  9
$DIMCLRT
 70
     0
  9
$DIMTFAC
 40
1.0
  9
$DIMGAP
 40
0.625
  9
$DIMJUST
 70
     0
  9
$DIMSD1
 70
     0
  9
$DIMSD2
 70
     0
  9
$DIMTOLJ
 70
     0
  9
$DIMTZIN
 70
     8
  9
$DIMALTZ
 70
     0
  9
$DIMALTTZ
 70
     0
  9
$DIMUPT
 70
     0
  9
$DIMDEC
 70
     2
  9
$DIMTDEC
 70
     2
  9
$DIMALTU
 70
     2
  9
$DIMALTTD
 70
     3
  9
$DIMTXSTY
  7
Standard
  9
$DIMAUNIT
 70
     0
  9
$DIMADEC
 70
     0
  9
$DIMALTRND
 40
0.0
  9
$DIMAZIN
 70
     0
  9
$DIMDSEP
 70
    44
  9
$DIMATFIT
 70
     3
  9
$DIMFRAC
 70
     0
  9
$DIMLDRBLK
  1

  9
$DIMLUNIT
 70
     2
  9
$DIMLWD
 70
    -2
  9
$DIMLWE
 70
    -2
  9
$DIMTMOVE
 70
     0
  9
$LUNITS
 70
     2
  9
$LUPREC
 70
     4
  9
$SKETCHINC
 40
1.0
  9
$FILLETRAD
 40
10.0
  9
$AUNITS
 70
     0
  9
$AUPREC
 70
     0
  9
$MENU
  1
.
  9
$ELEVATION
 40
0.0
  9
$PELEVATION
 40
0.0
  9
$THICKNESS
 40
0.0
  9
$LIMCHECK
 70
     0
  9
$CHAMFERA
 40
10.0
  9
$CHAMFERB
 40
10.0
  9
$CHAMFERC
 40
20.0
  9
$CHAMFERD
 40
0.0
  9
$SKPOLY
 70
     0
  9
$TDCREATE
 40
2455454.612600833
  9
$TDUCREATE
 40
2455454.5292675
  9
$TDUPDATE
 40
2455454.612600845
  9
$TDUUPDATE
 40
2455454.529267512
  9
$TDINDWG
 40
0.0000000116
  9
$TDUSRTIMER
 40
0.0000000116
  9
$USRTIMER
 70
     1
  9
$ANGBASE
 50
0.0
  9
$ANGDIR
 70
     0
  9
$PDMODE
 70
     0
  9
$PDSIZE
 40
0.0
  9
$PLINEWID
 40
0.0
  9
$SPLFRAME
 70
     0
  9
$SPLINETYPE
 70
     6
  9
$SPLINESEGS
 70
     8
  9
$HANDSEED
  5
3C6
  9
$SURFTAB1
 70
     6
  9
$SURFTAB2
 70
     6
  9
$SURFTYPE
 70
     6
  9
$SURFU
 70
     6
  9
$SURFV
 70
     6
  9
$UCSBASE
  2

  9
$UCSNAME
  2

  9
$UCSORG
 10
0.0
 20
0.0
 30
0.0
  9
$UCSXDIR
 10
1.0
 20
0.0
 30
0.0
  9
$UCSYDIR
 10
0.0
 20
1.0
 30
0.0
  9
$UCSORTHOREF
  2

  9
$UCSORTHOVIEW
 70
     0
  9
$UCSORGTOP
 10
0.0
 20
0.0
 30
0.0
  9
$UCSORGBOTTOM
 10
0.0
 20
0.0
 30
0.0
  9
$UCSORGLEFT
 10
0.0
 20
0.0
 30
0.0
  9
$UCSORGRIGHT
 10
0.0
 20
0.0
 30
0.0
  9
$UCSORGFRONT
 10
0.0
 20
0.0
 30
0.0
  9
$UCSORGBACK
 10
0.0
 20
0.0
 30
0.0
  9
$PUCSBASE
  2

  9
$PUCSNAME
  2

  9
$PUCSORG
 10
0.0
 20
0.0
 30
0.0
  9
$PUCSXDIR
 10
1.0
 20
0.0
 30
0.0
  9
$PUCSYDIR
 10
0.0
 20
1.0
 30
0.0
  9
$PUCSORTHOREF
  2

  9
$PUCSORTHOVIEW
 70
     0
  9
$PUCSORGTOP
 10
0.0
 20
0.0
 30
0.0
  9
$PUCSORGBOTTOM
 10
0.0
 20
0.0
 30
0.0
  9
$PUCSORGLEFT
 10
0.0
 20
0.0
 30
0.0
  9
$PUCSORGRIGHT
 10
0.0
 20
0.0
 30
0.0
  9
$PUCSORGFRONT
 10
0.0
 20
0.0
 30
0.0
  9
$PUCSORGBACK
 10
0.0
 20
0.0
 30
0.0
  9
$USERI1
 70
     0
  9
$USERI2
 70
     0
  9
$USERI3
 70
     0
  9
$USERI4
 70
     0
  9
$USERI5
 70
     0
  9
$USERR1
 40
0.0
  9
$USERR2
 40
0.0
  9
$USERR3
 40
0.0
  9
$USERR4
 40
0.0
  9
$USERR5
 40
0.0
  9
$WORLDVIEW
 70
     1
  9
$SHADEDGE
 70
     3
  9
$SHADEDIF
 70
    70
  9
$TILEMODE
 70
     1
  9
$MAXACTVP
 70
    64
  9
$PINSBASE
 10
0.0
 20
0.0
 30
0.0
  9
$PLIMCHECK
 70
     0
  9
$PEXTMIN
 10
0.0
 20
0.0
 30
0.0
  9
$PEXTMAX
 10
1682.0
 20
2378.0
 30
0.0
  9
$PLIMMIN
 10
0.0
 20
0.0
  9
$PLIMMAX
 10
1682.0
 20
2378.0
  9
$UNITMODE
 70
     0
  9
$VISRETAIN
 70
     1
  9
$PLINEGEN
 70
     0
  9
$PSLTSCALE
 70
     1
  9
$TREEDEPTH
 70
  3020
  9
$CMLSTYLE
  2
Standard
  9
$CMLJUST
 70
     0
  9
$CMLSCALE
 40
20.0
  9
$PROXYGRAPHICS
 70
     1
  9
$MEASUREMENT
 70
     1
  9
$CELWEIGHT
370
    -1
  9
$ENDCAPS
280
     0
  9
$JOINSTYLE
280
     0
  9
$LWDISPLAY
290
     0
  9
$INSUNITS
 70
     4
  9
$HYPERLINKBASE
  1

  9
$STYLESHEET
  1

  9
$XEDIT
290
     1
  9
$CEPSNTYPE
380
     0
  9
$PSTYLEMODE
290
     1
  9
$FINGERPRINTGUID
  2
{FB2503C3-CAA7-43AB-986F-7A2309020761}
  9
$VERSIONGUID
  2
{FAEB1C32-E019-11D5-929B-00C0DF256EC4}
  9
$EXTNAMES
290
     1
  9
$PSVPSCALE
 40
0.0
  9
$OLESTARTUP
290
     0
  0
ENDSEC
  0
SECTION
  2
CLASSES
  0
CLASS
  1
ACDBDICTIONARYWDFLT
  2
AcDbDictionaryWithDefault
  3
ObjectDBX Classes
 90
        0
280
     0
281
     0
  0
CLASS
  1
VISUALSTYLE
  2
AcDbVisualStyle
  3
ObjectDBX Classes
 90
     4095
280
     0
281
     0
  0
CLASS
  1
SCALE
  2
AcDbScale
  3
ObjectDBX Classes
 90
     1153
280
     0
281
     0
  0
CLASS
  1
DICTIONARYVAR
  2
AcDbDictionaryVar
  3
ObjectDBX Classes
 90
        0
280
     0
281
     0
  0
CLASS
  1
ACDBPLACEHOLDER
  2
AcDbPlaceHolder
  3
ObjectDBX Classes
 90
        0
280
     0
281
     0
  0
CLASS
  1
LAYOUT
  2
AcDbLayout
  3
ObjectDBX Classes
 90
        0
280
     0
281
     0
  0
ENDSEC
  0
SECTION
  2
TABLES
  0
TABLE
  2
VPORT
  5
8
330
0
100
AcDbSymbolTable
 70
     1
  0
VPORT
  5
29
330
8
100
AcDbSymbolTableRecord
100
AcDbViewportTableRecord
  2
*Active
 70
     0
 10
0.0
 20
0.0
 11
1.0
 21
1.0
 12
344.1869158879
 22
148.5
 13
0.0
 23
0.0
 14
10.0
 24
10.0
 15
10.0
 25
10.0
 16
0.0
 26
0.0
 36
1.0
 17
0.0
 27
0.0
 37
0.0
 40
297.0
 41
1.9729729729
 42
50.0
 43
0.0
 44
0.0
 50
0.0
 51
0.0
 71
     0
 72
   100
 73
     1
 74
     3
 75
     0
 76
     0
 77
     0
 78
     0
281
     0
 65
     1
110
0.0
120
0.0
130
0.0
111
1.0
121
0.0
131
0.0
112
0.0
122
1.0
132
0.0
 79
     0
146
0.0
  0
ENDTAB
  0
TABLE
  2
LTYPE
  5
5
330
0
100
AcDbSymbolTable
 70
     2
  0
LTYPE
  5
14
330
5
100
AcDbSymbolTableRecord
100
AcDbLinetypeTableRecord
  2
ByBlock
 70
     0
  3

 72
    65
 73
     0
 40
0.0
  0
LTYPE
  5
15
330
5
100
AcDbSymbolTableRecord
100
AcDbLinetypeTableRecord
  2
ByLayer
 70
     0
  3

 72
    65
 73
     0
 40
0.0
  0
LTYPE
  5
16
330
5
100
AcDbSymbolTableRecord
100
AcDbLinetypeTableRecord
  2
Continuous
 70
     0
  3
Solid line
 72
    65
 73
     0
 40
0.0
  0
LTYPE
  5
60
330
5
100
AcDbSymbolTableRecord
100
AcDbLinetypeTableRecord
  2
CENTER2
 70
     0
  3
Center (.5x) ___ _ ___ _ ___ _ ___ _ ___ _ ___
 72
    65
 73
     4
 40
28.575
 49
19.05
 74
     4
 75
     0
340
0
 46
0.0
 50
0.0
 44
0.0
 45
0.0
 49
-3.175
 74
     4
 75
     0
340
0
 46
0.0
 50
0.0
 44
0.0
 45
0.0
 49
3.175
 74
     4
 75
     0
340
0
 46
0.0
 50
0.0
 44
0.0
 45
0.0
 49
-3.175
 74
     4
 75
     0
340
0
 46
0.0
 50
0.0
 44
0.0
 45
0.0
  0
ENDTAB
  0
TABLE
  2
LAYER
  5
2
330
0
100
AcDbSymbolTable
 70
    12
  0
LAYER
  5
10
330
2
100
AcDbSymbolTableRecord
100
AcDbLayerTableRecord
  2
0
 70
     0
 62
     7
  6
Continuous
370
    -3
390
F
  0
LAYER
  5
5D
330
2
100
AcDbSymbolTableRecord
100
AcDbLayerTableRecord
  2
Default
 70
     0
 62
     7
  6
Continuous
370
    -3
390
F
  0
LAYER
  5
77
330
2
100
AcDbSymbolTableRecord
100
AcDbLayerTableRecord
  2
$DDT_AUDIT_GENERATED_(77)
 70
     0
 62
     7
  6
Continuous
370
    -3
390
F
  0
LAYER
  5
7D
330
2
100
AcDbSymbolTableRecord
100
AcDbLayerTableRecord
  2
$DDT_AUDIT_GENERATED_(7D)
 70
     0
 62
     7
  6
Continuous
370
    -3
390
F
  0
LAYER
  5
83
330
2
100
AcDbSymbolTableRecord
100
AcDbLayerTableRecord
  2
$DDT_AUDIT_GENERATED_(83)
 70
     0
 62
     7
  6
Continuous
370
    -3
390
F
  0
LAYER
  5
A8
330
2
100
AcDbSymbolTableRecord
100
AcDbLayerTableRecord
  2
$DDT_AUDIT_GENERATED_(A8)
 70
     0
 62
     7
  6
Continuous
370
    -3
390
F
  0
LAYER
  5
B2
330
2
100
AcDbSymbolTableRecord
100
AcDbLayerTableRecord
  2
$DDT_AUDIT_GENERATED_(B2)
 70
     0
 62
     7
  6
Continuous
370
    -3
390
F
  0
LAYER
  5
BB
330
2
100
AcDbSymbolTableRecord
100
AcDbLayerTableRecord
  2
$DDT_AUDIT_GENERATED_(BB)
 70
     0
 62
     7
  6
Continuous
370
    -3
390
F
  0
LAYER
  5
CC
330
2
100
AcDbSymbolTableRecord
100
AcDbLayerTableRecord
  2
$DDT_AUDIT_GENERATED_(CC)
 70
     0
 62
     7
  6
Continuous
370
    -3
390
F
  0
LAYER
  5
D9
330
2
100
AcDbSymbolTableRecord
100
AcDbLayerTableRecord
  2
$DDT_AUDIT_GENERATED_(D9)
 70
     0
 62
     7
  6
Continuous
370
    -3
390
F
  0
LAYER
  5
2DE
330
2
100
AcDbSymbolTableRecord
100
AcDbLayerTableRecord
  2
$DDT_AUDIT_GENERATED_(2DE)
 70
     0
 62
     7
  6
Continuous
370
    -3
390
F
  0
LAYER
  5
346
330
2
100
AcDbSymbolTableRecord
100
AcDbLayerTableRecord
  2
$DDT_AUDIT_GENERATED_(346)
 70
     0
 62
     7
  6
Continuous
370
    -3
390
F
  0
ENDTAB
  0
TABLE
  2
STYLE
  5
3
330
0
100
AcDbSymbolTable
 70
     2
  0
STYLE
  5
11
330
3
100
AcDbSymbolTableRecord
100
AcDbTextStyleTableRecord
  2
Standard
 70
     0
 40
0.0
 41
1.0
 50
0.0
 71
     0
 42
2.5
  3
txt
  4

  0
STYLE
  5
3B5
330
3
100
AcDbSymbolTableRecord
100
AcDbTextStyleTableRecord
  2
SEACAD_seiso_ttf
 70
     0
 40
0.0
 41
1.0
 50
0.0
 71
     0
 42
0.2
  3
seiso.ttf
  4

  0
ENDTAB
  0
TABLE
  2
VIEW
  5
6
330
0
100
AcDbSymbolTable
 70
     0
  0
ENDTAB
  0
TABLE
  2
UCS
  5
7
330
0
100
AcDbSymbolTable
 70
     0
  0
ENDTAB
  0
TABLE
  2
APPID
  5
9
330
0
100
AcDbSymbolTable
 70
     1
  0
APPID
  5
12
330
9
100
AcDbSymbolTableRecord
100
AcDbRegAppTableRecord
  2
ACAD
 70
     0
  0
ENDTAB
  0
TABLE
  2
DIMSTYLE
  5
A
330
0
100
AcDbSymbolTable
 70
     1
100
AcDbDimStyleTable
  0
DIMSTYLE
105
27
330
A
100
AcDbSymbolTableRecord
100
AcDbDimStyleTableRecord
  2
ISO-25
 70
     0
 41
2.5
 42
0.625
 43
3.75
 44
1.25
 73
     0
 74
     0
 77
     1
 78
     8
140
2.5
141
2.5
143
0.0393700787
147
0.625
171
     3
172
     1
271
     2
272
     2
274
     3
278
    44
283
     0
284
     8
340
11
  0
ENDTAB
  0
TABLE
  2
BLOCK_RECORD
  5
1
330
0
100
AcDbSymbolTable
 70
     7
  0
BLOCK_RECORD
  5
1F
330
1
100
AcDbSymbolTableRecord
100
AcDbBlockTableRecord
  2
*Model_Space
340
22
  0
BLOCK_RECORD
  5
1B
330
1
100
AcDbSymbolTableRecord
100
AcDbBlockTableRecord
  2
*Paper_Space
340
1E
  0
BLOCK_RECORD
  5
5E
330
1
100
AcDbSymbolTableRecord
100
AcDbBlockTableRecord
  2
SEANNOT_GROUP
340
0
102
{BLKREFS
331
5F
102
}
  0
BLOCK_RECORD
  5
65
330
1
100
AcDbSymbolTableRecord
100
AcDbBlockTableRecord
  2
SEANNOT_GROUP1
340
0
102
{BLKREFS
331
66
102
}
  0
BLOCK_RECORD
  5
6B
330
1
100
AcDbSymbolTableRecord
100
AcDbBlockTableRecord
  2
SEANNOT_GROUP2
340
0
102
{BLKREFS
331
6C
102
}
  0
BLOCK_RECORD
  5
75
330
1
100
AcDbSymbolTableRecord
100
AcDbBlockTableRecord
  2
SE
340
0
102
{BLKREFS
331
76
102
}
  0
BLOCK_RECORD
  5
30C
330
1
100
AcDbSymbolTableRecord
100
AcDbBlockTableRecord
  2
SE1
340
0
102
{BLKREFS
331
30D
102
}
  0
BLOCK_RECORD
  5
37E
330
1
100
AcDbSymbolTableRecord
100
AcDbBlockTableRecord
  2
SE2
340
0
102
{BLKREFS
331
37F
102
}
  0
ENDTAB
  0
ENDSEC
  0
SECTION
  2
BLOCKS
  0
BLOCK
  5
20
330
1F
100
AcDbEntity
  8
0
100
AcDbBlockBegin
  2
*Model_Space
 70
     0
 10
0.0
 20
0.0
 30
0.0
  3
*Model_Space
  1

  0
ENDBLK
  5
21
330
1F
100
AcDbEntity
  8
0
100
AcDbBlockEnd
  0
BLOCK
  5
1C
330
1B
100
AcDbEntity
 67
     1
  8
0
100
AcDbBlockBegin
  2
*Paper_Space
 70
     0
 10
0.0
 20
0.0
 30
0.0
  3
*Paper_Space
  1

  0
ENDBLK
  5
1D
330
1B
100
AcDbEntity
 67
     1
  8
0
100
AcDbBlockEnd
  0
BLOCK
  5
63
330
5E
100
AcDbEntity
  8
0
100
AcDbBlockBegin
  2
SEANNOT_GROUP
 70
     0
 10
0.0
 20
0.0
 30
0.0
  3
SEANNOT_GROUP
  1

  0
LINE
  5
61
330
5E
100
AcDbEntity
  8
Default
  6
CENTER2
 62
     7
100
AcDbLine
 10
127.0710575655
 20
513.9261388355
 30
0.0
 11
87.0710584596
 21
513.9261388355
 31
0.0
  0
LINE
  5
62
330
5E
100
AcDbEntity
  8
Default
  6
CENTER2
 62
     7
100
AcDbLine
 10
107.0710580126
 20
533.9261383884
 30
0.0
 11
107.0710580126
 21
493.9261392825
 31
0.0
  0
ENDBLK
  5
64
330
5E
100
AcDbEntity
  8
0
100
AcDbBlockEnd
  0
BLOCK
  5
69
330
65
100
AcDbEntity
  8
0
100
AcDbBlockBegin
  2
SEANNOT_GROUP1
 70
     0
 10
0.0
 20
0.0
 30
0.0
  3
SEANNOT_GROUP1
  1

  0
LINE
  5
67
330
65
100
AcDbEntity
  8
Default
  6
CENTER2
 62
     7
100
AcDbLine
 10
253.0042629835
 20
513.9261388355
 30
0.0
 11
213.0042638776
 21
513.9261388355
 31
0.0
  0
LINE
  5
68
330
65
100
AcDbEntity
  8
Default
  6
CENTER2
 62
     7
100
AcDbLine
 10
233.0042634305
 20
533.9261383884
 30
0.0
 11
233.0042634305
 21
493.9261392825
 31
0.0
  0
ENDBLK
  5
6A
330
65
100
AcDbEntity
  8
0
100
AcDbBlockEnd
  0
BLOCK
  5
73
330
6B
100
AcDbEntity
  8
0
100
AcDbBlockBegin
  2
SEANNOT_GROUP2
 70
     0
 10
0.0
 20
0.0
 30
0.0
  3
SEANNOT_GROUP2
  1

  0
LINE
  5
6D
330
6B
100
AcDbEntity
  8
Default
  6
CENTER2
 62
     7
100
AcDbLine
 10
127.0710575655
 20
345.3837526473
 30
0.0
 11
87.0710584596
 21
345.3837526473
 31
0.0
  0
LINE
  5
6E
330
6B
100
AcDbEntity
  8
Default
  6
CENTER2
 62
     7
100
AcDbLine
 10
107.0710580126
 20
365.3837522003
 30
0.0
 11
107.0710580126
 21
325.3837530943
 31
0.0
  0
LINE
  5
6F
330
6B
100
AcDbEntity
  8
Default
  6
CENTER2
 62
     7
100
AcDbLine
 10
132.0710574538
 20
345.3837526473
 30
0.0
 11
139.5710580126
 21
345.3837526473
 31
0.0
  0
LINE
  5
70
330
6B
100
AcDbEntity
  8
Default
  6
CENTER2
 62
     7
100
AcDbLine
 10
107.0710580126
 20
370.3837520885
 30
0.0
 11
107.0710580126
 21
377.8837526473
 31
0.0
  0
LINE
  5
71
330
6B
100
AcDbEntity
  8
Default
  6
CENTER2
 62
     7
100
AcDbLine
 10
82.0710585714
 20
345.3837526473
 30
0.0
 11
74.5710580126
 21
345.3837526473
 31
0.0
  0
LINE
  5
72
330
6B
100
AcDbEntity
  8
Default
  6
CENTER2
 62
     7
100
AcDbLine
 10
107.0710580126
 20
320.3837532061
 30
0.0
 11
107.0710580126
 21
312.8837526473
 31
0.0
  0
ENDBLK
  5
74
330
6B
100
AcDbEntity
  8
0
100
AcDbBlockEnd
  0
BLOCK
  5
30A
330
75
100
AcDbEntity
  8
0
100
AcDbBlockBegin
  2
SE
 70
     0
 10
0.0
 20
0.0
 30
0.0
  3
SE
  1

  0
LINE
  5
78
330
75
100
AcDbEntity
  8
$DDT_AUDIT_GENERATED_(77)
  6
Continuous
 62
     7
100
AcDbLine
 10
133.0710580126
 20
513.9261388355
 30
0.0
 11
81.0710580126
 21
513.9261388355
 31
0.0
  0
LINE
  5
79
330
75
100
AcDbEntity
  8
$DDT_AUDIT_GENERATED_(77)
  6
Continuous
 62
     7
100
AcDbLine
 10
80.5710580126
 20
514.4761388355
 30
0.0
 11
80.5710580126
 21
514.4261388355
 31
0.0
  0
LINE
  5
7A
330
75
100
AcDbEntity
  8
$DDT_AUDIT_GENERATED_(77)
  6
Continuous
 62
     7
100
AcDbLine
 10
133.5710580126
 20
514.4261388355
 30
0.0
 11
133.5710580126
 21
514.4761388355
 31
0.0
  0
ARC
  5
7B
330
75
100
AcDbEntity
  8
$DDT_AUDIT_GENERATED_(77)
  6
Continuous
 62
     7
100
AcDbCircle
 10
81.0710580126
 20
514.4261388355
 30
0.0
 40
0.5000000000000004
100
AcDbArc
 50
180.0
 51
270.0
  0
ARC
  5
7C
330
75
100
AcDbEntity
  8
$DDT_AUDIT_GENERATED_(77)
  6
Continuous
 62
     7
100
AcDbCircle
 10
133.0710580126
 20
514.4261388355
 30
0.0
 40
0.5000000000000004
100
AcDbArc
 50
270.0
 51
0.0
  0
LINE
  5
7E
330
75
100
AcDbEntity
  8
$DDT_AUDIT_GENERATED_(7D)
  6
Continuous
 62
     7
100
AcDbLine
 10
136.0710580126
 20
582.4761388355
 30
0.0
 11
122.5850457628
 21
582.4761388355
 31
0.0
  0
LINE
  5
7F
330
75
100
AcDbEntity
  8
$DDT_AUDIT_GENERATED_(7D)
  6
Continuous
 62
     7
100
AcDbLine
 10
91.559460068
 20
582.4761388355
 30
0.0
 11
78.0710580126
 21
582.4761388355
 31
0.0
  0
LINE
  5
80
330
75
100
AcDbEntity
  8
$DDT_AUDIT_GENERATED_(7D)
  6
Continuous
 62
     7
100
AcDbLine
 10
136.0710580126
 20
514.4761388355
 30
0.0
 11
78.0710580126
 21
514.4761388355
 31
0.0
  0
LINE
  5
81
330
75
100
AcDbEntity
  8
$DDT_AUDIT_GENERATED_(7D)
  6
Continuous
 62
     7
100
AcDbLine
 10
136.0710580126
 20
514.4761388355
 30
0.0
 11
136.0710580126
 21
582.4761388355
 31
0.0
  0
LINE
  5
82
330
75
100
AcDbEntity
  8
$DDT_AUDIT_GENERATED_(7D)
  6
Continuous
 62
     7
100
AcDbLine
 10
78.0710580126
 20
582.4761388355
 30
0.0
 11
78.0710580126
 21
514.4761388355
 31
0.0
  0
ARC
  5
84
330
75
100
AcDbEntity
  8
$DDT_AUDIT_GENERATED_(83)
  6
Continuous
 62
     7
100
AcDbCircle
 10
93.2039068581
 20
652.9576824122
 30
0.0
 40
1.630587739464873
100
AcDbArc
 50
170.1499892355
 51
179.7995842031
  0
SPLINE
  5
85
330
75
100
AcDbEntity
  8
$DDT_AUDIT_GENERATED_(83)
  6
Continuous
 62
     7
100
AcDbSpline
210
0.0
220
0.0
230
1.0
 70
     8
 71
     3
 72
    19
 73
    15
 74
     0
 42
0.0000000006328822
 43
0.0000000001
 40
0.0
 40
0.0
 40
0.0
 40
0.0
 40
0.045542008080176
 40
0.0933227433515691
 40
0.143344758418716
 40
0.1956102517044641
 40
0.2501211243317095
 40
0.3540355455232832
 40
0.500051597776871
 40
0.6455231901856373
 40
0.7499826914260913
 40
0.8394645217682852
 40
0.9228006585734482
 40
1.0
 40
1.0
 40
1.0
 40
1.0
 10
107.0711216222266
 20
654.2439423670261
 30
0.0
 10
106.7016884614723
 20
654.2438838883464
 30
0.0
 10
105.9446617623834
 20
654.2437640823478
 30
0.0
 10
104.7879981386806
 20
654.2413674802842
 30
0.0
 10
103.590862373468
 20
654.2354506837491
 30
0.0
 10
102.3629481888133
 20
654.2245454218372
 30
0.0
 10
100.756805118528
 20
654.2020245091262
 30
0.0
 10
98.5520685970215
 20
654.1534628367073
 30
0.0
 10
96.01922161651231
 20
654.036151589921
 30
0.0
 10
94.00735769154569
 20
653.8501098574984
 30
0.0
 10
92.74344556995328
 20
653.6394839995119
 30
0.0
 10
92.03312757049729
 20
653.4265466229639
 30
0.0
 10
91.64134988447876
 20
653.2069690556441
 30
0.0
 10
91.59541740336299
 20
653.0424844717176
 30
0.0
 10
91.5733290940916
 20
652.9633860587451
 30
0.0
  0
SPLINE
  5
86
330
75
100
AcDbEntity
  8
$DDT_AUDIT_GENERATED_(83)
  6
Continuous
 62
     7
100
AcDbSpline
210
0.0
220
0.0
230
1.0
 70
     8
 71
     3
 72
     8
 73
     4
 74
     0
 42
0.0000000004719943
 43
0.0000000001
 40
0.8444957373709111
 40
0.8444957373709111
 40
0.8444957373709111
 40
0.8444957373709111
 40
0.8962269032427987
 40
0.8962269032427987
 40
0.8962269032427987
 40
0.8962269032427987
 10
103.747705820688
 20
656.3627004987792
 30
0.0
 10
104.1101925865314
 20
656.3749612314143
 30
0.0
 10
104.475730284807
 20
656.3853681875909
 30
0.0
 10
104.8432735301335
 20
656.3934756311173
 30
0.0
  0
SPLINE
  5
87
330
75
100
AcDbEntity
  8
$DDT_AUDIT_GENERATED_(83)
  6
Continuous
 62
     7
100
AcDbSpline
210
0.0
220
0.0
230
1.0
 70
    12
 71
     3
 72
    14
 73
    10
 74
     0
 42
0.0000000006300306
 43
0.0000000001
 40
0.0
 40
0.0
 40
0.0
 40
0.0
 40
0.2499901129846349
 40
0.2499901129846349
 40
0.4999934086564237
 40
0.4999934086564237
 40
0.7499967043282098
 40
0.7499967043282098
 40
1.0
 40
1.0
 40
1.0
 40
1.0
 10
107.0711216222266
 20
654.2439423670261
 30
0.0
 41
1.000000000000016
 10
109.0997127343495
 20
654.2439389689288
 30
0.0
 41
1.000000000000016
 10
111.1274977351132
 20
654.2378735603003
 30
0.0
 41
1.000000000000016
 10
114.8759445324988
 20
654.1747615268862
 30
0.0
 41
1.000000000000016
 10
116.5951152423857
 20
654.1177697317031
 30
0.0
 41
1.000000000000016
 10
119.4641279660872
 20
653.9288766235393
 30
0.0
 41
1.000000000000016
 10
120.6128411519015
 20
653.7971230161764
 30
0.0
 41
1.000000000000016
 10
122.1655397027136
 20
653.4466696819788
 30
0.0
 41
1.000000000000016
 10
122.568914150346
 20
653.2281805087127
 30
0.0
 41
1.000000000000016
 10
122.5689141503577
 20
652.9633860587451
 30
0.0
 41
1.000000000000016
  0
ARC
  5
88
330
75
100
AcDbEntity
  8
$DDT_AUDIT_GENERATED_(83)
  6
Continuous
 62
     7
100
AcDbCircle
 10
120.9383363863
 20
652.9576824122
 30
0.0
 40
1.63058773946488
100
AcDbArc
 50
0.2004157969
 51
9.8500107645
  0
SPLINE
  5
89
330
75
100
AcDbEntity
  8
$DDT_AUDIT_GENERATED_(83)
  6
Continuous
 62
     7
100
AcDbSpline
210
0.0
220
0.0
230
1.0
 70
    12
 71
     3
 72
     8
 73
     4
 74
     0
 42
0.0000000004841388
 43
0.0000000001
 40
0.8402896067604536
 40
0.8402896067604536
 40
0.8402896067604536
 40
0.8402896067604536
 40
0.8933653622622091
 40
0.8933653622622091
 40
0.8933653622622091
 40
0.8933653622622091
 10
110.3943750758063
 20
656.3626684648214
 30
0.0
 41
0.9999999999999847
 10
110.0314413614673
 20
656.3748025951926
 30
0.0
 41
0.9999999999999847
 10
109.6658441348073
 20
656.384939254443
 30
0.0
 41
0.9999999999999847
 10
109.2985160943587
 20
656.3930661538277
 30
0.0
 41
0.9999999999999847
  0
ARC
  5
8A
330
75
100
AcDbEntity
  8
$DDT_AUDIT_GENERATED_(83)
  6
Continuous
 62
     7
100
AcDbCircle
 10
115.6828341084
 20
556.0708521724
 30
0.0
 40
7.912632723939682
100
AcDbArc
 50
342.699131722
 51
29.2491344671
  0
ARC
  5
8B
330
75
100
AcDbEntity
  8
$DDT_AUDIT_GENERATED_(83)
  6
Continuous
 62
     7
100
AcDbCircle
 10
98.4591292106
 20
556.070992627
 30
0.0
 40
7.912398202714636
100
AcDbArc
 50
150.8260297294
 51
197.3019866443
  0
ARC
  5
8C
330
75
100
AcDbEntity
  8
$DDT_AUDIT_GENERATED_(83)
  6
Continuous
 62
     7
100
AcDbCircle
 10
107.8764647212
 20
561.3557866633
 30
0.0
 40
17.15519025246227
100
AcDbArc
 50
267.3091524985
 51
333.5617145261
  0
ARC
  5
8D
330
75
100
AcDbEntity
  8
$DDT_AUDIT_GENERATED_(83)
  6
Continuous
 62
     7
100
AcDbCircle
 10
106.2655072102
 20
561.3552974599
 30
0.0
 40
17.15471060279123
100
AcDbArc
 50
206.4370232658
 51
272.6915647094
  0
ARC
  5
8E
330
75
100
AcDbEntity
  8
$DDT_AUDIT_GENERATED_(83)
  6
Continuous
 62
     7
100
AcDbCircle
 10
105.9023932368
 20
562.2877054259
 30
0.0
 40
16.09848456894688
100
AcDbArc
 50
208.437287837
 51
274.1632593346
  0
ARC
  5
8F
330
75
100
AcDbEntity
  8
$DDT_AUDIT_GENERATED_(83)
  6
Continuous
 62
     7
100
AcDbCircle
 10
108.1121691234
 20
562.5209811035
 30
0.0
 40
16.32251290280592
100
AcDbArc
 50
266.3432014146
 51
331.055890145
  0
ARC
  5
90
330
75
100
AcDbEntity
  8
$DDT_AUDIT_GENERATED_(83)
  6
Continuous
 62
     7
100
AcDbCircle
 10
99.2759976562
 20
556.069077036
 30
0.0
 40
7.667483171254256
100
AcDbArc
 50
182.0026205635
 51
190.8811949045
  0
ARC
  5
91
330
75
100
AcDbEntity
  8
$DDT_AUDIT_GENERATED_(83)
  6
Continuous
 62
     7
100
AcDbCircle
 10
114.8663620004
 20
556.0690502432
 30
0.0
 40
7.667375651894552
100
AcDbArc
 50
349.1183767058
 51
358.0780281921
  0
ELLIPSE
  5
92
330
75
100
AcDbEntity
  8
$DDT_AUDIT_GENERATED_(83)
  6
Continuous
 62
     7
100
AcDbEllipse
 10
107.0707856667
 20
641.2644567355
 30
0.0
 11
-15.49811222341744
 21
2.779788621509738E-7
 31
0.0
210
0.0
220
0.0
230
1.0
 40
0.1305261922
 41
3.141592653589793
 42
4.712367305533593
  0
ELLIPSE
  5
93
330
75
100
AcDbEntity
  8
$DDT_AUDIT_GENERATED_(83)
  6
Continuous
 62
     7
100
AcDbEllipse
 10
107.0707856667
 20
641.2644567355
 30
0.0
 11
-15.49811222341744
 21
2.779788621509738E-7
 31
0.0
210
0.0
220
0.0
230
1.0
 40
0.1305261922
 41
3.139431926543519
 42
3.141592653589793
  0
ELLIPSE
  5
94
330
75
100
AcDbEntity
  8
$DDT_AUDIT_GENERATED_(83)
  6
Continuous
 62
     7
100
AcDbEllipse
 10
107.0714575778
 20
641.0661677633
 30
0.0
 11
15.29811222341763
 21
0.0
 31
0.0
210
0.0
220
0.0
230
1.0
 40
0.1305261922
 41
1.570818570781066
 42
2.787845260519901
  0
ELLIPSE
  5
95
330
75
100
AcDbEntity
  8
$DDT_AUDIT_GENERATED_(83)
  6
Continuous
 62
     7
100
AcDbEllipse
 10
107.0714575778
 20
641.0661677633
 30
0.0
 11
15.29811222341763
 21
0.0
 31
0.0
210
0.0
220
0.0
230
1.0
 40
0.1305261922
 41
2.787845260519901
 42
3.663815770271361
  0
ELLIPSE
  5
96
330
75
100
AcDbEntity
  8
$DDT_AUDIT_GENERATED_(83)
  6
Continuous
 62
     7
100
AcDbEllipse
 10
107.0714575778
 20
641.0661677633
 30
0.0
 11
15.29811222341763
 21
0.0
 31
0.0
210
0.0
220
0.0
230
1.0
 40
0.1305261922
 41
3.663815770271361
 42
3.824084217858461
  0
ELLIPSE
  5
97
330
75
100
AcDbEntity
  8
$DDT_AUDIT_GENERATED_(83)
  6
Continuous
 62
     7
100
AcDbEllipse
 10
107.0707856667
 20
641.0661677633
 30
0.0
 11
-15.29811222341763
 21
0.0
 31
0.0
210
0.0
220
0.0
230
1.0
 40
0.1305261922
 41
-3.823932597960957
 42
-3.531297504800052
  0
ELLIPSE
  5
98
330
75
100
AcDbEntity
  8
$DDT_AUDIT_GENERATED_(83)
  6
Continuous
 62
     7
100
AcDbEllipse
 10
107.0707856667
 20
641.0661677633
 30
0.0
 11
-15.29811222341763
 21
0.0
 31
0.0
210
0.0
220
0.0
230
1.0
 40
0.1305261922
 41
2.751887802379534
 42
3.513891338010827
  0
ELLIPSE
  5
99
330
75
100
AcDbEntity
  8
$DDT_AUDIT_GENERATED_(83)
  6
Continuous
 62
     7
100
AcDbEllipse
 10
107.0707856667
 20
641.0661677633
 30
0.0
 11
-15.29811222341763
 21
0.0
 31
0.0
210
0.0
220
0.0
230
1.0
 40
0.1305261922
 41
3.513891338010827
 42
4.712367303192432
  0
ELLIPSE
  5
9A
330
75
100
AcDbEntity
  8
$DDT_AUDIT_GENERATED_(83)
  6
Continuous
 62
     7
100
AcDbEllipse
 10
107.0714575778
 20
641.2644567355
 30
0.0
 11
15.49811222341744
 21
2.779788482731860E-7
 31
0.0
210
0.0
220
0.0
230
1.0
 40
0.1305261922
 41
3.141592653589793
 42
3.144037416605013
  0
ELLIPSE
  5
9B
330
75
100
AcDbEntity
  8
$DDT_AUDIT_GENERATED_(83)
  6
Continuous
 62
     7
100
AcDbEllipse
 10
107.0714575778
 20
641.2644567355
 30
0.0
 11
15.49811222341744
 21
2.779788482731860E-7
 31
0.0
210
0.0
220
0.0
230
1.0
 40
0.1305261922
 41
1.570818001645995
 42
3.141592653589793
  0
ELLIPSE
  5
9C
330
75
100
AcDbEntity
  8
$DDT_AUDIT_GENERATED_(83)
  6
Continuous
 62
     7
100
AcDbEllipse
 10
107.0714575778
 20
641.0661677633
 30
0.0
 11
14.90000000000001
 21
0.0
 31
0.0
210
0.0
220
0.0
230
1.0
 40
0.1305261922
 41
5.727174243805481
 42
6.283185307179586
  0
ELLIPSE
  5
9D
330
75
100
AcDbEntity
  8
$DDT_AUDIT_GENERATED_(83)
  6
Continuous
 62
     7
100
AcDbEllipse
 10
107.0714575778
 20
641.0661677633
 30
0.0
 11
14.90000000000001
 21
0.0
 31
0.0
210
0.0
220
0.0
230
1.0
 40
0.1305261922
 41
0.0
 42
3.697603716963914
  0
LINE
  5
9E
330
75
100
AcDbEntity
  8
$DDT_AUDIT_GENERATED_(83)
  6
Continuous
 62
     7
100
AcDbLine
 10
91.5733290665
 20
652.9832357623
 30
0.0
 11
91.5733453544
 21
641.2644560953
 31
0.0
  0
ARC
  5
9F
330
75
100
AcDbEntity
  8
$DDT_AUDIT_GENERATED_(83)
  6
Continuous
 62
     7
100
AcDbCircle
 10
106.8770376883
 20
578.5043023616
 30
0.0
 40
77.91310832666292
100
AcDbArc
 50
89.8573458245
 51
91.4932246831
  0
SPLINE
  5
A0
330
75
100
AcDbEntity
  8
$DDT_AUDIT_GENERATED_(83)
  6
Continuous
 62
     7
100
AcDbSpline
210
0.0
220
0.0
230
1.0
 70
     8
 71
     3
 72
    29
 73
    25
 74
     0
 42
0.0000000007529819
 43
0.0000000001
 40
0.0
 40
0.0
 40
0.0
 40
0.0
 40
0.0233858526708069
 40
0.0512063742255231
 40
0.0836180215302167
 40
0.1207316068854704
 40
0.1626186194568929
 40
0.2093123176961559
 40
0.2849785175737037
 40
0.3578179396113632
 40
0.4271313349883343
 40
0.4928688387890492
 40
0.5748050738505447
 40
0.6502219685688716
 40
0.7202141203264243
 40
0.7451842554161682
 40
0.7694744838635049
 40
0.7930971866629569
 40
0.8194751968404008
 40
0.8531254323472127
 40
0.8943800008198672
 40
0.9261971506164196
 40
0.9614379079691828
 40
1.0
 40
1.0
 40
1.0
 40
1.0
 10
103.8559033383668
 20
656.3662189335926
 30
0.0
 10
103.6906430361188
 20
656.3599315267184
 30
0.0
 10
103.3843150985481
 20
656.3481799434074
 30
0.0
 10
102.8360509045371
 20
656.3188141703813
 30
0.0
 10
102.2228156821298
 20
656.2826383291992
 30
0.0
 10
101.5295079751225
 20
656.2381312317432
 30
0.0
 10
100.7703636213373
 20
656.1856698927027
 30
0.0
 10
99.81263780467441
 20
656.1139148483204
 30
0.0
 10
98.73518959771562
 20
656.0219576613409
 30
0.0
 10
97.60578763224089
 20
655.9013263950139
 30
0.0
 10
96.60938675603254
 20
655.7722544133525
 30
0.0
 10
95.65952500647516
 20
655.6244509426451
 30
0.0
 10
94.78829613620326
 20
655.4578087258043
 30
0.0
 10
94.03718275066713
 20
655.2779604147636
 30
0.0
 10
93.53138900228188
 20
655.1190367118611
 30
0.0
 10
93.20154446633767
 20
654.9910219007367
 30
0.0
 10
93.00585667678975
 20
654.9053933526474
 30
0.0
 10
92.81824501202843
 20
654.8132407610763
 30
0.0
 10
92.59296765650828
 20
654.6846714495521
 30
0.0
 10
92.30844176127711
 20
654.4823109531441
 30
0.0
 10
92.04214594238039
 20
654.2228632091525
 30
0.0
 10
91.82620978378478
 20
653.9223976207793
 30
0.0
 10
91.6672557729396
 20
653.5945839054668
 30
0.0
 10
91.62244186565601
 20
653.37375832248
 30
0.0
 10
91.59657620859218
 20
653.2361890089092
 30
0.0
  0
LINE
  5
A1
330
75
100
AcDbEntity
  8
$DDT_AUDIT_GENERATED_(83)
  6
Continuous
 62
     7
100
AcDbLine
 10
122.5688978901
 20
641.2644560953
 30
0.0
 11
122.5689141779
 21
652.9832357623
 31
0.0
  0
ARC
  5
A2
330
75
100
AcDbEntity
  8
$DDT_AUDIT_GENERATED_(83)
  6
Continuous
 62
     7
100
AcDbCircle
 10
107.2652055562
 20
578.5043023617
 30
0.0
 40
77.91310832655324
100
AcDbArc
 50
88.5067753169
 51
90.1426541755
  0
SPLINE
  5
A3
330
75
100
AcDbEntity
  8
$DDT_AUDIT_GENERATED_(83)
  6
Continuous
 62
     7
100
AcDbSpline
210
0.0
220
0.0
230
1.0
 70
     8
 71
     3
 72
    29
 73
    25
 74
     0
 42
0.0000000007529819
 43
0.0000000001
 40
0.0
 40
0.0
 40
0.0
 40
0.0
 40
0.0385620920314784
 40
0.0738028493849477
 40
0.1056199991822516
 40
0.1468745676561216
 40
0.1805248031642633
 40
0.2069028133431546
 40
0.2305255161440821
 40
0.2548157445928353
 40
0.2797858796839396
 40
0.3497780314448461
 40
0.4251949261662864
 40
0.5071311612311424
 40
0.5728686650345535
 40
0.6421820604143573
 40
0.7150214824550111
 40
0.7906876823354902
 40
0.8373813805747825
 40
0.8792683931440304
 40
0.9163819784949455
 40
0.9487936257932056
 40
0.9766141473394808
 40
1.0
 40
1.0
 40
1.0
 40
1.0
 10
122.5456670358571
 20
653.2361890089092
 30
0.0
 10
122.5198013787931
 20
653.3737583224806
 30
0.0
 10
122.4749874715092
 20
653.5945839054693
 30
0.0
 10
122.3160334606616
 20
653.922397620784
 30
0.0
 10
122.1000973020616
 20
654.2228632091602
 30
0.0
 10
121.8338014831575
 20
654.4823109531553
 30
0.0
 10
121.5492755879158
 20
654.6846714495673
 30
0.0
 10
121.3239982323835
 20
654.8132407610954
 30
0.0
 10
121.1363865676082
 20
654.9053933526703
 30
0.0
 10
120.9406987780448
 20
654.9910219007634
 30
0.0
 10
120.610854242075
 20
655.1190367118925
 30
0.0
 10
120.1050604936497
 20
655.2779604148004
 30
0.0
 10
119.353947108054
 20
655.457808725846
 30
0.0
 10
118.4827182377154
 20
655.6244509426898
 30
0.0
 10
117.5328564880865
 20
655.7722544133997
 30
0.0
 10
116.5364556118042
 20
655.9013263950616
 30
0.0
 10
115.40705364625
 20
656.0219576613874
 30
0.0
 10
114.3296054392288
 20
656.1139148483634
 30
0.0
 10
113.3718796225399
 20
656.1856698927406
 30
0.0
 10
112.6127352687797
 20
656.238131231774
 30
0.0
 10
111.9194275618425
 20
656.2826383292221
 30
0.0
 10
111.3061923395496
 20
656.3188141703962
 30
0.0
 10
110.757928145698
 20
656.3481799434143
 30
0.0
 10
110.4516002082398
 20
656.3599315267213
 30
0.0
 10
110.2863399060655
 20
656.366218933593
 30
0.0
  0
SPLINE
  5
A4
330
75
100
AcDbEntity
  8
$DDT_AUDIT_GENERATED_(83)
  6
Continuous
 62
     7
100
AcDbSpline
210
0.0
220
0.0
230
1.0
 70
     8
 71
     3
 72
    51
 73
    47
 74
     0
 42
0.0000000001029328
 43
0.0000000001
 40
0.0
 40
0.0
 40
0.0
 40
0.0
 40
0.0296957559727764
 40
0.0691851497940954
 40
0.1067549186976314
 40
0.1426749784322775
 40
0.1772010119627195
 40
0.2105262162191333
 40
0.2428029900987413
 40
0.2739942032996698
 40
0.3039077898667815
 40
0.3327317903701303
 40
0.3606151591996095
 40
0.3876754089151461
 40
0.414007518694907
 40
0.4396898413403365
 40
0.4647883336795993
 40
0.4893522457895499
 40
0.5132037972897426
 40
0.5363744582501512
 40
0.5589318904560647
 40
0.5809329517603306
 40
0.6024258346417722
 40
0.6234519708230452
 40
0.644047429614025
 40
0.6642439638687722
 40
0.6840698069280458
 40
0.7035502897630908
 40
0.7227003756409167
 40
0.7414503645533776
 40
0.7598414990577513
 40
0.7779073389712484
 40
0.7956690695619504
 40
0.8131461987663594
 40
0.8303568377648985
 40
0.8473178884306288
 40
0.8640451995691615
 40
0.8805536981583321
 40
0.8968575001431498
 40
0.912970004263383
 40
0.9289039715030312
 40
0.9446715919378019
 40
0.9602845450264188
 40
0.9757461684161627
 40
0.9910528239881865
 40
1.0
 40
1.0
 40
1.0
 40
1.0
 10
122.5703226302696
 20
555.8066637460864
 30
0.0
 10
122.5702708204729
 20
557.2319596948483
 30
0.0
 10
122.5701728442679
 20
560.0385830187822
 30
0.0
 10
122.5701800865432
 20
564.7514620052808
 30
0.0
 10
122.570301539376
 20
569.558647950521
 30
0.0
 10
122.5705183542994
 20
574.1429009896398
 30
0.0
 10
122.5708013335064
 20
578.4931733199337
 30
0.0
 10
122.5711318534089
 20
582.647397560881
 30
0.0
 10
122.5714921862645
 20
586.6176204476233
 30
0.0
 10
122.5718656106598
 20
590.4021196550258
 30
0.0
 10
122.5722391496002
 20
594.0001461912173
 30
0.0
 10
122.5726026840649
 20
597.4193558780628
 30
0.0
 10
122.5729495605317
 20
600.679396834174
 30
0.0
 10
122.5732742428595
 20
603.7958320259515
 30
0.0
 10
122.5735721382405
 20
606.7811228681323
 30
0.0
 10
122.5738390066786
 20
609.64544230876
 30
0.0
 10
122.5740722034332
 20
612.3970671903771
 30
0.0
 10
122.5742646144218
 20
615.0345875211826
 30
0.0
 10
122.5744151086467
 20
617.5549023795994
 30
0.0
 10
122.5745244253163
 20
619.9563622811322
 30
0.0
 10
122.574593572522
 20
622.2455926930603
 30
0.0
 10
122.5746235536292
 20
624.4295934808457
 30
0.0
 10
122.574615199844
 20
626.5142638112058
 30
0.0
 10
122.5745692315098
 20
628.5046326660977
 30
0.0
 10
122.5744862664058
 20
630.4050375993952
 30
0.0
 10
122.5743668696042
 20
632.2192564277457
 30
0.0
 10
122.5742114546683
 20
633.9506146059217
 30
0.0
 10
122.5740207236143
 20
635.6018152131937
 30
0.0
 10
122.5737945603632
 20
637.1728599608992
 30
0.0
 10
122.5735281620533
 20
638.6638059316098
 30
0.0
 10
122.5732321511471
 20
640.0756567624228
 30
0.0
 10
122.5729128413104
 20
641.411668387263
 30
0.0
 10
122.5725767282168
 20
642.6743883129803
 30
0.0
 10
122.5722295859772
 20
643.8658765812005
 30
0.0
 10
122.5718767453129
 20
644.9880032906847
 30
0.0
 10
122.5715230874103
 20
646.0424710398158
 30
0.0
 10
122.5711731125661
 20
647.0308348432146
 30
0.0
 10
122.570830987814
 20
647.9545122182724
 30
0.0
 10
122.5705005617169
 20
648.8148150010973
 30
0.0
 10
122.5701854919875
 20
649.612890746167
 30
0.0
 10
122.569888931316
 20
650.3499865639103
 30
0.0
 10
122.569614816949
 20
651.0265220953901
 30
0.0
 10
122.5693632940007
 20
651.6454274197995
 30
0.0
 10
122.5691479717697
 20
652.1994767599643
 30
0.0
 10
122.5689907546269
 20
652.6472482600237
 30
0.0
 10
122.5689376111706
 20
652.863770423649
 30
0.0
 10
122.5689149064221
 20
652.957402503322
 30
0.0
  0
SPLINE
  5
A5
330
75
100
AcDbEntity
  8
$DDT_AUDIT_GENERATED_(83)
  6
Continuous
 62
     7
100
AcDbSpline
210
0.0
220
0.0
230
1.0
 70
     8
 71
     3
 72
    53
 73
    49
 74
     0
 42
0.0000000001029259
 43
0.0000000001
 40
0.0
 40
0.0
 40
0.0
 40
0.0
 40
0.0104085988132364
 40
0.0254367711665464
 40
0.0405939326729773
 40
0.0558909506449942
 40
0.0713510092414697
 40
0.0869652519117071
 40
0.1027378761714515
 40
0.1186799029292266
 40
0.1348027587139893
 40
0.1511183630648576
 40
0.1676391832827834
 40
0.1843782993989208
 40
0.2013494802589879
 40
0.2185672725022935
 40
0.2360471048203793
 40
0.2538054105849792
 40
0.2718597728072016
 40
0.2902290403528892
 40
0.3089128006208929
 40
0.3279639397813122
 40
0.3473199971284328
 40
0.3670015208099578
 40
0.3870300380600838
 40
0.4074292472522275
 40
0.428225417792187
 40
0.4494479032191001
 40
0.4711297918572711
 40
0.493308743149179
 40
0.5160280788182169
 40
0.5393382306611676
 40
0.5633059402324117
 40
0.587935599133897
 40
0.6130787613451781
 40
0.6387892310977815
 40
0.6651252556126493
 40
0.6921550547922438
 40
0.7199595246231965
 40
0.7486360627226276
 40
0.7783040225918563
 40
0.8091134647384634
 40
0.8411189727979421
 40
0.8740064353874588
 40
0.9079527078314136
 40
0.9430970807109207
 40
0.9796160916966353
 40
1.0
 40
1.0
 40
1.0
 40
1.0
 10
91.57332868792386
 20
652.9549808376767
 30
0.0
 10
91.57330079103711
 20
652.8447658220733
 30
0.0
 10
91.57324196848352
 20
652.615311207022
 30
0.0
 10
91.57307874819007
 20
652.1549376435562
 30
0.0
 10
91.57286436405404
 20
651.6072873380662
 30
0.0
 10
91.57261692795146
 20
650.9980532896425
 30
0.0
 10
91.57234756007558
 20
650.3332968164524
 30
0.0
 10
91.57205683986432
 20
649.610495950256
 30
0.0
 10
91.57174855897534
 20
648.8297198673645
 30
0.0
 10
91.5714257934265
 20
647.9900835147826
 30
0.0
 10
91.57109199694547
 20
647.090702118265
 30
0.0
 10
91.5707507894398
 20
646.1305632595072
 30
0.0
 10
91.57040605826911
 20
645.1085804129109
 30
0.0
 10
91.57006196905202
 20
644.0235692375539
 30
0.0
 10
91.5697230021609
 20
642.8742436879116
 30
0.0
 10
91.56939400376709
 20
641.6592044132506
 30
0.0
 10
91.56908018067092
 20
640.3769288635224
 30
0.0
 10
91.56878734581946
 20
639.0257513817072
 30
0.0
 10
91.56852123928189
 20
637.6038705528204
 30
0.0
 10
91.56829051767754
 20
636.1098073020213
 30
0.0
 10
91.56809564628973
 20
634.5413721028148
 30
0.0
 10
91.56793262612055
 20
632.8981439624151
 30
0.0
 10
91.5678033257432
 20
631.1790990659922
 30
0.0
 10
91.56770787241122
 20
629.3843528578351
 30
0.0
 10
91.56764665222634
 20
627.511448189094
 30
0.0
 10
91.56761995947761
 20
625.5576769852181
 30
0.0
 10
91.56762815875004
 20
623.5200009230134
 30
0.0
 10
91.5676716510681
 20
621.39498943023
 30
0.0
 10
91.56775087768595
 20
619.1787390525378
 30
0.0
 10
91.56786638996802
 20
616.866768223621
 30
0.0
 10
91.56801862196923
 20
614.4538850536742
 30
0.0
 10
91.56820886792187
 20
611.9337271749688
 30
0.0
 10
91.56843544745944
 20
609.3012696115112
 30
0.0
 10
91.56869305906906
 20
606.5579053879178
 30
0.0
 10
91.56897841208804
 20
603.7059600552622
 30
0.0
 10
91.56928675616652
 20
600.7461607050219
 30
0.0
 10
91.56961370448815
 20
597.6710013612222
 30
0.0
 10
91.56995411901505
 20
594.4717747385197
 30
0.0
 10
91.57030203586669
 20
591.1380599487134
 30
0.0
 10
91.5706503893647
 20
587.6572358835599
 30
0.0
 10
91.57099075206109
 20
584.0135774068856
 30
0.0
 10
91.57131212047062
 20
580.193319587321
 30
0.0
 10
91.57159853450571
 20
576.1981708985884
 30
0.0
 10
91.5718336255499
 20
572.0332187521933
 30
0.0
 10
91.57200077708414
 20
567.6859778191618
 30
0.0
 10
91.57207289302698
 20
563.1800098821952
 30
0.0
 10
91.5720532911685
 20
559.0984796466979
 30
0.0
 10
91.57195509250103
 20
556.7775866783966
 30
0.0
 10
91.57191264232631
 20
555.7977226343447
 30
0.0
  0
SPLINE
  5
A6
330
75
100
AcDbEntity
  8
$DDT_AUDIT_GENERATED_(83)
  6
Continuous
 62
     7
100
AcDbSpline
210
0.0
220
0.0
230
1.0
 70
     8
 71
     3
 72
    17
 73
    13
 74
     0
 42
0.0000000038008135
 43
0.0000000001
 40
0.0
 40
0.0
 40
0.0
 40
0.0
 40
0.0360200966349829
 40
0.1224688954149443
 40
0.2118164875104098
 40
0.3128170623629575
 40
0.427328558789765
 40
0.5470501104848408
 40
0.6648979778496867
 40
0.7809387228802571
 40
0.8957983597367448
 40
1.0
 40
1.0
 40
1.0
 40
1.0
 10
91.58038738168686
 20
641.2557835308486
 30
0.0
 10
91.57882360426858
 20
641.231773869873
 30
0.0
 10
91.57476042668158
 20
641.1625970403716
 30
0.0
 10
91.62399681850297
 20
641.0377424314208
 30
0.0
 10
91.71546517623901
 20
640.9033480987017
 30
0.0
 10
91.85546763332805
 20
640.7734895070982
 30
0.0
 10
92.04967876143749
 20
640.6449875625249
 30
0.0
 10
92.30279355501567
 20
640.5183633915565
 30
0.0
 10
92.6088835455686
 20
640.3965232009548
 30
0.0
 10
92.95892401451665
 20
640.2814292441196
 30
0.0
 10
93.35061631412123
 20
640.1716043033927
 30
0.0
 10
93.61731622376345
 20
640.1090188250636
 30
0.0
 10
93.76864391423031
 20
640.0738489343103
 30
0.0
  0
SPLINE
  5
A7
330
75
100
AcDbEntity
  8
$DDT_AUDIT_GENERATED_(83)
  6
Continuous
 62
     7
100
AcDbSpline
210
0.0
220
0.0
230
1.0
 70
     8
 71
     3
 72
    15
 73
    11
 74
     0
 42
0.0000000059709869
 43
0.0000000001
 40
0.0
 40
0.0
 40
0.0
 40
0.0
 40
0.085838862247129
 40
0.2411394724052827
 40
0.3980184168301178
 40
0.5573135925318862
 40
0.7194970583431662
 40
0.8446332914746009
 40
0.9577329100584246
 40
1.0
 40
1.0
 40
1.0
 40
1.0
 10
121.2977644106447
 20
640.3225048390755
 30
0.0
 10
121.3708352527842
 20
640.3454766878428
 30
0.0
 10
121.5441778480022
 20
640.4004052249371
 30
0.0
 10
121.8053074538652
 20
640.504160050682
 30
0.0
 10
122.0623082948102
 20
640.6279654100381
 30
0.0
 10
122.2740196569829
 20
640.762418166623
 30
0.0
 10
122.4278578977146
 20
640.9019156092353
 30
0.0
 10
122.5231075213053
 20
641.0473113857926
 30
0.0
 10
122.5688099070973
 20
641.1709764127507
 30
0.0
 10
122.5640633925295
 20
641.2358891483207
 30
0.0
 10
122.5624218650608
 20
641.2566938638496
 30
0.0
  0
ELLIPSE
  5
A9
330
75
100
AcDbEntity
  8
$DDT_AUDIT_GENERATED_(A8)
  6
Continuous
 62
     7
100
AcDbEllipse
 10
107.0714575778
 20
640.173867388
 30
0.0
 11
-12.0
 21
0.0
 31
0.0
210
0.0
220
0.0
230
1.0
 40
0.1305261922
 41
0.0
 42
0.2985286823775302
  0
ELLIPSE
  5
AA
330
75
100
AcDbEntity
  8
$DDT_AUDIT_GENERATED_(A8)
  6
Continuous
 62
     7
100
AcDbEllipse
 10
107.0714575778
 20
640.173867388
 30
0.0
 11
-12.0
 21
0.0
 31
0.0
210
0.0
220
0.0
230
1.0
 40
0.1305261922
 41
2.843262150340027
 42
6.283185307179586
  0
ELLIPSE
  5
AB
330
75
100
AcDbEntity
  8
$DDT_AUDIT_GENERATED_(A8)
  6
Continuous
 62
     7
100
AcDbEllipse
 10
107.0714575778
 20
641.0661677633
 30
0.0
 11
14.75000000000001
 21
0.0
 31
0.0
210
0.0
220
0.0
230
1.0
 40
0.1305261922
 41
0.0
 42
3.555589276025126
  0
ELLIPSE
  5
AC
330
75
100
AcDbEntity
  8
$DDT_AUDIT_GENERATED_(A8)
  6
Continuous
 62
     7
100
AcDbEllipse
 10
107.0714575778
 20
641.0661677633
 30
0.0
 11
14.75000000000001
 21
0.0
 31
0.0
210
0.0
220
0.0
230
1.0
 40
0.1305261922
 41
5.86918868474426
 42
6.283185307179586
  0
ELLIPSE
  5
AD
330
75
100
AcDbEntity
  8
$DDT_AUDIT_GENERATED_(A8)
  6
Continuous
 62
     7
100
AcDbEllipse
 10
107.0714575778
 20
640.173867388
 30
0.0
 11
10.40000000000002
 21
0.0
 31
0.0
210
0.0
220
0.0
230
1.0
 40
0.1305261922
 41
0.0790564779331282
 42
3.062536175656647
  0
LINE
  5
AE
330
75
100
AcDbEntity
  8
$DDT_AUDIT_GENERATED_(A8)
  6
Continuous
 62
     7
100
AcDbLine
 10
121.8214575778
 20
641.0661677633
 30
0.0
 11
121.8214575778
 21
641.3414357123
 31
0.0
  0
LINE
  5
AF
330
75
100
AcDbEntity
  8
$DDT_AUDIT_GENERATED_(A8)
  6
Continuous
 62
     7
100
AcDbLine
 10
92.3214575778
 20
641.3414357123
 30
0.0
 11
92.3214575778
 21
641.0661677633
 31
0.0
  0
LINE
  5
B0
330
75
100
AcDbEntity
  8
$DDT_AUDIT_GENERATED_(A8)
  6
Continuous
 62
     7
100
AcDbLine
 10
93.5675315081
 20
640.2916899588
 30
0.0
 11
95.6127513895
 21
639.6841338122
 31
0.0
  0
LINE
  5
B1
330
75
100
AcDbEntity
  8
$DDT_AUDIT_GENERATED_(A8)
  6
Continuous
 62
     7
100
AcDbLine
 10
118.5327586331
 20
639.6849046474
 30
0.0
 11
120.5753836475
 21
640.2916899588
 31
0.0
  0
LINE
  5
B3
330
75
100
AcDbEntity
  8
$DDT_AUDIT_GENERATED_(B2)
  6
Continuous
 62
     7
100
AcDbLine
 10
78.6710580126
 20
583.0761388355
 30
0.0
 11
91.567215425
 21
583.0761388355
 31
0.0
  0
LINE
  5
B4
330
75
100
AcDbEntity
  8
$DDT_AUDIT_GENERATED_(B2)
  6
Continuous
 62
     7
100
AcDbLine
 10
122.5852884804
 20
583.0761388355
 30
0.0
 11
135.4710580126
 21
583.0761388355
 31
0.0
  0
LINE
  5
B5
330
75
100
AcDbEntity
  8
$DDT_AUDIT_GENERATED_(B2)
  6
Continuous
 62
     7
100
AcDbLine
 10
135.5710580126
 20
582.5761388355
 30
0.0
 11
135.5710580126
 21
582.9761388355
 31
0.0
  0
LINE
  5
B6
330
75
100
AcDbEntity
  8
$DDT_AUDIT_GENERATED_(B2)
  6
Continuous
 62
     7
100
AcDbLine
 10
78.5710580126
 20
582.9761388355
 30
0.0
 11
78.5710580126
 21
582.5761388355
 31
0.0
  0
ARC
  5
B7
330
75
100
AcDbEntity
  8
$DDT_AUDIT_GENERATED_(B2)
  6
Continuous
 62
     7
100
AcDbCircle
 10
78.6710580126
 20
582.9761388355
 30
0.0
 40
0.1000000000000029
100
AcDbArc
 50
90.0
 51
180.0
  0
ARC
  5
B8
330
75
100
AcDbEntity
  8
$DDT_AUDIT_GENERATED_(B2)
  6
Continuous
 62
     7
100
AcDbCircle
 10
135.4710580126
 20
582.9761388355
 30
0.0
 40
0.0999999999999994
100
AcDbArc
 50
0.0
 51
90.0
  0
ARC
  5
B9
330
75
100
AcDbEntity
  8
$DDT_AUDIT_GENERATED_(B2)
  6
Continuous
 62
     7
100
AcDbCircle
 10
135.4710580126
 20
582.5761388355
 30
0.0
 40
0.1000000000000029
100
AcDbArc
 50
270.0
 51
0.0
  0
ARC
  5
BA
330
75
100
AcDbEntity
  8
$DDT_AUDIT_GENERATED_(B2)
  6
Continuous
 62
     7
100
AcDbCircle
 10
78.6710580126
 20
582.5761388355
 30
0.0
 40
0.0999999999999994
100
AcDbArc
 50
180.0
 51
270.0
  0
LINE
  5
BC
330
75
100
AcDbEntity
  8
$DDT_AUDIT_GENERATED_(BB)
  6
Continuous
 62
     7
100
AcDbLine
 10
135.4716866383
 20
583.0762041439
 30
0.0
 11
122.5871602794
 21
583.0762041439
 31
0.0
  0
LINE
  5
BD
330
75
100
AcDbEntity
  8
$DDT_AUDIT_GENERATED_(BB)
  6
Continuous
 62
     7
100
AcDbLine
 10
91.5586154339
 20
583.0762041439
 30
0.0
 11
78.6704293869
 21
583.0762041439
 31
0.0
  0
LINE
  5
BE
330
75
100
AcDbEntity
  8
$DDT_AUDIT_GENERATED_(BB)
  6
Continuous
 62
     7
100
AcDbLine
 10
136.0615323242
 20
583.5660498297
 30
0.0
 11
122.5789127143
 21
583.5660498297
 31
0.0
  0
LINE
  5
BF
330
75
100
AcDbEntity
  8
$DDT_AUDIT_GENERATED_(BB)
  6
Continuous
 62
     7
100
AcDbLine
 10
91.5584026469
 20
583.5660498297
 30
0.0
 11
78.080583701
 21
583.5660498297
 31
0.0
  0
LINE
  5
C0
330
75
100
AcDbEntity
  8
$DDT_AUDIT_GENERATED_(BB)
  6
Continuous
 62
     7
100
AcDbLine
 10
132.8951084985
 20
626.572826064
 30
0.0
 11
122.58925268
 21
626.572826064
 31
0.0
  0
LINE
  5
C1
330
75
100
AcDbEntity
  8
$DDT_AUDIT_GENERATED_(BB)
  6
Continuous
 62
     7
100
AcDbLine
 10
91.5541366596
 20
626.572826064
 30
0.0
 11
81.2470075266
 21
626.572826064
 31
0.0
  0
LINE
  5
C2
330
75
100
AcDbEntity
  8
$DDT_AUDIT_GENERATED_(BB)
  6
Continuous
 62
     7
100
AcDbLine
 10
78.180583701
 20
583.5660498297
 30
0.0
 11
78.6704293869
 21
583.0762041439
 31
0.0
  0
LINE
  5
C3
330
75
100
AcDbEntity
  8
$DDT_AUDIT_GENERATED_(BB)
  6
Continuous
 62
     7
100
AcDbLine
 10
135.4716866383
 20
583.0762041439
 30
0.0
 11
135.9615323242
 21
583.5660498297
 31
0.0
  0
ARC
  5
C4
330
75
100
AcDbEntity
  8
$DDT_AUDIT_GENERATED_(BB)
  6
Continuous
 62
     7
100
AcDbCircle
 10
770.5915454578
 20
568.965533916
 30
0.0
 40
692.6648592344261
100
AcDbArc
 50
175.3055434556
 51
178.7921865962
  0
ARC
  5
C5
330
75
100
AcDbEntity
  8
$DDT_AUDIT_GENERATED_(BB)
  6
Continuous
 62
     7
100
AcDbCircle
 10
-556.4494294326
 20
568.965533916
 30
0.0
 40
692.664859234426
100
AcDbArc
 50
1.2078134038
 51
4.6944565444
  0
ARC
  5
C6
330
75
100
AcDbEntity
  8
$DDT_AUDIT_GENERATED_(BB)
  6
Continuous
 62
     7
100
AcDbCircle
 10
132.8951084986
 20
625.572826064
 30
0.0
 40
0.9999999999376187
100
AcDbArc
 50
4.6944565446
 51
90.0000000009
  0
ARC
  5
C7
330
75
100
AcDbEntity
  8
$DDT_AUDIT_GENERATED_(BB)
  6
Continuous
 62
     7
100
AcDbCircle
 10
81.2470075266
 20
625.572826064
 30
0.0
 40
0.9999999999430464
100
AcDbArc
 50
89.9999999991
 51
175.3055434554
  0
ARC
  5
C8
330
75
100
AcDbEntity
  8
$DDT_AUDIT_GENERATED_(BB)
  6
Continuous
 62
     7
100
AcDbCircle
 10
132.4506127484
 20
627.0728260639
 30
0.0
 40
0.4999999999933252
100
AcDbArc
 50
198.709613237
 51
270.0000000009
  0
ARC
  5
C9
330
75
100
AcDbEntity
  8
$DDT_AUDIT_GENERATED_(BB)
  6
Continuous
 62
     7
100
AcDbCircle
 10
81.6915032768
 20
627.0728260639
 30
0.0
 40
0.4999999999933351
100
AcDbArc
 50
269.9999999991
 51
341.290386763
  0
ARC
  5
CA
330
75
100
AcDbEntity
  8
$DDT_AUDIT_GENERATED_(BB)
  6
Continuous
 62
     7
100
AcDbCircle
 10
107.0752967028
 20
618.4761388355
 30
0.0
 40
26.30000000000001
100
AcDbArc
 50
157.5210487046
 51
161.290386763
  0
ARC
  5
CB
330
75
100
AcDbEntity
  8
$DDT_AUDIT_GENERATED_(BB)
  6
Continuous
 62
     7
100
AcDbCircle
 10
107.0668193223
 20
618.4761388355
 30
0.0
 40
26.3
100
AcDbArc
 50
18.709613237
 51
22.4688512566
  0
ELLIPSE
  5
CD
330
75
100
AcDbEntity
  8
$DDT_AUDIT_GENERATED_(CC)
  6
Continuous
 62
     7
100
AcDbEllipse
 10
107.0714575778
 20
622.823582314
 30
0.0
 11
10.5
 21
0.0
 31
0.0
210
0.0
220
0.0
230
1.0
 40
0.1305261922
 41
0.0
 42
3.748417398953018
  0
ELLIPSE
  5
CE
330
75
100
AcDbEntity
  8
$DDT_AUDIT_GENERATED_(CC)
  6
Continuous
 62
     7
100
AcDbEllipse
 10
107.0714575778
 20
622.823582314
 30
0.0
 11
10.5
 21
0.0
 31
0.0
210
0.0
220
0.0
230
1.0
 40
0.1305261922
 41
5.67636056181636
 42
6.283185307179586
  0
ELLIPSE
  5
CF
330
75
100
AcDbEntity
  8
$DDT_AUDIT_GENERATED_(CC)
  6
Continuous
 62
     7
100
AcDbEllipse
 10
107.0714575778
 20
628.5189994307
 30
0.0
 11
-11.49999999999999
 21
0.0
 31
0.0
210
0.0
220
0.0
230
1.0
 40
0.1305261922
 41
3.141631874317925
 42
6.283185307179586
  0
ELLIPSE
  5
D0
330
75
100
AcDbEntity
  8
$DDT_AUDIT_GENERATED_(CC)
  6
Continuous
 62
     7
100
AcDbEllipse
 10
107.0714575778
 20
622.823582314
 30
0.0
 11
-10.05
 21
0.0
 31
0.0
210
0.0
220
0.0
230
1.0
 40
0.1305261922
 41
2.662249831263411
 42
6.283185307179586
  0
ELLIPSE
  5
D1
330
75
100
AcDbEntity
  8
$DDT_AUDIT_GENERATED_(CC)
  6
Continuous
 62
     7
100
AcDbEllipse
 10
107.0714575778
 20
622.823582314
 30
0.0
 11
-10.05
 21
0.0
 31
0.0
210
0.0
220
0.0
230
1.0
 40
0.1305261922
 41
0.0
 42
0.4793428223263858
  0
ELLIPSE
  5
D2
330
75
100
AcDbEntity
  8
$DDT_AUDIT_GENERATED_(CC)
  6
Continuous
 62
     7
100
AcDbEllipse
 10
107.0714575778
 20
639.6781449573
 30
0.0
 11
-11.34999999999999
 21
0.0
 31
0.0
210
0.0
220
0.0
230
1.0
 40
0.1305261922
 41
3.528480045179711
 42
5.986314547756968
  0
ARC
  5
D3
330
75
100
AcDbEntity
  8
$DDT_AUDIT_GENERATED_(CC)
  6
Continuous
 62
     7
100
AcDbCircle
 10
112.1536683457
 20
628.4555230066
 30
0.0
 40
16.57573223073167
100
AcDbArc
 50
179.7806479282
 51
200.1115853306
  0
ARC
  5
D4
330
75
100
AcDbEntity
  8
$DDT_AUDIT_GENERATED_(CC)
  6
Continuous
 62
     7
100
AcDbCircle
 10
102.0582987557
 20
628.4509322521
 30
0.0
 40
16.5066992377401
100
AcDbArc
 50
339.8148802374
 51
0.2363481643
  0
LINE
  5
D5
330
75
100
AcDbEntity
  8
$DDT_AUDIT_GENERATED_(CC)
  6
Continuous
 62
     7
100
AcDbLine
 10
118.5714575778
 20
628.5189994307
 30
0.0
 11
118.5714575778
 21
639.5294282281
 31
0.0
  0
LINE
  5
D6
330
75
100
AcDbEntity
  8
$DDT_AUDIT_GENERATED_(CC)
  6
Continuous
 62
     7
100
AcDbLine
 10
95.5714575778
 20
639.5294282281
 30
0.0
 11
95.5714575778
 21
628.5189994307
 31
0.0
  0
SPLINE
  5
D7
330
75
100
AcDbEntity
  8
$DDT_AUDIT_GENERATED_(CC)
  6
Continuous
 62
     7
100
AcDbSpline
210
0.0
220
0.0
230
1.0
 70
     8
 71
     3
 72
    12
 73
     8
 74
     0
 42
0.0000000116871946
 43
0.0000000001
 40
0.0
 40
0.0
 40
0.0
 40
0.0
 40
0.2171443991636151
 40
0.4597473326059465
 40
0.6729116979352234
 40
0.8533398277597767
 40
1.0
 40
1.0
 40
1.0
 40
1.0
 10
96.14450758397074
 20
640.0933984835877
 30
0.0
 10
96.06670730544909
 20
640.0582430679966
 30
0.0
 10
95.92951584923348
 20
639.9947394698648
 30
0.0
 10
95.7646500644911
 20
639.8840284432508
 30
0.0
 10
95.65137430116394
 20
639.7694436318428
 30
0.0
 10
95.58228282352624
 20
639.6471055801422
 30
0.0
 10
95.57662524165707
 20
639.5698466742597
 30
0.0
 10
95.57414411627573
 20
639.5285134972285
 30
0.0
  0
SPLINE
  5
D8
330
75
100
AcDbEntity
  8
$DDT_AUDIT_GENERATED_(CC)
  6
Continuous
 62
     7
100
AcDbSpline
210
0.0
220
0.0
230
1.0
 70
     8
 71
     3
 72
    15
 73
    11
 74
     0
 42
0.0000000079846457
 43
0.0000000001
 40
0.0
 40
0.0
 40
0.0
 40
0.0
 40
0.0073189475362033
 40
0.1425636495867328
 40
0.2784105246938967
 40
0.4313754210851752
 40
0.6088594761520233
 40
0.7952787845284137
 40
0.978134569032291
 40
1.0
 40
1.0
 40
1.0
 40
1.0
 10
118.5701930217697
 20
639.5302560533028
 30
0.0
 10
118.570647843901
 20
639.5328998821536
 30
0.0
 10
118.5782354491629
 20
639.5772225855552
 30
0.0
 10
118.546086437182
 20
639.6741721748309
 30
0.0
 10
118.474693825244
 20
639.7904241522829
 30
0.0
 10
118.3560987493061
 20
639.9005709383682
 30
0.0
 10
118.1866534586166
 20
640.0092112423555
 30
0.0
 10
117.9567129333434
 20
640.1153080430439
 30
0.0
 10
117.7590408813947
 20
640.1916421556567
 30
0.0
 10
117.6414079673478
 20
640.2263823348702
 30
0.0
 10
117.6267706821049
 20
640.2306968279607
 30
0.0
  0
ELLIPSE
  5
DA
330
75
100
AcDbEntity
  8
$DDT_AUDIT_GENERATED_(D9)
  6
Continuous
 62
     7
100
AcDbEllipse
 10
107.0714575778
 20
622.8731545571
 30
0.0
 11
8.5
 21
0.0
 31
0.0
210
0.0
220
0.0
230
1.0
 40
0.1305261922
 41
3.366898544896335
 42
6.057879415873051
  0
ELLIPSE
  5
DB
330
75
100
AcDbEntity
  8
$DDT_AUDIT_GENERATED_(D9)
  6
Continuous
 62
     7
100
AcDbEllipse
 10
107.0714575778
 20
622.3774321264
 30
0.0
 11
-8.500000000000002
 21
0.0
 31
0.0
210
0.0
220
0.0
230
1.0
 40
0.1305261922
 41
0.0
 42
6.283185307179586
  0
ELLIPSE
  5
DC
330
75
100
AcDbEntity
  8
$DDT_AUDIT_GENERATED_(D9)
  6
Continuous
 62
     7
100
AcDbEllipse
 10
107.0714575778
 20
622.3774321264
 30
0.0
 11
-9.000000000000004
 21
0.0
 31
0.0
210
0.0
220
0.0
230
1.0
 40
0.1305261922
 41
0.0
 42
6.283185307179586
  0
LINE
  5
DD
330
75
100
AcDbEntity
  8
$DDT_AUDIT_GENERATED_(D9)
  6
Continuous
 62
     7
100
AcDbLine
 10
106.3714575778
 20
622.8078914609
 30
0.0
 11
105.3714575778
 21
622.8078914609
 31
0.0
  0
LINE
  5
DE
330
75
100
AcDbEntity
  8
$DDT_AUDIT_GENERATED_(D9)
  6
Continuous
 62
     7
100
AcDbLine
 10
105.3714575778
 20
622.8078914609
 30
0.0
 11
105.3714575778
 21
622.9384176532
 31
0.0
  0
LINE
  5
DF
330
75
100
AcDbEntity
  8
$DDT_AUDIT_GENERATED_(D9)
  6
Continuous
 62
     7
100
AcDbLine
 10
106.3714575778
 20
622.9384176532
 30
0.0
 11
106.3714575778
 21
622.8078914609
 31
0.0
  0
LINE
  5
E0
330
75
100
AcDbEntity
  8
$DDT_AUDIT_GENERATED_(D9)
  6
Continuous
 62
     7
100
AcDbLine
 10
105.1714575778
 20
622.8078914609
 30
0.0
 11
104.1714575778
 21
622.8078914609
 31
0.0
  0
LINE
  5
E1
330
75
100
AcDbEntity
  8
$DDT_AUDIT_GENERATED_(D9)
  6
Continuous
 62
     7
100
AcDbLine
 10
104.1714575778
 20
622.8078914609
 30
0.0
 11
104.1714575778
 21
622.9384176532
 31
0.0
  0
LINE
  5
E2
330
75
100
AcDbEntity
  8
$DDT_AUDIT_GENERATED_(D9)
  6
Continuous
 62
     7
100
AcDbLine
 10
105.1714575778
 20
622.9384176532
 30
0.0
 11
105.1714575778
 21
622.8078914609
 31
0.0
  0
LINE
  5
E3
330
75
100
AcDbEntity
  8
$DDT_AUDIT_GENERATED_(D9)
  6
Continuous
 62
     7
100
AcDbLine
 10
103.9714575778
 20
622.8078914609
 30
0.0
 11
102.9714575778
 21
622.8078914609
 31
0.0
  0
LINE
  5
E4
330
75
100
AcDbEntity
  8
$DDT_AUDIT_GENERATED_(D9)
  6
Continuous
 62
     7
100
AcDbLine
 10
102.9714575778
 20
622.8078914609
 30
0.0
 11
102.9714575778
 21
622.9384176532
 31
0.0
  0
LINE
  5
E5
330
75
100
AcDbEntity
  8
$DDT_AUDIT_GENERATED_(D9)
  6
Continuous
 62
     7
100
AcDbLine
 10
103.9714575778
 20
622.9384176532
 30
0.0
 11
103.9714575778
 21
622.8078914609
 31
0.0
  0
LINE
  5
E6
330
75
100
AcDbEntity
  8
$DDT_AUDIT_GENERATED_(D9)
  6
Continuous
 62
     7
100
AcDbLine
 10
102.7714575778
 20
622.8078914609
 30
0.0
 11
101.7714575778
 21
622.8078914609
 31
0.0
  0
LINE
  5
E7
330
75
100
AcDbEntity
  8
$DDT_AUDIT_GENERATED_(D9)
  6
Continuous
 62
     7
100
AcDbLine
 10
101.7714575778
 20
622.8078914609
 30
0.0
 11
101.7714575778
 21
622.9384176532
 31
0.0
  0
LINE
  5
E8
330
75
100
AcDbEntity
  8
$DDT_AUDIT_GENERATED_(D9)
  6
Continuous
 62
     7
100
AcDbLine
 10
102.7714575778
 20
622.9384176532
 30
0.0
 11
102.7714575778
 21
622.8078914609
 31
0.0
  0
LINE
  5
E9
330
75
100
AcDbEntity
  8
$DDT_AUDIT_GENERATED_(D9)
  6
Continuous
 62
     7
100
AcDbLine
 10
101.5714575778
 20
622.8078914609
 30
0.0
 11
100.5714575778
 21
622.8078914609
 31
0.0
  0
LINE
  5
EA
330
75
100
AcDbEntity
  8
$DDT_AUDIT_GENERATED_(D9)
  6
Continuous
 62
     7
100
AcDbLine
 10
100.5714575778
 20
622.8078914609
 30
0.0
 11
100.5714575778
 21
622.9384176532
 31
0.0
  0
LINE
  5
EB
330
75
100
AcDbEntity
  8
$DDT_AUDIT_GENERATED_(D9)
  6
Continuous
 62
     7
100
AcDbLine
 10
101.5714575778
 20
622.9384176532
 30
0.0
 11
101.5714575778
 21
622.8078914609
 31
0.0
  0
LINE
  5
EC
330
75
100
AcDbEntity
  8
$DDT_AUDIT_GENERATED_(D9)
  6
Continuous
 62
     7
100
AcDbLine
 10
100.3714575778
 20
622.8078914609
 30
0.0
 11
99.3714575778
 21
622.8078914609
 31
0.0
  0
LINE
  5
ED
330
75
100
AcDbEntity
  8
$DDT_AUDIT_GENERATED_(D9)
  6
Continuous
 62
     7
100
AcDbLine
 10
99.3714575778
 20
622.8078914609
 30
0.0
 11
99.3714575778
 21
622.8473264183
 31
0.0
  0
LINE
  5
EE
330
75
100
AcDbEntity
  8
$DDT_AUDIT_GENERATED_(D9)
  6
Continuous
 62
     7
100
AcDbLine
 10
100.3714575778
 20
622.9384176532
 30
0.0
 11
100.3714575778
 21
622.8078914609
 31
0.0
  0
LINE
  5
EF
330
75
100
AcDbEntity
  8
$DDT_AUDIT_GENERATED_(D9)
  6
Continuous
 62
     7
100
AcDbLine
 10
107.5714575778
 20
622.6512600303
 30
0.0
 11
106.5714575778
 21
622.6512600303
 31
0.0
  0
LINE
  5
F0
330
75
100
AcDbEntity
  8
$DDT_AUDIT_GENERATED_(D9)
  6
Continuous
 62
     7
100
AcDbLine
 10
106.5714575778
 20
622.6512600303
 30
0.0
 11
106.5714575778
 21
622.7817862225
 31
0.0
  0
LINE
  5
F1
330
75
100
AcDbEntity
  8
$DDT_AUDIT_GENERATED_(D9)
  6
Continuous
 62
     7
100
AcDbLine
 10
106.5714575778
 20
622.7817862225
 30
0.0
 11
107.5714575778
 21
622.7817862225
 31
0.0
  0
LINE
  5
F2
330
75
100
AcDbEntity
  8
$DDT_AUDIT_GENERATED_(D9)
  6
Continuous
 62
     7
100
AcDbLine
 10
106.3714575778
 20
622.6512600303
 30
0.0
 11
105.3714575778
 21
622.6512600303
 31
0.0
  0
LINE
  5
F3
330
75
100
AcDbEntity
  8
$DDT_AUDIT_GENERATED_(D9)
  6
Continuous
 62
     7
100
AcDbLine
 10
105.3714575778
 20
622.6512600303
 30
0.0
 11
105.3714575778
 21
622.7817862225
 31
0.0
  0
LINE
  5
F4
330
75
100
AcDbEntity
  8
$DDT_AUDIT_GENERATED_(D9)
  6
Continuous
 62
     7
100
AcDbLine
 10
105.3714575778
 20
622.7817862225
 30
0.0
 11
106.3714575778
 21
622.7817862225
 31
0.0
  0
LINE
  5
F5
330
75
100
AcDbEntity
  8
$DDT_AUDIT_GENERATED_(D9)
  6
Continuous
 62
     7
100
AcDbLine
 10
106.3714575778
 20
622.7817862225
 30
0.0
 11
106.3714575778
 21
622.6512600303
 31
0.0
  0
LINE
  5
F6
330
75
100
AcDbEntity
  8
$DDT_AUDIT_GENERATED_(D9)
  6
Continuous
 62
     7
100
AcDbLine
 10
105.1714575778
 20
622.6512600303
 30
0.0
 11
104.1714575778
 21
622.6512600303
 31
0.0
  0
LINE
  5
F7
330
75
100
AcDbEntity
  8
$DDT_AUDIT_GENERATED_(D9)
  6
Continuous
 62
     7
100
AcDbLine
 10
104.1714575778
 20
622.6512600303
 30
0.0
 11
104.1714575778
 21
622.7817862225
 31
0.0
  0
LINE
  5
F8
330
75
100
AcDbEntity
  8
$DDT_AUDIT_GENERATED_(D9)
  6
Continuous
 62
     7
100
AcDbLine
 10
104.1714575778
 20
622.7817862225
 30
0.0
 11
105.1714575778
 21
622.7817862225
 31
0.0
  0
LINE
  5
F9
330
75
100
AcDbEntity
  8
$DDT_AUDIT_GENERATED_(D9)
  6
Continuous
 62
     7
100
AcDbLine
 10
105.1714575778
 20
622.7817862225
 30
0.0
 11
105.1714575778
 21
622.6512600303
 31
0.0
  0
LINE
  5
FA
330
75
100
AcDbEntity
  8
$DDT_AUDIT_GENERATED_(D9)
  6
Continuous
 62
     7
100
AcDbLine
 10
103.9714575778
 20
622.6512600303
 30
0.0
 11
102.9714575778
 21
622.6512600303
 31
0.0
  0
LINE
  5
FB
330
75
100
AcDbEntity
  8
$DDT_AUDIT_GENERATED_(D9)
  6
Continuous
 62
     7
100
AcDbLine
 10
102.9714575778
 20
622.6512600303
 30
0.0
 11
102.9714575778
 21
622.7817862225
 31
0.0
  0
LINE
  5
FC
330
75
100
AcDbEntity
  8
$DDT_AUDIT_GENERATED_(D9)
  6
Continuous
 62
     7
100
AcDbLine
 10
102.9714575778
 20
622.7817862225
 30
0.0
 11
103.9714575778
 21
622.7817862225
 31
0.0
  0
LINE
  5
FD
330
75
100
AcDbEntity
  8
$DDT_AUDIT_GENERATED_(D9)
  6
Continuous
 62
     7
100
AcDbLine
 10
103.9714575778
 20
622.7817862225
 30
0.0
 11
103.9714575778
 21
622.6512600303
 31
0.0
  0
LINE
  5
FE
330
75
100
AcDbEntity
  8
$DDT_AUDIT_GENERATED_(D9)
  6
Continuous
 62
     7
100
AcDbLine
 10
102.7714575778
 20
622.6512600303
 30
0.0
 11
101.7714575778
 21
622.6512600303
 31
0.0
  0
LINE
  5
FF
330
75
100
AcDbEntity
  8
$DDT_AUDIT_GENERATED_(D9)
  6
Continuous
 62
     7
100
AcDbLine
 10
101.7714575778
 20
622.6512600303
 30
0.0
 11
101.7714575778
 21
622.7817862225
 31
0.0
  0
LINE
  5
100
330
75
100
AcDbEntity
  8
$DDT_AUDIT_GENERATED_(D9)
  6
Continuous
 62
     7
100
AcDbLine
 10
101.7714575778
 20
622.7817862225
 30
0.0
 11
102.7714575778
 21
622.7817862225
 31
0.0
  0
LINE
  5
101
330
75
100
AcDbEntity
  8
$DDT_AUDIT_GENERATED_(D9)
  6
Continuous
 62
     7
100
AcDbLine
 10
102.7714575778
 20
622.7817862225
 30
0.0
 11
102.7714575778
 21
622.6512600303
 31
0.0
  0
LINE
  5
102
330
75
100
AcDbEntity
  8
$DDT_AUDIT_GENERATED_(D9)
  6
Continuous
 62
     7
100
AcDbLine
 10
101.5714575778
 20
622.6512600303
 30
0.0
 11
100.5714575778
 21
622.6512600303
 31
0.0
  0
LINE
  5
103
330
75
100
AcDbEntity
  8
$DDT_AUDIT_GENERATED_(D9)
  6
Continuous
 62
     7
100
AcDbLine
 10
100.5714575778
 20
622.6512600303
 30
0.0
 11
100.5714575778
 21
622.7817862225
 31
0.0
  0
LINE
  5
104
330
75
100
AcDbEntity
  8
$DDT_AUDIT_GENERATED_(D9)
  6
Continuous
 62
     7
100
AcDbLine
 10
100.5714575778
 20
622.7817862225
 30
0.0
 11
101.5714575778
 21
622.7817862225
 31
0.0
  0
LINE
  5
105
330
75
100
AcDbEntity
  8
$DDT_AUDIT_GENERATED_(D9)
  6
Continuous
 62
     7
100
AcDbLine
 10
101.5714575778
 20
622.7817862225
 30
0.0
 11
101.5714575778
 21
622.6512600303
 31
0.0
  0
LINE
  5
106
330
75
100
AcDbEntity
  8
$DDT_AUDIT_GENERATED_(D9)
  6
Continuous
 62
     7
100
AcDbLine
 10
100.3714575778
 20
622.6512600303
 30
0.0
 11
99.3714575778
 21
622.6512600303
 31
0.0
  0
LINE
  5
107
330
75
100
AcDbEntity
  8
$DDT_AUDIT_GENERATED_(D9)
  6
Continuous
 62
     7
100
AcDbLine
 10
99.3714575778
 20
622.6512600303
 30
0.0
 11
99.3714575778
 21
622.7817862225
 31
0.0
  0
LINE
  5
108
330
75
100
AcDbEntity
  8
$DDT_AUDIT_GENERATED_(D9)
  6
Continuous
 62
     7
100
AcDbLine
 10
99.3714575778
 20
622.7817862225
 30
0.0
 11
100.3714575778
 21
622.7817862225
 31
0.0
  0
LINE
  5
109
330
75
100
AcDbEntity
  8
$DDT_AUDIT_GENERATED_(D9)
  6
Continuous
 62
     7
100
AcDbLine
 10
100.3714575778
 20
622.7817862225
 30
0.0
 11
100.3714575778
 21
622.6512600303
 31
0.0
  0
LINE
  5
10A
330
75
100
AcDbEntity
  8
$DDT_AUDIT_GENERATED_(D9)
  6
Continuous
 62
     7
100
AcDbLine
 10
107.5714575778
 20
622.4946285996
 30
0.0
 11
106.5714575778
 21
622.4946285996
 31
0.0
  0
LINE
  5
10B
330
75
100
AcDbEntity
  8
$DDT_AUDIT_GENERATED_(D9)
  6
Continuous
 62
     7
100
AcDbLine
 10
106.5714575778
 20
622.4946285996
 30
0.0
 11
106.5714575778
 21
622.6251547918
 31
0.0
  0
LINE
  5
10C
330
75
100
AcDbEntity
  8
$DDT_AUDIT_GENERATED_(D9)
  6
Continuous
 62
     7
100
AcDbLine
 10
106.5714575778
 20
622.6251547918
 30
0.0
 11
107.5714575778
 21
622.6251547918
 31
0.0
  0
LINE
  5
10D
330
75
100
AcDbEntity
  8
$DDT_AUDIT_GENERATED_(D9)
  6
Continuous
 62
     7
100
AcDbLine
 10
106.3714575778
 20
622.4946285996
 30
0.0
 11
105.3714575778
 21
622.4946285996
 31
0.0
  0
LINE
  5
10E
330
75
100
AcDbEntity
  8
$DDT_AUDIT_GENERATED_(D9)
  6
Continuous
 62
     7
100
AcDbLine
 10
105.3714575778
 20
622.4946285996
 30
0.0
 11
105.3714575778
 21
622.6251547918
 31
0.0
  0
LINE
  5
10F
330
75
100
AcDbEntity
  8
$DDT_AUDIT_GENERATED_(D9)
  6
Continuous
 62
     7
100
AcDbLine
 10
105.3714575778
 20
622.6251547918
 30
0.0
 11
106.3714575778
 21
622.6251547918
 31
0.0
  0
LINE
  5
110
330
75
100
AcDbEntity
  8
$DDT_AUDIT_GENERATED_(D9)
  6
Continuous
 62
     7
100
AcDbLine
 10
106.3714575778
 20
622.6251547918
 30
0.0
 11
106.3714575778
 21
622.4946285996
 31
0.0
  0
LINE
  5
111
330
75
100
AcDbEntity
  8
$DDT_AUDIT_GENERATED_(D9)
  6
Continuous
 62
     7
100
AcDbLine
 10
105.1714575778
 20
622.4946285996
 30
0.0
 11
104.1714575778
 21
622.4946285996
 31
0.0
  0
LINE
  5
112
330
75
100
AcDbEntity
  8
$DDT_AUDIT_GENERATED_(D9)
  6
Continuous
 62
     7
100
AcDbLine
 10
104.1714575778
 20
622.4946285996
 30
0.0
 11
104.1714575778
 21
622.6251547918
 31
0.0
  0
LINE
  5
113
330
75
100
AcDbEntity
  8
$DDT_AUDIT_GENERATED_(D9)
  6
Continuous
 62
     7
100
AcDbLine
 10
104.1714575778
 20
622.6251547918
 30
0.0
 11
105.1714575778
 21
622.6251547918
 31
0.0
  0
LINE
  5
114
330
75
100
AcDbEntity
  8
$DDT_AUDIT_GENERATED_(D9)
  6
Continuous
 62
     7
100
AcDbLine
 10
105.1714575778
 20
622.6251547918
 30
0.0
 11
105.1714575778
 21
622.4946285996
 31
0.0
  0
LINE
  5
115
330
75
100
AcDbEntity
  8
$DDT_AUDIT_GENERATED_(D9)
  6
Continuous
 62
     7
100
AcDbLine
 10
103.9714575778
 20
622.4946285996
 30
0.0
 11
102.9714575778
 21
622.4946285996
 31
0.0
  0
LINE
  5
116
330
75
100
AcDbEntity
  8
$DDT_AUDIT_GENERATED_(D9)
  6
Continuous
 62
     7
100
AcDbLine
 10
102.9714575778
 20
622.4946285996
 30
0.0
 11
102.9714575778
 21
622.6251547918
 31
0.0
  0
LINE
  5
117
330
75
100
AcDbEntity
  8
$DDT_AUDIT_GENERATED_(D9)
  6
Continuous
 62
     7
100
AcDbLine
 10
102.9714575778
 20
622.6251547918
 30
0.0
 11
103.9714575778
 21
622.6251547918
 31
0.0
  0
LINE
  5
118
330
75
100
AcDbEntity
  8
$DDT_AUDIT_GENERATED_(D9)
  6
Continuous
 62
     7
100
AcDbLine
 10
103.9714575778
 20
622.6251547918
 30
0.0
 11
103.9714575778
 21
622.4946285996
 31
0.0
  0
LINE
  5
119
330
75
100
AcDbEntity
  8
$DDT_AUDIT_GENERATED_(D9)
  6
Continuous
 62
     7
100
AcDbLine
 10
102.7714575778
 20
622.4946285996
 30
0.0
 11
101.7714575778
 21
622.4946285996
 31
0.0
  0
LINE
  5
11A
330
75
100
AcDbEntity
  8
$DDT_AUDIT_GENERATED_(D9)
  6
Continuous
 62
     7
100
AcDbLine
 10
101.7714575778
 20
622.4946285996
 30
0.0
 11
101.7714575778
 21
622.6251547918
 31
0.0
  0
LINE
  5
11B
330
75
100
AcDbEntity
  8
$DDT_AUDIT_GENERATED_(D9)
  6
Continuous
 62
     7
100
AcDbLine
 10
101.7714575778
 20
622.6251547918
 30
0.0
 11
102.7714575778
 21
622.6251547918
 31
0.0
  0
LINE
  5
11C
330
75
100
AcDbEntity
  8
$DDT_AUDIT_GENERATED_(D9)
  6
Continuous
 62
     7
100
AcDbLine
 10
102.7714575778
 20
622.6251547918
 30
0.0
 11
102.7714575778
 21
622.4946285996
 31
0.0
  0
LINE
  5
11D
330
75
100
AcDbEntity
  8
$DDT_AUDIT_GENERATED_(D9)
  6
Continuous
 62
     7
100
AcDbLine
 10
101.5714575778
 20
622.4946285996
 30
0.0
 11
100.5714575778
 21
622.4946285996
 31
0.0
  0
LINE
  5
11E
330
75
100
AcDbEntity
  8
$DDT_AUDIT_GENERATED_(D9)
  6
Continuous
 62
     7
100
AcDbLine
 10
100.5714575778
 20
622.4946285996
 30
0.0
 11
100.5714575778
 21
622.6251547918
 31
0.0
  0
LINE
  5
11F
330
75
100
AcDbEntity
  8
$DDT_AUDIT_GENERATED_(D9)
  6
Continuous
 62
     7
100
AcDbLine
 10
100.5714575778
 20
622.6251547918
 30
0.0
 11
101.5714575778
 21
622.6251547918
 31
0.0
  0
LINE
  5
120
330
75
100
AcDbEntity
  8
$DDT_AUDIT_GENERATED_(D9)
  6
Continuous
 62
     7
100
AcDbLine
 10
101.5714575778
 20
622.6251547918
 30
0.0
 11
101.5714575778
 21
622.4946285996
 31
0.0
  0
LINE
  5
121
330
75
100
AcDbEntity
  8
$DDT_AUDIT_GENERATED_(D9)
  6
Continuous
 62
     7
100
AcDbLine
 10
107.5714575778
 20
622.337997169
 30
0.0
 11
106.5714575778
 21
622.337997169
 31
0.0
  0
LINE
  5
122
330
75
100
AcDbEntity
  8
$DDT_AUDIT_GENERATED_(D9)
  6
Continuous
 62
     7
100
AcDbLine
 10
106.5714575778
 20
622.337997169
 30
0.0
 11
106.5714575778
 21
622.4685233612
 31
0.0
  0
LINE
  5
123
330
75
100
AcDbEntity
  8
$DDT_AUDIT_GENERATED_(D9)
  6
Continuous
 62
     7
100
AcDbLine
 10
106.5714575778
 20
622.4685233612
 30
0.0
 11
107.5714575778
 21
622.4685233612
 31
0.0
  0
LINE
  5
124
330
75
100
AcDbEntity
  8
$DDT_AUDIT_GENERATED_(D9)
  6
Continuous
 62
     7
100
AcDbLine
 10
106.3714575778
 20
622.337997169
 30
0.0
 11
105.3714575778
 21
622.337997169
 31
0.0
  0
LINE
  5
125
330
75
100
AcDbEntity
  8
$DDT_AUDIT_GENERATED_(D9)
  6
Continuous
 62
     7
100
AcDbLine
 10
105.3714575778
 20
622.337997169
 30
0.0
 11
105.3714575778
 21
622.4685233612
 31
0.0
  0
LINE
  5
126
330
75
100
AcDbEntity
  8
$DDT_AUDIT_GENERATED_(D9)
  6
Continuous
 62
     7
100
AcDbLine
 10
105.3714575778
 20
622.4685233612
 30
0.0
 11
106.3714575778
 21
622.4685233612
 31
0.0
  0
LINE
  5
127
330
75
100
AcDbEntity
  8
$DDT_AUDIT_GENERATED_(D9)
  6
Continuous
 62
     7
100
AcDbLine
 10
106.3714575778
 20
622.4685233612
 30
0.0
 11
106.3714575778
 21
622.337997169
 31
0.0
  0
LINE
  5
128
330
75
100
AcDbEntity
  8
$DDT_AUDIT_GENERATED_(D9)
  6
Continuous
 62
     7
100
AcDbLine
 10
105.1714575778
 20
622.337997169
 30
0.0
 11
104.1714575778
 21
622.337997169
 31
0.0
  0
LINE
  5
129
330
75
100
AcDbEntity
  8
$DDT_AUDIT_GENERATED_(D9)
  6
Continuous
 62
     7
100
AcDbLine
 10
104.1714575778
 20
622.337997169
 30
0.0
 11
104.1714575778
 21
622.4685233612
 31
0.0
  0
LINE
  5
12A
330
75
100
AcDbEntity
  8
$DDT_AUDIT_GENERATED_(D9)
  6
Continuous
 62
     7
100
AcDbLine
 10
104.1714575778
 20
622.4685233612
 30
0.0
 11
105.1714575778
 21
622.4685233612
 31
0.0
  0
LINE
  5
12B
330
75
100
AcDbEntity
  8
$DDT_AUDIT_GENERATED_(D9)
  6
Continuous
 62
     7
100
AcDbLine
 10
105.1714575778
 20
622.4685233612
 30
0.0
 11
105.1714575778
 21
622.337997169
 31
0.0
  0
LINE
  5
12C
330
75
100
AcDbEntity
  8
$DDT_AUDIT_GENERATED_(D9)
  6
Continuous
 62
     7
100
AcDbLine
 10
103.9714575778
 20
622.337997169
 30
0.0
 11
102.9714575778
 21
622.337997169
 31
0.0
  0
LINE
  5
12D
330
75
100
AcDbEntity
  8
$DDT_AUDIT_GENERATED_(D9)
  6
Continuous
 62
     7
100
AcDbLine
 10
102.9714575778
 20
622.337997169
 30
0.0
 11
102.9714575778
 21
622.4685233612
 31
0.0
  0
LINE
  5
12E
330
75
100
AcDbEntity
  8
$DDT_AUDIT_GENERATED_(D9)
  6
Continuous
 62
     7
100
AcDbLine
 10
102.9714575778
 20
622.4685233612
 30
0.0
 11
103.9714575778
 21
622.4685233612
 31
0.0
  0
LINE
  5
12F
330
75
100
AcDbEntity
  8
$DDT_AUDIT_GENERATED_(D9)
  6
Continuous
 62
     7
100
AcDbLine
 10
103.9714575778
 20
622.4685233612
 30
0.0
 11
103.9714575778
 21
622.337997169
 31
0.0
  0
LINE
  5
130
330
75
100
AcDbEntity
  8
$DDT_AUDIT_GENERATED_(D9)
  6
Continuous
 62
     7
100
AcDbLine
 10
102.7714575778
 20
622.337997169
 30
0.0
 11
101.7714575778
 21
622.337997169
 31
0.0
  0
LINE
  5
131
330
75
100
AcDbEntity
  8
$DDT_AUDIT_GENERATED_(D9)
  6
Continuous
 62
     7
100
AcDbLine
 10
101.7714575778
 20
622.337997169
 30
0.0
 11
101.7714575778
 21
622.4685233612
 31
0.0
  0
LINE
  5
132
330
75
100
AcDbEntity
  8
$DDT_AUDIT_GENERATED_(D9)
  6
Continuous
 62
     7
100
AcDbLine
 10
101.7714575778
 20
622.4685233612
 30
0.0
 11
102.7714575778
 21
622.4685233612
 31
0.0
  0
LINE
  5
133
330
75
100
AcDbEntity
  8
$DDT_AUDIT_GENERATED_(D9)
  6
Continuous
 62
     7
100
AcDbLine
 10
102.7714575778
 20
622.4685233612
 30
0.0
 11
102.7714575778
 21
622.337997169
 31
0.0
  0
LINE
  5
134
330
75
100
AcDbEntity
  8
$DDT_AUDIT_GENERATED_(D9)
  6
Continuous
 62
     7
100
AcDbLine
 10
101.5714575778
 20
622.337997169
 30
0.0
 11
100.5714575778
 21
622.337997169
 31
0.0
  0
LINE
  5
135
330
75
100
AcDbEntity
  8
$DDT_AUDIT_GENERATED_(D9)
  6
Continuous
 62
     7
100
AcDbLine
 10
100.5714575778
 20
622.337997169
 30
0.0
 11
100.5714575778
 21
622.4685233612
 31
0.0
  0
LINE
  5
136
330
75
100
AcDbEntity
  8
$DDT_AUDIT_GENERATED_(D9)
  6
Continuous
 62
     7
100
AcDbLine
 10
100.5714575778
 20
622.4685233612
 30
0.0
 11
101.5714575778
 21
622.4685233612
 31
0.0
  0
LINE
  5
137
330
75
100
AcDbEntity
  8
$DDT_AUDIT_GENERATED_(D9)
  6
Continuous
 62
     7
100
AcDbLine
 10
101.5714575778
 20
622.4685233612
 30
0.0
 11
101.5714575778
 21
622.337997169
 31
0.0
  0
LINE
  5
138
330
75
100
AcDbEntity
  8
$DDT_AUDIT_GENERATED_(D9)
  6
Continuous
 62
     7
100
AcDbLine
 10
107.5714575778
 20
622.1813657383
 30
0.0
 11
106.5714575778
 21
622.1813657383
 31
0.0
  0
LINE
  5
139
330
75
100
AcDbEntity
  8
$DDT_AUDIT_GENERATED_(D9)
  6
Continuous
 62
     7
100
AcDbLine
 10
106.5714575778
 20
622.1813657383
 30
0.0
 11
106.5714575778
 21
622.3118919305
 31
0.0
  0
LINE
  5
13A
330
75
100
AcDbEntity
  8
$DDT_AUDIT_GENERATED_(D9)
  6
Continuous
 62
     7
100
AcDbLine
 10
106.5714575778
 20
622.3118919305
 30
0.0
 11
107.5714575778
 21
622.3118919305
 31
0.0
  0
LINE
  5
13B
330
75
100
AcDbEntity
  8
$DDT_AUDIT_GENERATED_(D9)
  6
Continuous
 62
     7
100
AcDbLine
 10
106.3714575778
 20
622.1813657383
 30
0.0
 11
105.3714575778
 21
622.1813657383
 31
0.0
  0
LINE
  5
13C
330
75
100
AcDbEntity
  8
$DDT_AUDIT_GENERATED_(D9)
  6
Continuous
 62
     7
100
AcDbLine
 10
105.3714575778
 20
622.1813657383
 30
0.0
 11
105.3714575778
 21
622.3118919305
 31
0.0
  0
LINE
  5
13D
330
75
100
AcDbEntity
  8
$DDT_AUDIT_GENERATED_(D9)
  6
Continuous
 62
     7
100
AcDbLine
 10
105.3714575778
 20
622.3118919305
 30
0.0
 11
106.3714575778
 21
622.3118919305
 31
0.0
  0
LINE
  5
13E
330
75
100
AcDbEntity
  8
$DDT_AUDIT_GENERATED_(D9)
  6
Continuous
 62
     7
100
AcDbLine
 10
106.3714575778
 20
622.3118919305
 30
0.0
 11
106.3714575778
 21
622.1813657383
 31
0.0
  0
LINE
  5
13F
330
75
100
AcDbEntity
  8
$DDT_AUDIT_GENERATED_(D9)
  6
Continuous
 62
     7
100
AcDbLine
 10
105.1714575778
 20
622.1813657383
 30
0.0
 11
104.1714575778
 21
622.1813657383
 31
0.0
  0
LINE
  5
140
330
75
100
AcDbEntity
  8
$DDT_AUDIT_GENERATED_(D9)
  6
Continuous
 62
     7
100
AcDbLine
 10
104.1714575778
 20
622.1813657383
 30
0.0
 11
104.1714575778
 21
622.3118919305
 31
0.0
  0
LINE
  5
141
330
75
100
AcDbEntity
  8
$DDT_AUDIT_GENERATED_(D9)
  6
Continuous
 62
     7
100
AcDbLine
 10
104.1714575778
 20
622.3118919305
 30
0.0
 11
105.1714575778
 21
622.3118919305
 31
0.0
  0
LINE
  5
142
330
75
100
AcDbEntity
  8
$DDT_AUDIT_GENERATED_(D9)
  6
Continuous
 62
     7
100
AcDbLine
 10
105.1714575778
 20
622.3118919305
 30
0.0
 11
105.1714575778
 21
622.1813657383
 31
0.0
  0
LINE
  5
143
330
75
100
AcDbEntity
  8
$DDT_AUDIT_GENERATED_(D9)
  6
Continuous
 62
     7
100
AcDbLine
 10
103.9714575778
 20
622.1813657383
 30
0.0
 11
102.9714575778
 21
622.1813657383
 31
0.0
  0
LINE
  5
144
330
75
100
AcDbEntity
  8
$DDT_AUDIT_GENERATED_(D9)
  6
Continuous
 62
     7
100
AcDbLine
 10
102.9714575778
 20
622.1813657383
 30
0.0
 11
102.9714575778
 21
622.3118919305
 31
0.0
  0
LINE
  5
145
330
75
100
AcDbEntity
  8
$DDT_AUDIT_GENERATED_(D9)
  6
Continuous
 62
     7
100
AcDbLine
 10
102.9714575778
 20
622.3118919305
 30
0.0
 11
103.9714575778
 21
622.3118919305
 31
0.0
  0
LINE
  5
146
330
75
100
AcDbEntity
  8
$DDT_AUDIT_GENERATED_(D9)
  6
Continuous
 62
     7
100
AcDbLine
 10
103.9714575778
 20
622.3118919305
 30
0.0
 11
103.9714575778
 21
622.1813657383
 31
0.0
  0
LINE
  5
147
330
75
100
AcDbEntity
  8
$DDT_AUDIT_GENERATED_(D9)
  6
Continuous
 62
     7
100
AcDbLine
 10
102.7714575778
 20
622.1813657383
 30
0.0
 11
101.7714575778
 21
622.1813657383
 31
0.0
  0
LINE
  5
148
330
75
100
AcDbEntity
  8
$DDT_AUDIT_GENERATED_(D9)
  6
Continuous
 62
     7
100
AcDbLine
 10
101.7714575778
 20
622.1813657383
 30
0.0
 11
101.7714575778
 21
622.3118919305
 31
0.0
  0
LINE
  5
149
330
75
100
AcDbEntity
  8
$DDT_AUDIT_GENERATED_(D9)
  6
Continuous
 62
     7
100
AcDbLine
 10
101.7714575778
 20
622.3118919305
 30
0.0
 11
102.7714575778
 21
622.3118919305
 31
0.0
  0
LINE
  5
14A
330
75
100
AcDbEntity
  8
$DDT_AUDIT_GENERATED_(D9)
  6
Continuous
 62
     7
100
AcDbLine
 10
102.7714575778
 20
622.3118919305
 30
0.0
 11
102.7714575778
 21
622.1813657383
 31
0.0
  0
LINE
  5
14B
330
75
100
AcDbEntity
  8
$DDT_AUDIT_GENERATED_(D9)
  6
Continuous
 62
     7
100
AcDbLine
 10
107.5714575778
 20
622.0247343076
 30
0.0
 11
106.5714575778
 21
622.0247343076
 31
0.0
  0
LINE
  5
14C
330
75
100
AcDbEntity
  8
$DDT_AUDIT_GENERATED_(D9)
  6
Continuous
 62
     7
100
AcDbLine
 10
106.5714575778
 20
622.0247343076
 30
0.0
 11
106.5714575778
 21
622.1552604999
 31
0.0
  0
LINE
  5
14D
330
75
100
AcDbEntity
  8
$DDT_AUDIT_GENERATED_(D9)
  6
Continuous
 62
     7
100
AcDbLine
 10
106.5714575778
 20
622.1552604999
 30
0.0
 11
107.5714575778
 21
622.1552604999
 31
0.0
  0
LINE
  5
14E
330
75
100
AcDbEntity
  8
$DDT_AUDIT_GENERATED_(D9)
  6
Continuous
 62
     7
100
AcDbLine
 10
106.3714575778
 20
622.0247343076
 30
0.0
 11
105.3714575778
 21
622.0247343076
 31
0.0
  0
LINE
  5
14F
330
75
100
AcDbEntity
  8
$DDT_AUDIT_GENERATED_(D9)
  6
Continuous
 62
     7
100
AcDbLine
 10
105.3714575778
 20
622.0247343076
 30
0.0
 11
105.3714575778
 21
622.1552604999
 31
0.0
  0
LINE
  5
150
330
75
100
AcDbEntity
  8
$DDT_AUDIT_GENERATED_(D9)
  6
Continuous
 62
     7
100
AcDbLine
 10
105.3714575778
 20
622.1552604999
 30
0.0
 11
106.3714575778
 21
622.1552604999
 31
0.0
  0
LINE
  5
151
330
75
100
AcDbEntity
  8
$DDT_AUDIT_GENERATED_(D9)
  6
Continuous
 62
     7
100
AcDbLine
 10
106.3714575778
 20
622.1552604999
 30
0.0
 11
106.3714575778
 21
622.0247343076
 31
0.0
  0
LINE
  5
152
330
75
100
AcDbEntity
  8
$DDT_AUDIT_GENERATED_(D9)
  6
Continuous
 62
     7
100
AcDbLine
 10
105.1714575778
 20
622.0247343076
 30
0.0
 11
104.1714575778
 21
622.0247343076
 31
0.0
  0
LINE
  5
153
330
75
100
AcDbEntity
  8
$DDT_AUDIT_GENERATED_(D9)
  6
Continuous
 62
     7
100
AcDbLine
 10
104.1714575778
 20
622.0247343076
 30
0.0
 11
104.1714575778
 21
622.1552604999
 31
0.0
  0
LINE
  5
154
330
75
100
AcDbEntity
  8
$DDT_AUDIT_GENERATED_(D9)
  6
Continuous
 62
     7
100
AcDbLine
 10
104.1714575778
 20
622.1552604999
 30
0.0
 11
105.1714575778
 21
622.1552604999
 31
0.0
  0
LINE
  5
155
330
75
100
AcDbEntity
  8
$DDT_AUDIT_GENERATED_(D9)
  6
Continuous
 62
     7
100
AcDbLine
 10
105.1714575778
 20
622.1552604999
 30
0.0
 11
105.1714575778
 21
622.0247343076
 31
0.0
  0
LINE
  5
156
330
75
100
AcDbEntity
  8
$DDT_AUDIT_GENERATED_(D9)
  6
Continuous
 62
     7
100
AcDbLine
 10
103.9714575778
 20
622.0247343076
 30
0.0
 11
102.9714575778
 21
622.0247343076
 31
0.0
  0
LINE
  5
157
330
75
100
AcDbEntity
  8
$DDT_AUDIT_GENERATED_(D9)
  6
Continuous
 62
     7
100
AcDbLine
 10
102.9714575778
 20
622.0247343076
 30
0.0
 11
102.9714575778
 21
622.1552604999
 31
0.0
  0
LINE
  5
158
330
75
100
AcDbEntity
  8
$DDT_AUDIT_GENERATED_(D9)
  6
Continuous
 62
     7
100
AcDbLine
 10
102.9714575778
 20
622.1552604999
 30
0.0
 11
103.9714575778
 21
622.1552604999
 31
0.0
  0
LINE
  5
159
330
75
100
AcDbEntity
  8
$DDT_AUDIT_GENERATED_(D9)
  6
Continuous
 62
     7
100
AcDbLine
 10
103.9714575778
 20
622.1552604999
 30
0.0
 11
103.9714575778
 21
622.0247343076
 31
0.0
  0
LINE
  5
15A
330
75
100
AcDbEntity
  8
$DDT_AUDIT_GENERATED_(D9)
  6
Continuous
 62
     7
100
AcDbLine
 10
107.5714575778
 20
621.868102877
 30
0.0
 11
106.5714575778
 21
621.868102877
 31
0.0
  0
LINE
  5
15B
330
75
100
AcDbEntity
  8
$DDT_AUDIT_GENERATED_(D9)
  6
Continuous
 62
     7
100
AcDbLine
 10
106.5714575778
 20
621.868102877
 30
0.0
 11
106.5714575778
 21
621.9986290692
 31
0.0
  0
LINE
  5
15C
330
75
100
AcDbEntity
  8
$DDT_AUDIT_GENERATED_(D9)
  6
Continuous
 62
     7
100
AcDbLine
 10
106.5714575778
 20
621.9986290692
 30
0.0
 11
107.5714575778
 21
621.9986290692
 31
0.0
  0
LINE
  5
15D
330
75
100
AcDbEntity
  8
$DDT_AUDIT_GENERATED_(D9)
  6
Continuous
 62
     7
100
AcDbLine
 10
106.3714575778
 20
621.868102877
 30
0.0
 11
105.3714575778
 21
621.868102877
 31
0.0
  0
LINE
  5
15E
330
75
100
AcDbEntity
  8
$DDT_AUDIT_GENERATED_(D9)
  6
Continuous
 62
     7
100
AcDbLine
 10
105.3714575778
 20
621.868102877
 30
0.0
 11
105.3714575778
 21
621.9986290692
 31
0.0
  0
LINE
  5
15F
330
75
100
AcDbEntity
  8
$DDT_AUDIT_GENERATED_(D9)
  6
Continuous
 62
     7
100
AcDbLine
 10
105.3714575778
 20
621.9986290692
 30
0.0
 11
106.3714575778
 21
621.9986290692
 31
0.0
  0
LINE
  5
160
330
75
100
AcDbEntity
  8
$DDT_AUDIT_GENERATED_(D9)
  6
Continuous
 62
     7
100
AcDbLine
 10
106.3714575778
 20
621.9986290692
 30
0.0
 11
106.3714575778
 21
621.868102877
 31
0.0
  0
LINE
  5
161
330
75
100
AcDbEntity
  8
$DDT_AUDIT_GENERATED_(D9)
  6
Continuous
 62
     7
100
AcDbLine
 10
105.1714575778
 20
621.868102877
 30
0.0
 11
104.1714575778
 21
621.868102877
 31
0.0
  0
LINE
  5
162
330
75
100
AcDbEntity
  8
$DDT_AUDIT_GENERATED_(D9)
  6
Continuous
 62
     7
100
AcDbLine
 10
104.1714575778
 20
621.868102877
 30
0.0
 11
104.1714575778
 21
621.9986290692
 31
0.0
  0
LINE
  5
163
330
75
100
AcDbEntity
  8
$DDT_AUDIT_GENERATED_(D9)
  6
Continuous
 62
     7
100
AcDbLine
 10
104.1714575778
 20
621.9986290692
 30
0.0
 11
105.1714575778
 21
621.9986290692
 31
0.0
  0
LINE
  5
164
330
75
100
AcDbEntity
  8
$DDT_AUDIT_GENERATED_(D9)
  6
Continuous
 62
     7
100
AcDbLine
 10
105.1714575778
 20
621.9986290692
 30
0.0
 11
105.1714575778
 21
621.868102877
 31
0.0
  0
ARC
  5
165
330
75
100
AcDbEntity
  8
$DDT_AUDIT_GENERATED_(D9)
  6
Continuous
 62
     7
100
AcDbCircle
 10
107.0714575778
 20
684.8878109041
 30
0.0
 40
63.09149922450474
100
AcDbArc
 50
269.5459263135
 51
270.4540736865
  0
LINE
  5
166
330
75
100
AcDbEntity
  8
$DDT_AUDIT_GENERATED_(D9)
  6
Continuous
 62
     7
100
AcDbLine
 10
106.5714575778
 20
621.7982929602
 30
0.0
 11
106.5714575778
 21
621.8419976385
 31
0.0
  0
LINE
  5
167
330
75
100
AcDbEntity
  8
$DDT_AUDIT_GENERATED_(D9)
  6
Continuous
 62
     7
100
AcDbLine
 10
106.5714575778
 20
621.8419976385
 30
0.0
 11
107.5714575778
 21
621.8419976385
 31
0.0
  0
ELLIPSE
  5
168
330
75
100
AcDbEntity
  8
$DDT_AUDIT_GENERATED_(D9)
  6
Continuous
 62
     7
100
AcDbEllipse
 10
107.0714575778
 20
622.873154557
 30
0.0
 11
-8.249999999956168
 21
1.443289932012704E-12
 31
0.0
210
0.0
220
0.0
230
1.0
 40
0.1305261922
 41
1.363248876312242
 42
1.485845702910235
  0
LINE
  5
169
330
75
100
AcDbEntity
  8
$DDT_AUDIT_GENERATED_(D9)
  6
Continuous
 62
     7
100
AcDbLine
 10
105.3714575778
 20
621.819423309
 30
0.0
 11
105.3714575778
 21
621.8419976385
 31
0.0
  0
LINE
  5
16A
330
75
100
AcDbEntity
  8
$DDT_AUDIT_GENERATED_(D9)
  6
Continuous
 62
     7
100
AcDbLine
 10
105.3714575778
 20
621.8419976385
 30
0.0
 11
106.3714575778
 21
621.8419976385
 31
0.0
  0
LINE
  5
16B
330
75
100
AcDbEntity
  8
$DDT_AUDIT_GENERATED_(D9)
  6
Continuous
 62
     7
100
AcDbLine
 10
106.3714575778
 20
621.8419976385
 30
0.0
 11
106.3714575778
 21
621.8001967054
 31
0.0
  0
ELLIPSE
  5
16C
330
75
100
AcDbEntity
  8
$DDT_AUDIT_GENERATED_(D9)
  6
Continuous
 62
     7
100
AcDbEllipse
 10
107.0714575774
 20
622.8731545568
 30
0.0
 11
-8.249999999117723
 21
5.270783809407931E-11
 31
0.0
210
0.0
220
0.0
230
1.0
 40
0.1305261922
 41
1.278468933663542
 42
1.338407254341703
  0
LINE
  5
16D
330
75
100
AcDbEntity
  8
$DDT_AUDIT_GENERATED_(D9)
  6
Continuous
 62
     7
100
AcDbLine
 10
104.6939588922
 20
621.8419976385
 30
0.0
 11
105.1714575778
 21
621.8419976385
 31
0.0
  0
LINE
  5
16E
330
75
100
AcDbEntity
  8
$DDT_AUDIT_GENERATED_(D9)
  6
Continuous
 62
     7
100
AcDbLine
 10
105.1714575778
 20
621.8419976385
 30
0.0
 11
105.1714575778
 21
621.8252600774
 31
0.0
  0
ELLIPSE
  5
16F
330
75
100
AcDbEntity
  8
$DDT_AUDIT_GENERATED_(D9)
  6
Continuous
 62
     7
100
AcDbEllipse
 10
107.0714575778
 20
622.8731545571
 30
0.0
 11
-8.250000000070209
 21
-6.286637876939949E-12
 31
0.0
210
0.0
220
0.0
230
1.0
 40
0.1305261922
 41
1.050693123528117
 42
1.185582205129313
  0
LINE
  5
170
330
75
100
AcDbEntity
  8
$DDT_AUDIT_GENERATED_(D9)
  6
Continuous
 62
     7
100
AcDbLine
 10
102.9714575778
 20
621.9387064344
 30
0.0
 11
102.9714575778
 21
621.9986290692
 31
0.0
  0
LINE
  5
171
330
75
100
AcDbEntity
  8
$DDT_AUDIT_GENERATED_(D9)
  6
Continuous
 62
     7
100
AcDbLine
 10
102.9714575778
 20
621.9986290692
 30
0.0
 11
103.9714575778
 21
621.9986290692
 31
0.0
  0
LINE
  5
172
330
75
100
AcDbEntity
  8
$DDT_AUDIT_GENERATED_(D9)
  6
Continuous
 62
     7
100
AcDbLine
 10
103.9714575778
 20
621.9986290692
 30
0.0
 11
103.9714575778
 21
621.8752265439
 31
0.0
  0
ELLIPSE
  5
173
330
75
100
AcDbEntity
  8
$DDT_AUDIT_GENERATED_(D9)
  6
Continuous
 62
     7
100
AcDbEllipse
 10
107.0714575505
 20
622.8731545527
 30
0.0
 11
-8.24999996976333
 21
2.811542665348554E-9
 31
0.0
210
0.0
220
0.0
230
1.0
 40
0.1305261921
 41
0.8731388752056818
 42
0.9073568939266496
  0
LINE
  5
174
330
75
100
AcDbEntity
  8
$DDT_AUDIT_GENERATED_(D9)
  6
Continuous
 62
     7
100
AcDbLine
 10
101.7714575778
 20
622.047918255
 30
0.0
 11
101.7714575778
 21
622.1552604999
 31
0.0
  0
LINE
  5
175
330
75
100
AcDbEntity
  8
$DDT_AUDIT_GENERATED_(D9)
  6
Continuous
 62
     7
100
AcDbLine
 10
101.7714575778
 20
622.1552604999
 30
0.0
 11
102.7714575778
 21
622.1552604999
 31
0.0
  0
LINE
  5
176
330
75
100
AcDbEntity
  8
$DDT_AUDIT_GENERATED_(D9)
  6
Continuous
 62
     7
100
AcDbLine
 10
102.7714575778
 20
622.1552604999
 30
0.0
 11
102.7714575778
 21
622.0247343076
 31
0.0
  0
LINE
  5
177
330
75
100
AcDbEntity
  8
$DDT_AUDIT_GENERATED_(D9)
  6
Continuous
 62
     7
100
AcDbLine
 10
102.7714575778
 20
622.0247343076
 30
0.0
 11
101.9908572196
 21
622.0247343076
 31
0.0
  0
LINE
  5
178
330
75
100
AcDbEntity
  8
$DDT_AUDIT_GENERATED_(D9)
  6
Continuous
 62
     7
100
AcDbLine
 10
101.9908572196
 20
622.0247343076
 30
0.0
 11
101.9908572196
 21
622.1552604999
 31
0.0
  0
ELLIPSE
  5
179
330
75
100
AcDbEntity
  8
$DDT_AUDIT_GENERATED_(D9)
  6
Continuous
 62
     7
100
AcDbEllipse
 10
107.0714575781
 20
622.8731545571
 30
0.0
 11
-8.250000000371553
 21
-3.486100297322992E-11
 31
0.0
210
0.0
220
0.0
230
1.0
 40
0.1305261922
 41
0.9477783669571126
 42
1.022525692694384
  0
LINE
  5
17A
330
75
100
AcDbEntity
  8
$DDT_AUDIT_GENERATED_(D9)
  6
Continuous
 62
     7
100
AcDbLine
 10
102.2576752811
 20
621.9986290692
 30
0.0
 11
102.7714575778
 21
621.9986290692
 31
0.0
  0
LINE
  5
17B
330
75
100
AcDbEntity
  8
$DDT_AUDIT_GENERATED_(D9)
  6
Continuous
 62
     7
100
AcDbLine
 10
102.7714575778
 20
621.9986290692
 30
0.0
 11
102.7714575778
 21
621.9541491228
 31
0.0
  0
ELLIPSE
  5
17C
330
75
100
AcDbEntity
  8
$DDT_AUDIT_GENERATED_(D9)
  6
Continuous
 62
     7
100
AcDbEllipse
 10
107.0714575441
 20
622.8731545535
 30
0.0
 11
-8.249999965262957
 21
2.826322509363877E-9
 31
0.0
210
0.0
220
0.0
230
1.0
 40
0.1305261923
 41
0.6634394355184523
 42
0.6976574542393664
  0
LINE
  5
17D
330
75
100
AcDbEntity
  8
$DDT_AUDIT_GENERATED_(D9)
  6
Continuous
 62
     7
100
AcDbLine
 10
100.5714575778
 20
622.2100031381
 30
0.0
 11
100.5714575778
 21
622.3118919305
 31
0.0
  0
LINE
  5
17E
330
75
100
AcDbEntity
  8
$DDT_AUDIT_GENERATED_(D9)
  6
Continuous
 62
     7
100
AcDbLine
 10
100.5714575778
 20
622.3118919305
 30
0.0
 11
101.5714575778
 21
622.3118919305
 31
0.0
  0
LINE
  5
17F
330
75
100
AcDbEntity
  8
$DDT_AUDIT_GENERATED_(D9)
  6
Continuous
 62
     7
100
AcDbLine
 10
101.5714575778
 20
622.3118919305
 30
0.0
 11
101.5714575778
 21
622.1813657383
 31
0.0
  0
LINE
  5
180
330
75
100
AcDbEntity
  8
$DDT_AUDIT_GENERATED_(D9)
  6
Continuous
 62
     7
100
AcDbLine
 10
101.5714575778
 20
622.1813657383
 30
0.0
 11
100.7490766971
 21
622.1813657383
 31
0.0
  0
LINE
  5
181
330
75
100
AcDbEntity
  8
$DDT_AUDIT_GENERATED_(D9)
  6
Continuous
 62
     7
100
AcDbLine
 10
100.7490766971
 20
622.1813657383
 30
0.0
 11
100.7490766971
 21
622.3118919305
 31
0.0
  0
ELLIPSE
  5
182
330
75
100
AcDbEntity
  8
$DDT_AUDIT_GENERATED_(D9)
  6
Continuous
 62
     7
100
AcDbEllipse
 10
107.0714575783
 20
622.8731545571
 30
0.0
 11
-8.250000000569527
 21
-4.940492459581947E-11
 31
0.0
210
0.0
220
0.0
230
1.0
 40
0.1305261922
 41
0.729727656205726
 42
0.8410686705415631
  0
LINE
  5
183
330
75
100
AcDbEntity
  8
$DDT_AUDIT_GENERATED_(D9)
  6
Continuous
 62
     7
100
AcDbLine
 10
100.9222706397
 20
622.1552604999
 30
0.0
 11
101.5714575778
 21
622.1552604999
 31
0.0
  0
LINE
  5
184
330
75
100
AcDbEntity
  8
$DDT_AUDIT_GENERATED_(D9)
  6
Continuous
 62
     7
100
AcDbLine
 10
101.5714575778
 20
622.1552604999
 30
0.0
 11
101.5714575778
 21
622.0705246008
 31
0.0
  0
LINE
  5
185
330
75
100
AcDbEntity
  8
$DDT_AUDIT_GENERATED_(D9)
  6
Continuous
 62
     7
100
AcDbLine
 10
100.3714575778
 20
622.4946285996
 30
0.0
 11
99.3714575778
 21
622.4946285996
 31
0.0
  0
LINE
  5
186
330
75
100
AcDbEntity
  8
$DDT_AUDIT_GENERATED_(D9)
  6
Continuous
 62
     7
100
AcDbLine
 10
99.3714575778
 20
622.4946285996
 30
0.0
 11
99.3714575778
 21
622.6251547918
 31
0.0
  0
LINE
  5
187
330
75
100
AcDbEntity
  8
$DDT_AUDIT_GENERATED_(D9)
  6
Continuous
 62
     7
100
AcDbLine
 10
99.3714575778
 20
622.6251547918
 30
0.0
 11
100.3714575778
 21
622.6251547918
 31
0.0
  0
LINE
  5
188
330
75
100
AcDbEntity
  8
$DDT_AUDIT_GENERATED_(D9)
  6
Continuous
 62
     7
100
AcDbLine
 10
100.3714575778
 20
622.6251547918
 30
0.0
 11
100.3714575778
 21
622.4946285996
 31
0.0
  0
ELLIPSE
  5
189
330
75
100
AcDbEntity
  8
$DDT_AUDIT_GENERATED_(D9)
  6
Continuous
 62
     7
100
AcDbEllipse
 10
107.0714575778
 20
622.8731545571
 30
0.0
 11
-8.250000000048249
 21
-4.121702978920894E-12
 31
0.0
210
0.0
220
0.0
230
1.0
 40
0.1305261922
 41
0.3852141216610689
 42
0.5201032032628099
  0
LINE
  5
18A
330
75
100
AcDbEntity
  8
$DDT_AUDIT_GENERATED_(D9)
  6
Continuous
 62
     7
100
AcDbLine
 10
99.4260341101
 20
622.4685233612
 30
0.0
 11
100.3714575778
 21
622.4685233612
 31
0.0
  0
LINE
  5
18B
330
75
100
AcDbEntity
  8
$DDT_AUDIT_GENERATED_(D9)
  6
Continuous
 62
     7
100
AcDbLine
 10
100.3714575778
 20
622.4685233612
 30
0.0
 11
100.3714575778
 21
622.337997169
 31
0.0
  0
LINE
  5
18C
330
75
100
AcDbEntity
  8
$DDT_AUDIT_GENERATED_(D9)
  6
Continuous
 62
     7
100
AcDbLine
 10
100.3714575778
 20
622.337997169
 30
0.0
 11
99.9123724407
 21
622.337997169
 31
0.0
  0
LINE
  5
18D
330
75
100
AcDbEntity
  8
$DDT_AUDIT_GENERATED_(D9)
  6
Continuous
 62
     7
100
AcDbLine
 10
99.9123724407
 20
622.337997169
 30
0.0
 11
99.9123724407
 21
622.4685233612
 31
0.0
  0
ELLIPSE
  5
18E
330
75
100
AcDbEntity
  8
$DDT_AUDIT_GENERATED_(D9)
  6
Continuous
 62
     7
100
AcDbEllipse
 10
107.0714575768
 20
622.873154557
 30
0.0
 11
-8.249999999049063
 21
6.408762409648716E-11
 31
0.0
210
0.0
220
0.0
230
1.0
 40
0.1305261922
 41
0.548270634113237
 42
0.6230179598581962
  0
LINE
  5
18F
330
75
100
AcDbEntity
  8
$DDT_AUDIT_GENERATED_(D9)
  6
Continuous
 62
     7
100
AcDbLine
 10
100.0306834726
 20
622.3118919305
 30
0.0
 11
100.3714575778
 21
622.3118919305
 31
0.0
  0
LINE
  5
190
330
75
100
AcDbEntity
  8
$DDT_AUDIT_GENERATED_(D9)
  6
Continuous
 62
     7
100
AcDbLine
 10
100.3714575778
 20
622.3118919305
 30
0.0
 11
100.3714575778
 21
622.2448298837
 31
0.0
  0
ELLIPSE
  5
191
330
75
100
AcDbEntity
  8
$DDT_AUDIT_GENERATED_(D9)
  6
Continuous
 62
     7
100
AcDbEllipse
 10
107.071457578
 20
622.8731545571
 30
0.0
 11
-8.250000000258879
 21
-5.301314942585122E-12
 31
0.0
210
0.0
220
0.0
230
1.0
 40
0.1305261922
 41
0.1640860757341149
 42
0.2075474504797482
  0
LINE
  5
192
330
75
100
AcDbEntity
  8
$DDT_AUDIT_GENERATED_(D9)
  6
Continuous
 62
     7
100
AcDbLine
 10
99.1560828082
 20
622.7817862225
 30
0.0
 11
99.1714575778
 21
622.7817862225
 31
0.0
  0
LINE
  5
193
330
75
100
AcDbEntity
  8
$DDT_AUDIT_GENERATED_(D9)
  6
Continuous
 62
     7
100
AcDbLine
 10
99.1714575778
 20
622.7817862225
 30
0.0
 11
99.1714575778
 21
622.6512600303
 31
0.0
  0
LINE
  5
194
330
75
100
AcDbEntity
  8
$DDT_AUDIT_GENERATED_(D9)
  6
Continuous
 62
     7
100
AcDbLine
 10
99.1714575778
 20
622.6512600303
 30
0.0
 11
98.9985089219
 21
622.6512600303
 31
0.0
  0
LINE
  5
195
330
75
100
AcDbEntity
  8
$DDT_AUDIT_GENERATED_(D9)
  6
Continuous
 62
     7
100
AcDbLine
 10
98.9985089219
 20
622.6512600303
 30
0.0
 11
98.9985089219
 21
622.724678411
 31
0.0
  0
ELLIPSE
  5
196
330
75
100
AcDbEntity
  8
$DDT_AUDIT_GENERATED_(D9)
  6
Continuous
 62
     7
100
AcDbEllipse
 10
107.0714575762
 20
622.873154557
 30
0.0
 11
-8.249999998383187
 21
6.436517985264345E-11
 31
0.0
210
0.0
220
0.0
230
1.0
 40
0.1305261922
 41
0.2323890725046777
 42
0.292327393182898
  0
LINE
  5
197
330
75
100
AcDbEntity
  8
$DDT_AUDIT_GENERATED_(D9)
  6
Continuous
 62
     7
100
AcDbLine
 10
99.0432261412
 20
622.6251547918
 30
0.0
 11
99.1714575778
 21
622.6251547918
 31
0.0
  0
LINE
  5
198
330
75
100
AcDbEntity
  8
$DDT_AUDIT_GENERATED_(D9)
  6
Continuous
 62
     7
100
AcDbLine
 10
99.1714575778
 20
622.6251547918
 30
0.0
 11
99.1714575778
 21
622.5628287066
 31
0.0
  0
LINE
  5
199
330
75
100
AcDbEntity
  8
$DDT_AUDIT_GENERATED_(D9)
  6
Continuous
 62
     7
100
AcDbLine
 10
106.5714575778
 20
622.8078914609
 30
0.0
 11
106.5714575778
 21
622.9384176532
 31
0.0
  0
LINE
  5
19A
330
75
100
AcDbEntity
  8
$DDT_AUDIT_GENERATED_(D9)
  6
Continuous
 62
     7
100
AcDbLine
 10
107.5714575778
 20
622.8078914609
 30
0.0
 11
106.5714575778
 21
622.8078914609
 31
0.0
  0
LINE
  5
19B
330
75
100
AcDbEntity
  8
$DDT_AUDIT_GENERATED_(D9)
  6
Continuous
 62
     7
100
AcDbLine
 10
106.5714575778
 20
622.9645228916
 30
0.0
 11
106.5714575778
 21
623.0950490838
 31
0.0
  0
LINE
  5
19C
330
75
100
AcDbEntity
  8
$DDT_AUDIT_GENERATED_(D9)
  6
Continuous
 62
     7
100
AcDbLine
 10
106.5714575778
 20
623.0950490838
 30
0.0
 11
107.5714575778
 21
623.0950490838
 31
0.0
  0
LINE
  5
19D
330
75
100
AcDbEntity
  8
$DDT_AUDIT_GENERATED_(D9)
  6
Continuous
 62
     7
100
AcDbLine
 10
107.5714575778
 20
622.9645228916
 30
0.0
 11
106.5714575778
 21
622.9645228916
 31
0.0
  0
LINE
  5
19E
330
75
100
AcDbEntity
  8
$DDT_AUDIT_GENERATED_(D9)
  6
Continuous
 62
     7
100
AcDbLine
 10
106.5714575778
 20
623.1211543223
 30
0.0
 11
106.5714575778
 21
623.2516805145
 31
0.0
  0
LINE
  5
19F
330
75
100
AcDbEntity
  8
$DDT_AUDIT_GENERATED_(D9)
  6
Continuous
 62
     7
100
AcDbLine
 10
106.5714575778
 20
623.2516805145
 30
0.0
 11
107.5714575778
 21
623.2516805145
 31
0.0
  0
LINE
  5
1A0
330
75
100
AcDbEntity
  8
$DDT_AUDIT_GENERATED_(D9)
  6
Continuous
 62
     7
100
AcDbLine
 10
107.5714575778
 20
623.1211543223
 30
0.0
 11
106.5714575778
 21
623.1211543223
 31
0.0
  0
LINE
  5
1A1
330
75
100
AcDbEntity
  8
$DDT_AUDIT_GENERATED_(D9)
  6
Continuous
 62
     7
100
AcDbLine
 10
106.5714575778
 20
623.2777857529
 30
0.0
 11
106.5714575778
 21
623.4083119451
 31
0.0
  0
LINE
  5
1A2
330
75
100
AcDbEntity
  8
$DDT_AUDIT_GENERATED_(D9)
  6
Continuous
 62
     7
100
AcDbLine
 10
106.5714575778
 20
623.4083119451
 30
0.0
 11
107.5714575778
 21
623.4083119451
 31
0.0
  0
LINE
  5
1A3
330
75
100
AcDbEntity
  8
$DDT_AUDIT_GENERATED_(D9)
  6
Continuous
 62
     7
100
AcDbLine
 10
107.5714575778
 20
623.2777857529
 30
0.0
 11
106.5714575778
 21
623.2777857529
 31
0.0
  0
LINE
  5
1A4
330
75
100
AcDbEntity
  8
$DDT_AUDIT_GENERATED_(D9)
  6
Continuous
 62
     7
100
AcDbLine
 10
106.5714575778
 20
623.4344171836
 30
0.0
 11
106.5714575778
 21
623.484983594
 31
0.0
  0
LINE
  5
1A5
330
75
100
AcDbEntity
  8
$DDT_AUDIT_GENERATED_(D9)
  6
Continuous
 62
     7
100
AcDbLine
 10
107.5714575778
 20
623.4344171836
 30
0.0
 11
106.5714575778
 21
623.4344171836
 31
0.0
  0
LINE
  5
1A6
330
75
100
AcDbEntity
  8
$DDT_AUDIT_GENERATED_(D9)
  6
Continuous
 62
     7
100
AcDbLine
 10
105.3714575778
 20
622.9384176532
 30
0.0
 11
106.3714575778
 21
622.9384176532
 31
0.0
  0
LINE
  5
1A7
330
75
100
AcDbEntity
  8
$DDT_AUDIT_GENERATED_(D9)
  6
Continuous
 62
     7
100
AcDbLine
 10
105.3714575778
 20
622.9645228916
 30
0.0
 11
105.3714575778
 21
623.0950490838
 31
0.0
  0
LINE
  5
1A8
330
75
100
AcDbEntity
  8
$DDT_AUDIT_GENERATED_(D9)
  6
Continuous
 62
     7
100
AcDbLine
 10
105.3714575778
 20
623.0950490838
 30
0.0
 11
106.3714575778
 21
623.0950490838
 31
0.0
  0
LINE
  5
1A9
330
75
100
AcDbEntity
  8
$DDT_AUDIT_GENERATED_(D9)
  6
Continuous
 62
     7
100
AcDbLine
 10
106.3714575778
 20
623.0950490838
 30
0.0
 11
106.3714575778
 21
622.9645228916
 31
0.0
  0
LINE
  5
1AA
330
75
100
AcDbEntity
  8
$DDT_AUDIT_GENERATED_(D9)
  6
Continuous
 62
     7
100
AcDbLine
 10
106.3714575778
 20
622.9645228916
 30
0.0
 11
105.3714575778
 21
622.9645228916
 31
0.0
  0
LINE
  5
1AB
330
75
100
AcDbEntity
  8
$DDT_AUDIT_GENERATED_(D9)
  6
Continuous
 62
     7
100
AcDbLine
 10
105.3714575778
 20
623.1211543223
 30
0.0
 11
105.3714575778
 21
623.2516805145
 31
0.0
  0
LINE
  5
1AC
330
75
100
AcDbEntity
  8
$DDT_AUDIT_GENERATED_(D9)
  6
Continuous
 62
     7
100
AcDbLine
 10
105.3714575778
 20
623.2516805145
 30
0.0
 11
106.3714575778
 21
623.2516805145
 31
0.0
  0
LINE
  5
1AD
330
75
100
AcDbEntity
  8
$DDT_AUDIT_GENERATED_(D9)
  6
Continuous
 62
     7
100
AcDbLine
 10
106.3714575778
 20
623.2516805145
 30
0.0
 11
106.3714575778
 21
623.1211543223
 31
0.0
  0
LINE
  5
1AE
330
75
100
AcDbEntity
  8
$DDT_AUDIT_GENERATED_(D9)
  6
Continuous
 62
     7
100
AcDbLine
 10
106.3714575778
 20
623.1211543223
 30
0.0
 11
105.3714575778
 21
623.1211543223
 31
0.0
  0
LINE
  5
1AF
330
75
100
AcDbEntity
  8
$DDT_AUDIT_GENERATED_(D9)
  6
Continuous
 62
     7
100
AcDbLine
 10
105.3714575778
 20
623.2777857529
 30
0.0
 11
105.3714575778
 21
623.4083119451
 31
0.0
  0
LINE
  5
1B0
330
75
100
AcDbEntity
  8
$DDT_AUDIT_GENERATED_(D9)
  6
Continuous
 62
     7
100
AcDbLine
 10
105.3714575778
 20
623.4083119451
 30
0.0
 11
106.3714575778
 21
623.4083119451
 31
0.0
  0
LINE
  5
1B1
330
75
100
AcDbEntity
  8
$DDT_AUDIT_GENERATED_(D9)
  6
Continuous
 62
     7
100
AcDbLine
 10
106.3714575778
 20
623.4083119451
 30
0.0
 11
106.3714575778
 21
623.2777857529
 31
0.0
  0
LINE
  5
1B2
330
75
100
AcDbEntity
  8
$DDT_AUDIT_GENERATED_(D9)
  6
Continuous
 62
     7
100
AcDbLine
 10
106.3714575778
 20
623.2777857529
 30
0.0
 11
105.3714575778
 21
623.2777857529
 31
0.0
  0
LINE
  5
1B3
330
75
100
AcDbEntity
  8
$DDT_AUDIT_GENERATED_(D9)
  6
Continuous
 62
     7
100
AcDbLine
 10
105.3714575778
 20
623.4344171836
 30
0.0
 11
105.3714575778
 21
623.464488861
 31
0.0
  0
LINE
  5
1B4
330
75
100
AcDbEntity
  8
$DDT_AUDIT_GENERATED_(D9)
  6
Continuous
 62
     7
100
AcDbLine
 10
106.3714575778
 20
623.4831361341
 30
0.0
 11
106.3714575778
 21
623.4344171836
 31
0.0
  0
LINE
  5
1B5
330
75
100
AcDbEntity
  8
$DDT_AUDIT_GENERATED_(D9)
  6
Continuous
 62
     7
100
AcDbLine
 10
106.3714575778
 20
623.4344171836
 30
0.0
 11
105.3714575778
 21
623.4344171836
 31
0.0
  0
LINE
  5
1B6
330
75
100
AcDbEntity
  8
$DDT_AUDIT_GENERATED_(D9)
  6
Continuous
 62
     7
100
AcDbLine
 10
104.1714575778
 20
622.9384176532
 30
0.0
 11
105.1714575778
 21
622.9384176532
 31
0.0
  0
LINE
  5
1B7
330
75
100
AcDbEntity
  8
$DDT_AUDIT_GENERATED_(D9)
  6
Continuous
 62
     7
100
AcDbLine
 10
104.1714575778
 20
622.9645228916
 30
0.0
 11
104.1714575778
 21
623.0950490838
 31
0.0
  0
LINE
  5
1B8
330
75
100
AcDbEntity
  8
$DDT_AUDIT_GENERATED_(D9)
  6
Continuous
 62
     7
100
AcDbLine
 10
104.1714575778
 20
623.0950490838
 30
0.0
 11
105.1714575778
 21
623.0950490838
 31
0.0
  0
LINE
  5
1B9
330
75
100
AcDbEntity
  8
$DDT_AUDIT_GENERATED_(D9)
  6
Continuous
 62
     7
100
AcDbLine
 10
105.1714575778
 20
623.0950490838
 30
0.0
 11
105.1714575778
 21
622.9645228916
 31
0.0
  0
LINE
  5
1BA
330
75
100
AcDbEntity
  8
$DDT_AUDIT_GENERATED_(D9)
  6
Continuous
 62
     7
100
AcDbLine
 10
105.1714575778
 20
622.9645228916
 30
0.0
 11
104.1714575778
 21
622.9645228916
 31
0.0
  0
LINE
  5
1BB
330
75
100
AcDbEntity
  8
$DDT_AUDIT_GENERATED_(D9)
  6
Continuous
 62
     7
100
AcDbLine
 10
104.1714575778
 20
623.1211543223
 30
0.0
 11
104.1714575778
 21
623.2516805145
 31
0.0
  0
LINE
  5
1BC
330
75
100
AcDbEntity
  8
$DDT_AUDIT_GENERATED_(D9)
  6
Continuous
 62
     7
100
AcDbLine
 10
104.1714575778
 20
623.2516805145
 30
0.0
 11
105.1714575778
 21
623.2516805145
 31
0.0
  0
LINE
  5
1BD
330
75
100
AcDbEntity
  8
$DDT_AUDIT_GENERATED_(D9)
  6
Continuous
 62
     7
100
AcDbLine
 10
105.1714575778
 20
623.2516805145
 30
0.0
 11
105.1714575778
 21
623.1211543223
 31
0.0
  0
LINE
  5
1BE
330
75
100
AcDbEntity
  8
$DDT_AUDIT_GENERATED_(D9)
  6
Continuous
 62
     7
100
AcDbLine
 10
105.1714575778
 20
623.1211543223
 30
0.0
 11
104.1714575778
 21
623.1211543223
 31
0.0
  0
LINE
  5
1BF
330
75
100
AcDbEntity
  8
$DDT_AUDIT_GENERATED_(D9)
  6
Continuous
 62
     7
100
AcDbLine
 10
104.1714575778
 20
623.2777857529
 30
0.0
 11
104.1714575778
 21
623.4083119451
 31
0.0
  0
LINE
  5
1C0
330
75
100
AcDbEntity
  8
$DDT_AUDIT_GENERATED_(D9)
  6
Continuous
 62
     7
100
AcDbLine
 10
104.1714575778
 20
623.4083119451
 30
0.0
 11
105.1714575778
 21
623.4083119451
 31
0.0
  0
LINE
  5
1C1
330
75
100
AcDbEntity
  8
$DDT_AUDIT_GENERATED_(D9)
  6
Continuous
 62
     7
100
AcDbLine
 10
105.1714575778
 20
623.4083119451
 30
0.0
 11
105.1714575778
 21
623.2777857529
 31
0.0
  0
LINE
  5
1C2
330
75
100
AcDbEntity
  8
$DDT_AUDIT_GENERATED_(D9)
  6
Continuous
 62
     7
100
AcDbLine
 10
105.1714575778
 20
623.2777857529
 30
0.0
 11
104.1714575778
 21
623.2777857529
 31
0.0
  0
LINE
  5
1C3
330
75
100
AcDbEntity
  8
$DDT_AUDIT_GENERATED_(D9)
  6
Continuous
 62
     7
100
AcDbLine
 10
105.1714575778
 20
623.4588319792
 30
0.0
 11
105.1714575778
 21
623.4344171836
 31
0.0
  0
LINE
  5
1C4
330
75
100
AcDbEntity
  8
$DDT_AUDIT_GENERATED_(D9)
  6
Continuous
 62
     7
100
AcDbLine
 10
105.1714575778
 20
623.4344171836
 30
0.0
 11
104.4879740422
 21
623.4344171836
 31
0.0
  0
LINE
  5
1C5
330
75
100
AcDbEntity
  8
$DDT_AUDIT_GENERATED_(D9)
  6
Continuous
 62
     7
100
AcDbLine
 10
102.9714575778
 20
622.9384176532
 30
0.0
 11
103.9714575778
 21
622.9384176532
 31
0.0
  0
LINE
  5
1C6
330
75
100
AcDbEntity
  8
$DDT_AUDIT_GENERATED_(D9)
  6
Continuous
 62
     7
100
AcDbLine
 10
102.9714575778
 20
622.9645228916
 30
0.0
 11
102.9714575778
 21
623.0950490838
 31
0.0
  0
LINE
  5
1C7
330
75
100
AcDbEntity
  8
$DDT_AUDIT_GENERATED_(D9)
  6
Continuous
 62
     7
100
AcDbLine
 10
102.9714575778
 20
623.0950490838
 30
0.0
 11
103.9714575778
 21
623.0950490838
 31
0.0
  0
LINE
  5
1C8
330
75
100
AcDbEntity
  8
$DDT_AUDIT_GENERATED_(D9)
  6
Continuous
 62
     7
100
AcDbLine
 10
103.9714575778
 20
623.0950490838
 30
0.0
 11
103.9714575778
 21
622.9645228916
 31
0.0
  0
LINE
  5
1C9
330
75
100
AcDbEntity
  8
$DDT_AUDIT_GENERATED_(D9)
  6
Continuous
 62
     7
100
AcDbLine
 10
103.9714575778
 20
622.9645228916
 30
0.0
 11
102.9714575778
 21
622.9645228916
 31
0.0
  0
LINE
  5
1CA
330
75
100
AcDbEntity
  8
$DDT_AUDIT_GENERATED_(D9)
  6
Continuous
 62
     7
100
AcDbLine
 10
102.9714575778
 20
623.1211543223
 30
0.0
 11
102.9714575778
 21
623.2516805145
 31
0.0
  0
LINE
  5
1CB
330
75
100
AcDbEntity
  8
$DDT_AUDIT_GENERATED_(D9)
  6
Continuous
 62
     7
100
AcDbLine
 10
102.9714575778
 20
623.2516805145
 30
0.0
 11
103.9714575778
 21
623.2516805145
 31
0.0
  0
LINE
  5
1CC
330
75
100
AcDbEntity
  8
$DDT_AUDIT_GENERATED_(D9)
  6
Continuous
 62
     7
100
AcDbLine
 10
103.9714575778
 20
623.2516805145
 30
0.0
 11
103.9714575778
 21
623.1211543223
 31
0.0
  0
LINE
  5
1CD
330
75
100
AcDbEntity
  8
$DDT_AUDIT_GENERATED_(D9)
  6
Continuous
 62
     7
100
AcDbLine
 10
103.9714575778
 20
623.1211543223
 30
0.0
 11
102.9714575778
 21
623.1211543223
 31
0.0
  0
LINE
  5
1CE
330
75
100
AcDbEntity
  8
$DDT_AUDIT_GENERATED_(D9)
  6
Continuous
 62
     7
100
AcDbLine
 10
102.9714575778
 20
623.2777857529
 30
0.0
 11
102.9714575778
 21
623.349304595
 31
0.0
  0
LINE
  5
1CF
330
75
100
AcDbEntity
  8
$DDT_AUDIT_GENERATED_(D9)
  6
Continuous
 62
     7
100
AcDbLine
 10
103.9292389347
 20
623.4083119451
 30
0.0
 11
103.9714575778
 21
623.4083119451
 31
0.0
  0
LINE
  5
1D0
330
75
100
AcDbEntity
  8
$DDT_AUDIT_GENERATED_(D9)
  6
Continuous
 62
     7
100
AcDbLine
 10
103.9714575778
 20
623.4083119451
 30
0.0
 11
103.9714575778
 21
623.2777857529
 31
0.0
  0
LINE
  5
1D1
330
75
100
AcDbEntity
  8
$DDT_AUDIT_GENERATED_(D9)
  6
Continuous
 62
     7
100
AcDbLine
 10
103.9714575778
 20
623.2777857529
 30
0.0
 11
102.9714575778
 21
623.2777857529
 31
0.0
  0
LINE
  5
1D2
330
75
100
AcDbEntity
  8
$DDT_AUDIT_GENERATED_(D9)
  6
Continuous
 62
     7
100
AcDbLine
 10
101.7714575778
 20
622.9384176532
 30
0.0
 11
102.7714575778
 21
622.9384176532
 31
0.0
  0
LINE
  5
1D3
330
75
100
AcDbEntity
  8
$DDT_AUDIT_GENERATED_(D9)
  6
Continuous
 62
     7
100
AcDbLine
 10
101.7714575778
 20
622.9645228916
 30
0.0
 11
101.7714575778
 21
623.0950490838
 31
0.0
  0
LINE
  5
1D4
330
75
100
AcDbEntity
  8
$DDT_AUDIT_GENERATED_(D9)
  6
Continuous
 62
     7
100
AcDbLine
 10
101.7714575778
 20
623.0950490838
 30
0.0
 11
102.7714575778
 21
623.0950490838
 31
0.0
  0
LINE
  5
1D5
330
75
100
AcDbEntity
  8
$DDT_AUDIT_GENERATED_(D9)
  6
Continuous
 62
     7
100
AcDbLine
 10
102.7714575778
 20
623.0950490838
 30
0.0
 11
102.7714575778
 21
622.9645228916
 31
0.0
  0
LINE
  5
1D6
330
75
100
AcDbEntity
  8
$DDT_AUDIT_GENERATED_(D9)
  6
Continuous
 62
     7
100
AcDbLine
 10
102.7714575778
 20
622.9645228916
 30
0.0
 11
101.7714575778
 21
622.9645228916
 31
0.0
  0
LINE
  5
1D7
330
75
100
AcDbEntity
  8
$DDT_AUDIT_GENERATED_(D9)
  6
Continuous
 62
     7
100
AcDbLine
 10
101.7714575778
 20
623.1211543223
 30
0.0
 11
101.7714575778
 21
623.2448177128
 31
0.0
  0
LINE
  5
1D8
330
75
100
AcDbEntity
  8
$DDT_AUDIT_GENERATED_(D9)
  6
Continuous
 62
     7
100
AcDbLine
 10
101.8380606946
 20
623.2516805145
 30
0.0
 11
102.7714575778
 21
623.2516805145
 31
0.0
  0
LINE
  5
1D9
330
75
100
AcDbEntity
  8
$DDT_AUDIT_GENERATED_(D9)
  6
Continuous
 62
     7
100
AcDbLine
 10
102.7714575778
 20
623.2516805145
 30
0.0
 11
102.7714575778
 21
623.1211543223
 31
0.0
  0
LINE
  5
1DA
330
75
100
AcDbEntity
  8
$DDT_AUDIT_GENERATED_(D9)
  6
Continuous
 62
     7
100
AcDbLine
 10
102.7714575778
 20
623.1211543223
 30
0.0
 11
101.7714575778
 21
623.1211543223
 31
0.0
  0
LINE
  5
1DB
330
75
100
AcDbEntity
  8
$DDT_AUDIT_GENERATED_(D9)
  6
Continuous
 62
     7
100
AcDbLine
 10
102.7714575778
 20
623.334465976
 30
0.0
 11
102.7714575778
 21
623.2777857529
 31
0.0
  0
LINE
  5
1DC
330
75
100
AcDbEntity
  8
$DDT_AUDIT_GENERATED_(D9)
  6
Continuous
 62
     7
100
AcDbLine
 10
102.7714575778
 20
623.2777857529
 30
0.0
 11
102.1046384635
 21
623.2777857529
 31
0.0
  0
LINE
  5
1DD
330
75
100
AcDbEntity
  8
$DDT_AUDIT_GENERATED_(D9)
  6
Continuous
 62
     7
100
AcDbLine
 10
100.5714575778
 20
622.9384176532
 30
0.0
 11
101.5714575778
 21
622.9384176532
 31
0.0
  0
LINE
  5
1DE
330
75
100
AcDbEntity
  8
$DDT_AUDIT_GENERATED_(D9)
  6
Continuous
 62
     7
100
AcDbLine
 10
100.5714575778
 20
622.9645228916
 30
0.0
 11
100.5714575778
 21
623.0923535246
 31
0.0
  0
LINE
  5
1DF
330
75
100
AcDbEntity
  8
$DDT_AUDIT_GENERATED_(D9)
  6
Continuous
 62
     7
100
AcDbLine
 10
100.5889158022
 20
623.0950490838
 30
0.0
 11
101.5714575778
 21
623.0950490838
 31
0.0
  0
LINE
  5
1E0
330
75
100
AcDbEntity
  8
$DDT_AUDIT_GENERATED_(D9)
  6
Continuous
 62
     7
100
AcDbLine
 10
101.5714575778
 20
623.0950490838
 30
0.0
 11
101.5714575778
 21
622.9645228916
 31
0.0
  0
LINE
  5
1E1
330
75
100
AcDbEntity
  8
$DDT_AUDIT_GENERATED_(D9)
  6
Continuous
 62
     7
100
AcDbLine
 10
101.5714575778
 20
622.9645228916
 30
0.0
 11
100.5714575778
 21
622.9645228916
 31
0.0
  0
LINE
  5
1E2
330
75
100
AcDbEntity
  8
$DDT_AUDIT_GENERATED_(D9)
  6
Continuous
 62
     7
100
AcDbLine
 10
101.5714575778
 20
623.2233385325
 30
0.0
 11
101.5714575778
 21
623.1211543223
 31
0.0
  0
LINE
  5
1E3
330
75
100
AcDbEntity
  8
$DDT_AUDIT_GENERATED_(D9)
  6
Continuous
 62
     7
100
AcDbLine
 10
101.5714575778
 20
623.1211543223
 30
0.0
 11
100.7639860519
 21
623.1211543223
 31
0.0
  0
LINE
  5
1E4
330
75
100
AcDbEntity
  8
$DDT_AUDIT_GENERATED_(D9)
  6
Continuous
 62
     7
100
AcDbLine
 10
99.7380918561
 20
622.9384176532
 30
0.0
 11
100.3714575778
 21
622.9384176532
 31
0.0
  0
LINE
  5
1E5
330
75
100
AcDbEntity
  8
$DDT_AUDIT_GENERATED_(D9)
  6
Continuous
 62
     7
100
AcDbLine
 10
100.3714575778
 20
623.060172704
 30
0.0
 11
100.3714575778
 21
622.9645228916
 31
0.0
  0
LINE
  5
1E6
330
75
100
AcDbEntity
  8
$DDT_AUDIT_GENERATED_(D9)
  6
Continuous
 62
     7
100
AcDbLine
 10
100.3714575778
 20
622.9645228916
 30
0.0
 11
99.8590306641
 21
622.9645228916
 31
0.0
  0
LINE
  5
1E7
330
75
100
AcDbEntity
  8
$DDT_AUDIT_GENERATED_(D9)
  6
Continuous
 62
     7
100
AcDbLine
 10
106.5714575778
 20
622.9384176532
 30
0.0
 11
107.5714575778
 21
622.9384176532
 31
0.0
  0
LINE
  5
1E8
330
75
100
AcDbEntity
  8
$DDT_AUDIT_GENERATED_(D9)
  6
Continuous
 62
     7
100
AcDbLine
 10
107.7714575778
 20
622.9384176532
 30
0.0
 11
108.7714575778
 21
622.9384176532
 31
0.0
  0
LINE
  5
1E9
330
75
100
AcDbEntity
  8
$DDT_AUDIT_GENERATED_(D9)
  6
Continuous
 62
     7
100
AcDbLine
 10
108.7714575778
 20
622.9384176532
 30
0.0
 11
108.7714575778
 21
622.8078914609
 31
0.0
  0
LINE
  5
1EA
330
75
100
AcDbEntity
  8
$DDT_AUDIT_GENERATED_(D9)
  6
Continuous
 62
     7
100
AcDbLine
 10
107.7714575778
 20
622.8078914609
 30
0.0
 11
107.7714575778
 21
622.9384176532
 31
0.0
  0
LINE
  5
1EB
330
75
100
AcDbEntity
  8
$DDT_AUDIT_GENERATED_(D9)
  6
Continuous
 62
     7
100
AcDbLine
 10
108.9714575778
 20
622.9384176532
 30
0.0
 11
109.9714575778
 21
622.9384176532
 31
0.0
  0
LINE
  5
1EC
330
75
100
AcDbEntity
  8
$DDT_AUDIT_GENERATED_(D9)
  6
Continuous
 62
     7
100
AcDbLine
 10
109.9714575778
 20
622.9384176532
 30
0.0
 11
109.9714575778
 21
622.8078914609
 31
0.0
  0
LINE
  5
1ED
330
75
100
AcDbEntity
  8
$DDT_AUDIT_GENERATED_(D9)
  6
Continuous
 62
     7
100
AcDbLine
 10
108.9714575778
 20
622.8078914609
 30
0.0
 11
108.9714575778
 21
622.9384176532
 31
0.0
  0
LINE
  5
1EE
330
75
100
AcDbEntity
  8
$DDT_AUDIT_GENERATED_(D9)
  6
Continuous
 62
     7
100
AcDbLine
 10
110.1714575778
 20
622.9384176532
 30
0.0
 11
111.1714575778
 21
622.9384176532
 31
0.0
  0
LINE
  5
1EF
330
75
100
AcDbEntity
  8
$DDT_AUDIT_GENERATED_(D9)
  6
Continuous
 62
     7
100
AcDbLine
 10
111.1714575778
 20
622.9384176532
 30
0.0
 11
111.1714575778
 21
622.8078914609
 31
0.0
  0
LINE
  5
1F0
330
75
100
AcDbEntity
  8
$DDT_AUDIT_GENERATED_(D9)
  6
Continuous
 62
     7
100
AcDbLine
 10
110.1714575778
 20
622.8078914609
 30
0.0
 11
110.1714575778
 21
622.9384176532
 31
0.0
  0
LINE
  5
1F1
330
75
100
AcDbEntity
  8
$DDT_AUDIT_GENERATED_(D9)
  6
Continuous
 62
     7
100
AcDbLine
 10
111.3714575778
 20
622.9384176532
 30
0.0
 11
112.3714575778
 21
622.9384176532
 31
0.0
  0
LINE
  5
1F2
330
75
100
AcDbEntity
  8
$DDT_AUDIT_GENERATED_(D9)
  6
Continuous
 62
     7
100
AcDbLine
 10
112.3714575778
 20
622.9384176532
 30
0.0
 11
112.3714575778
 21
622.8078914609
 31
0.0
  0
LINE
  5
1F3
330
75
100
AcDbEntity
  8
$DDT_AUDIT_GENERATED_(D9)
  6
Continuous
 62
     7
100
AcDbLine
 10
111.3714575778
 20
622.8078914609
 30
0.0
 11
111.3714575778
 21
622.9384176532
 31
0.0
  0
LINE
  5
1F4
330
75
100
AcDbEntity
  8
$DDT_AUDIT_GENERATED_(D9)
  6
Continuous
 62
     7
100
AcDbLine
 10
112.5714575778
 20
622.9384176532
 30
0.0
 11
113.5714575778
 21
622.9384176532
 31
0.0
  0
LINE
  5
1F5
330
75
100
AcDbEntity
  8
$DDT_AUDIT_GENERATED_(D9)
  6
Continuous
 62
     7
100
AcDbLine
 10
113.5714575778
 20
622.9384176532
 30
0.0
 11
113.5714575778
 21
622.8078914609
 31
0.0
  0
LINE
  5
1F6
330
75
100
AcDbEntity
  8
$DDT_AUDIT_GENERATED_(D9)
  6
Continuous
 62
     7
100
AcDbLine
 10
112.5714575778
 20
622.8078914609
 30
0.0
 11
112.5714575778
 21
622.9384176532
 31
0.0
  0
LINE
  5
1F7
330
75
100
AcDbEntity
  8
$DDT_AUDIT_GENERATED_(D9)
  6
Continuous
 62
     7
100
AcDbLine
 10
113.7714575778
 20
622.9384176532
 30
0.0
 11
114.4048232994
 21
622.9384176532
 31
0.0
  0
LINE
  5
1F8
330
75
100
AcDbEntity
  8
$DDT_AUDIT_GENERATED_(D9)
  6
Continuous
 62
     7
100
AcDbLine
 10
114.7714575778
 20
622.8473264183
 30
0.0
 11
114.7714575778
 21
622.8078914609
 31
0.0
  0
LINE
  5
1F9
330
75
100
AcDbEntity
  8
$DDT_AUDIT_GENERATED_(D9)
  6
Continuous
 62
     7
100
AcDbLine
 10
113.7714575778
 20
622.8078914609
 30
0.0
 11
113.7714575778
 21
622.9384176532
 31
0.0
  0
LINE
  5
1FA
330
75
100
AcDbEntity
  8
$DDT_AUDIT_GENERATED_(D9)
  6
Continuous
 62
     7
100
AcDbLine
 10
107.5714575778
 20
623.0950490838
 30
0.0
 11
107.5714575778
 21
622.9645228916
 31
0.0
  0
LINE
  5
1FB
330
75
100
AcDbEntity
  8
$DDT_AUDIT_GENERATED_(D9)
  6
Continuous
 62
     7
100
AcDbLine
 10
107.7714575778
 20
623.0950490838
 30
0.0
 11
108.7714575778
 21
623.0950490838
 31
0.0
  0
LINE
  5
1FC
330
75
100
AcDbEntity
  8
$DDT_AUDIT_GENERATED_(D9)
  6
Continuous
 62
     7
100
AcDbLine
 10
108.7714575778
 20
623.0950490838
 30
0.0
 11
108.7714575778
 21
622.9645228916
 31
0.0
  0
LINE
  5
1FD
330
75
100
AcDbEntity
  8
$DDT_AUDIT_GENERATED_(D9)
  6
Continuous
 62
     7
100
AcDbLine
 10
108.7714575778
 20
622.9645228916
 30
0.0
 11
107.7714575778
 21
622.9645228916
 31
0.0
  0
LINE
  5
1FE
330
75
100
AcDbEntity
  8
$DDT_AUDIT_GENERATED_(D9)
  6
Continuous
 62
     7
100
AcDbLine
 10
107.7714575778
 20
622.9645228916
 30
0.0
 11
107.7714575778
 21
623.0950490838
 31
0.0
  0
LINE
  5
1FF
330
75
100
AcDbEntity
  8
$DDT_AUDIT_GENERATED_(D9)
  6
Continuous
 62
     7
100
AcDbLine
 10
108.9714575778
 20
623.0950490838
 30
0.0
 11
109.9714575778
 21
623.0950490838
 31
0.0
  0
LINE
  5
200
330
75
100
AcDbEntity
  8
$DDT_AUDIT_GENERATED_(D9)
  6
Continuous
 62
     7
100
AcDbLine
 10
109.9714575778
 20
623.0950490838
 30
0.0
 11
109.9714575778
 21
622.9645228916
 31
0.0
  0
LINE
  5
201
330
75
100
AcDbEntity
  8
$DDT_AUDIT_GENERATED_(D9)
  6
Continuous
 62
     7
100
AcDbLine
 10
109.9714575778
 20
622.9645228916
 30
0.0
 11
108.9714575778
 21
622.9645228916
 31
0.0
  0
LINE
  5
202
330
75
100
AcDbEntity
  8
$DDT_AUDIT_GENERATED_(D9)
  6
Continuous
 62
     7
100
AcDbLine
 10
108.9714575778
 20
622.9645228916
 30
0.0
 11
108.9714575778
 21
623.0950490838
 31
0.0
  0
LINE
  5
203
330
75
100
AcDbEntity
  8
$DDT_AUDIT_GENERATED_(D9)
  6
Continuous
 62
     7
100
AcDbLine
 10
110.1714575778
 20
623.0950490838
 30
0.0
 11
111.1714575778
 21
623.0950490838
 31
0.0
  0
LINE
  5
204
330
75
100
AcDbEntity
  8
$DDT_AUDIT_GENERATED_(D9)
  6
Continuous
 62
     7
100
AcDbLine
 10
111.1714575778
 20
623.0950490838
 30
0.0
 11
111.1714575778
 21
622.9645228916
 31
0.0
  0
LINE
  5
205
330
75
100
AcDbEntity
  8
$DDT_AUDIT_GENERATED_(D9)
  6
Continuous
 62
     7
100
AcDbLine
 10
111.1714575778
 20
622.9645228916
 30
0.0
 11
110.1714575778
 21
622.9645228916
 31
0.0
  0
LINE
  5
206
330
75
100
AcDbEntity
  8
$DDT_AUDIT_GENERATED_(D9)
  6
Continuous
 62
     7
100
AcDbLine
 10
110.1714575778
 20
622.9645228916
 30
0.0
 11
110.1714575778
 21
623.0950490838
 31
0.0
  0
LINE
  5
207
330
75
100
AcDbEntity
  8
$DDT_AUDIT_GENERATED_(D9)
  6
Continuous
 62
     7
100
AcDbLine
 10
111.3714575778
 20
623.0950490838
 30
0.0
 11
112.3714575778
 21
623.0950490838
 31
0.0
  0
LINE
  5
208
330
75
100
AcDbEntity
  8
$DDT_AUDIT_GENERATED_(D9)
  6
Continuous
 62
     7
100
AcDbLine
 10
112.3714575778
 20
623.0950490838
 30
0.0
 11
112.3714575778
 21
622.9645228916
 31
0.0
  0
LINE
  5
209
330
75
100
AcDbEntity
  8
$DDT_AUDIT_GENERATED_(D9)
  6
Continuous
 62
     7
100
AcDbLine
 10
112.3714575778
 20
622.9645228916
 30
0.0
 11
111.3714575778
 21
622.9645228916
 31
0.0
  0
LINE
  5
20A
330
75
100
AcDbEntity
  8
$DDT_AUDIT_GENERATED_(D9)
  6
Continuous
 62
     7
100
AcDbLine
 10
111.3714575778
 20
622.9645228916
 30
0.0
 11
111.3714575778
 21
623.0950490838
 31
0.0
  0
LINE
  5
20B
330
75
100
AcDbEntity
  8
$DDT_AUDIT_GENERATED_(D9)
  6
Continuous
 62
     7
100
AcDbLine
 10
112.5714575778
 20
623.0950490838
 30
0.0
 11
113.5539993534
 21
623.0950490838
 31
0.0
  0
LINE
  5
20C
330
75
100
AcDbEntity
  8
$DDT_AUDIT_GENERATED_(D9)
  6
Continuous
 62
     7
100
AcDbLine
 10
113.5714575778
 20
623.0923535246
 30
0.0
 11
113.5714575778
 21
622.9645228916
 31
0.0
  0
LINE
  5
20D
330
75
100
AcDbEntity
  8
$DDT_AUDIT_GENERATED_(D9)
  6
Continuous
 62
     7
100
AcDbLine
 10
113.5714575778
 20
622.9645228916
 30
0.0
 11
112.5714575778
 21
622.9645228916
 31
0.0
  0
LINE
  5
20E
330
75
100
AcDbEntity
  8
$DDT_AUDIT_GENERATED_(D9)
  6
Continuous
 62
     7
100
AcDbLine
 10
112.5714575778
 20
622.9645228916
 30
0.0
 11
112.5714575778
 21
623.0950490838
 31
0.0
  0
LINE
  5
20F
330
75
100
AcDbEntity
  8
$DDT_AUDIT_GENERATED_(D9)
  6
Continuous
 62
     7
100
AcDbLine
 10
114.2838844914
 20
622.9645228916
 30
0.0
 11
113.7714575778
 21
622.9645228916
 31
0.0
  0
LINE
  5
210
330
75
100
AcDbEntity
  8
$DDT_AUDIT_GENERATED_(D9)
  6
Continuous
 62
     7
100
AcDbLine
 10
113.7714575778
 20
622.9645228916
 30
0.0
 11
113.7714575778
 21
623.060172704
 31
0.0
  0
LINE
  5
211
330
75
100
AcDbEntity
  8
$DDT_AUDIT_GENERATED_(D9)
  6
Continuous
 62
     7
100
AcDbLine
 10
107.5714575778
 20
623.2516805145
 30
0.0
 11
107.5714575778
 21
623.1211543223
 31
0.0
  0
LINE
  5
212
330
75
100
AcDbEntity
  8
$DDT_AUDIT_GENERATED_(D9)
  6
Continuous
 62
     7
100
AcDbLine
 10
107.7714575778
 20
623.2516805145
 30
0.0
 11
108.7714575778
 21
623.2516805145
 31
0.0
  0
LINE
  5
213
330
75
100
AcDbEntity
  8
$DDT_AUDIT_GENERATED_(D9)
  6
Continuous
 62
     7
100
AcDbLine
 10
108.7714575778
 20
623.2516805145
 30
0.0
 11
108.7714575778
 21
623.1211543223
 31
0.0
  0
LINE
  5
214
330
75
100
AcDbEntity
  8
$DDT_AUDIT_GENERATED_(D9)
  6
Continuous
 62
     7
100
AcDbLine
 10
108.7714575778
 20
623.1211543223
 30
0.0
 11
107.7714575778
 21
623.1211543223
 31
0.0
  0
LINE
  5
215
330
75
100
AcDbEntity
  8
$DDT_AUDIT_GENERATED_(D9)
  6
Continuous
 62
     7
100
AcDbLine
 10
107.7714575778
 20
623.1211543223
 30
0.0
 11
107.7714575778
 21
623.2516805145
 31
0.0
  0
LINE
  5
216
330
75
100
AcDbEntity
  8
$DDT_AUDIT_GENERATED_(D9)
  6
Continuous
 62
     7
100
AcDbLine
 10
108.9714575778
 20
623.2516805145
 30
0.0
 11
109.9714575778
 21
623.2516805145
 31
0.0
  0
LINE
  5
217
330
75
100
AcDbEntity
  8
$DDT_AUDIT_GENERATED_(D9)
  6
Continuous
 62
     7
100
AcDbLine
 10
109.9714575778
 20
623.2516805145
 30
0.0
 11
109.9714575778
 21
623.1211543223
 31
0.0
  0
LINE
  5
218
330
75
100
AcDbEntity
  8
$DDT_AUDIT_GENERATED_(D9)
  6
Continuous
 62
     7
100
AcDbLine
 10
109.9714575778
 20
623.1211543223
 30
0.0
 11
108.9714575778
 21
623.1211543223
 31
0.0
  0
LINE
  5
219
330
75
100
AcDbEntity
  8
$DDT_AUDIT_GENERATED_(D9)
  6
Continuous
 62
     7
100
AcDbLine
 10
108.9714575778
 20
623.1211543223
 30
0.0
 11
108.9714575778
 21
623.2516805145
 31
0.0
  0
LINE
  5
21A
330
75
100
AcDbEntity
  8
$DDT_AUDIT_GENERATED_(D9)
  6
Continuous
 62
     7
100
AcDbLine
 10
110.1714575778
 20
623.2516805145
 30
0.0
 11
111.1714575778
 21
623.2516805145
 31
0.0
  0
LINE
  5
21B
330
75
100
AcDbEntity
  8
$DDT_AUDIT_GENERATED_(D9)
  6
Continuous
 62
     7
100
AcDbLine
 10
111.1714575778
 20
623.2516805145
 30
0.0
 11
111.1714575778
 21
623.1211543223
 31
0.0
  0
LINE
  5
21C
330
75
100
AcDbEntity
  8
$DDT_AUDIT_GENERATED_(D9)
  6
Continuous
 62
     7
100
AcDbLine
 10
111.1714575778
 20
623.1211543223
 30
0.0
 11
110.1714575778
 21
623.1211543223
 31
0.0
  0
LINE
  5
21D
330
75
100
AcDbEntity
  8
$DDT_AUDIT_GENERATED_(D9)
  6
Continuous
 62
     7
100
AcDbLine
 10
110.1714575778
 20
623.1211543223
 30
0.0
 11
110.1714575778
 21
623.2516805145
 31
0.0
  0
LINE
  5
21E
330
75
100
AcDbEntity
  8
$DDT_AUDIT_GENERATED_(D9)
  6
Continuous
 62
     7
100
AcDbLine
 10
111.3714575778
 20
623.2516805145
 30
0.0
 11
112.3048544609
 21
623.2516805145
 31
0.0
  0
LINE
  5
21F
330
75
100
AcDbEntity
  8
$DDT_AUDIT_GENERATED_(D9)
  6
Continuous
 62
     7
100
AcDbLine
 10
112.3714575778
 20
623.2448177128
 30
0.0
 11
112.3714575778
 21
623.1211543223
 31
0.0
  0
LINE
  5
220
330
75
100
AcDbEntity
  8
$DDT_AUDIT_GENERATED_(D9)
  6
Continuous
 62
     7
100
AcDbLine
 10
112.3714575778
 20
623.1211543223
 30
0.0
 11
111.3714575778
 21
623.1211543223
 31
0.0
  0
LINE
  5
221
330
75
100
AcDbEntity
  8
$DDT_AUDIT_GENERATED_(D9)
  6
Continuous
 62
     7
100
AcDbLine
 10
111.3714575778
 20
623.1211543223
 30
0.0
 11
111.3714575778
 21
623.2516805145
 31
0.0
  0
LINE
  5
222
330
75
100
AcDbEntity
  8
$DDT_AUDIT_GENERATED_(D9)
  6
Continuous
 62
     7
100
AcDbLine
 10
113.3789291036
 20
623.1211543223
 30
0.0
 11
112.5714575778
 21
623.1211543223
 31
0.0
  0
LINE
  5
223
330
75
100
AcDbEntity
  8
$DDT_AUDIT_GENERATED_(D9)
  6
Continuous
 62
     7
100
AcDbLine
 10
112.5714575778
 20
623.1211543223
 30
0.0
 11
112.5714575778
 21
623.2233385325
 31
0.0
  0
LINE
  5
224
330
75
100
AcDbEntity
  8
$DDT_AUDIT_GENERATED_(D9)
  6
Continuous
 62
     7
100
AcDbLine
 10
107.5714575778
 20
623.4083119451
 30
0.0
 11
107.5714575778
 21
623.2777857529
 31
0.0
  0
LINE
  5
225
330
75
100
AcDbEntity
  8
$DDT_AUDIT_GENERATED_(D9)
  6
Continuous
 62
     7
100
AcDbLine
 10
107.7714575778
 20
623.4083119451
 30
0.0
 11
108.7714575778
 21
623.4083119451
 31
0.0
  0
LINE
  5
226
330
75
100
AcDbEntity
  8
$DDT_AUDIT_GENERATED_(D9)
  6
Continuous
 62
     7
100
AcDbLine
 10
108.7714575778
 20
623.4083119451
 30
0.0
 11
108.7714575778
 21
623.2777857529
 31
0.0
  0
LINE
  5
227
330
75
100
AcDbEntity
  8
$DDT_AUDIT_GENERATED_(D9)
  6
Continuous
 62
     7
100
AcDbLine
 10
108.7714575778
 20
623.2777857529
 30
0.0
 11
107.7714575778
 21
623.2777857529
 31
0.0
  0
LINE
  5
228
330
75
100
AcDbEntity
  8
$DDT_AUDIT_GENERATED_(D9)
  6
Continuous
 62
     7
100
AcDbLine
 10
107.7714575778
 20
623.2777857529
 30
0.0
 11
107.7714575778
 21
623.4083119451
 31
0.0
  0
LINE
  5
229
330
75
100
AcDbEntity
  8
$DDT_AUDIT_GENERATED_(D9)
  6
Continuous
 62
     7
100
AcDbLine
 10
108.9714575778
 20
623.4083119451
 30
0.0
 11
109.9714575778
 21
623.4083119451
 31
0.0
  0
LINE
  5
22A
330
75
100
AcDbEntity
  8
$DDT_AUDIT_GENERATED_(D9)
  6
Continuous
 62
     7
100
AcDbLine
 10
109.9714575778
 20
623.4083119451
 30
0.0
 11
109.9714575778
 21
623.2777857529
 31
0.0
  0
LINE
  5
22B
330
75
100
AcDbEntity
  8
$DDT_AUDIT_GENERATED_(D9)
  6
Continuous
 62
     7
100
AcDbLine
 10
109.9714575778
 20
623.2777857529
 30
0.0
 11
108.9714575778
 21
623.2777857529
 31
0.0
  0
LINE
  5
22C
330
75
100
AcDbEntity
  8
$DDT_AUDIT_GENERATED_(D9)
  6
Continuous
 62
     7
100
AcDbLine
 10
108.9714575778
 20
623.2777857529
 30
0.0
 11
108.9714575778
 21
623.4083119451
 31
0.0
  0
LINE
  5
22D
330
75
100
AcDbEntity
  8
$DDT_AUDIT_GENERATED_(D9)
  6
Continuous
 62
     7
100
AcDbLine
 10
110.1714575778
 20
623.4083119451
 30
0.0
 11
110.2136762209
 21
623.4083119451
 31
0.0
  0
LINE
  5
22E
330
75
100
AcDbEntity
  8
$DDT_AUDIT_GENERATED_(D9)
  6
Continuous
 62
     7
100
AcDbLine
 10
111.1714575778
 20
623.349304595
 30
0.0
 11
111.1714575778
 21
623.2777857529
 31
0.0
  0
LINE
  5
22F
330
75
100
AcDbEntity
  8
$DDT_AUDIT_GENERATED_(D9)
  6
Continuous
 62
     7
100
AcDbLine
 10
111.1714575778
 20
623.2777857529
 30
0.0
 11
110.1714575778
 21
623.2777857529
 31
0.0
  0
LINE
  5
230
330
75
100
AcDbEntity
  8
$DDT_AUDIT_GENERATED_(D9)
  6
Continuous
 62
     7
100
AcDbLine
 10
110.1714575778
 20
623.2777857529
 30
0.0
 11
110.1714575778
 21
623.4083119451
 31
0.0
  0
LINE
  5
231
330
75
100
AcDbEntity
  8
$DDT_AUDIT_GENERATED_(D9)
  6
Continuous
 62
     7
100
AcDbLine
 10
112.0382766921
 20
623.2777857529
 30
0.0
 11
111.3714575778
 21
623.2777857529
 31
0.0
  0
LINE
  5
232
330
75
100
AcDbEntity
  8
$DDT_AUDIT_GENERATED_(D9)
  6
Continuous
 62
     7
100
AcDbLine
 10
111.3714575778
 20
623.2777857529
 30
0.0
 11
111.3714575778
 21
623.334465976
 31
0.0
  0
LINE
  5
233
330
75
100
AcDbEntity
  8
$DDT_AUDIT_GENERATED_(D9)
  6
Continuous
 62
     7
100
AcDbLine
 10
107.5714575778
 20
623.484983594
 30
0.0
 11
107.5714575778
 21
623.4344171836
 31
0.0
  0
LINE
  5
234
330
75
100
AcDbEntity
  8
$DDT_AUDIT_GENERATED_(D9)
  6
Continuous
 62
     7
100
AcDbLine
 10
108.7714575778
 20
623.464488861
 30
0.0
 11
108.7714575778
 21
623.4344171836
 31
0.0
  0
LINE
  5
235
330
75
100
AcDbEntity
  8
$DDT_AUDIT_GENERATED_(D9)
  6
Continuous
 62
     7
100
AcDbLine
 10
108.7714575778
 20
623.4344171836
 30
0.0
 11
107.7714575778
 21
623.4344171836
 31
0.0
  0
LINE
  5
236
330
75
100
AcDbEntity
  8
$DDT_AUDIT_GENERATED_(D9)
  6
Continuous
 62
     7
100
AcDbLine
 10
107.7714575778
 20
623.4344171836
 30
0.0
 11
107.7714575778
 21
623.4831361341
 31
0.0
  0
LINE
  5
237
330
75
100
AcDbEntity
  8
$DDT_AUDIT_GENERATED_(D9)
  6
Continuous
 62
     7
100
AcDbLine
 10
109.6549411133
 20
623.4344171836
 30
0.0
 11
108.9714575778
 21
623.4344171836
 31
0.0
  0
LINE
  5
238
330
75
100
AcDbEntity
  8
$DDT_AUDIT_GENERATED_(D9)
  6
Continuous
 62
     7
100
AcDbLine
 10
108.9714575778
 20
623.4344171836
 30
0.0
 11
108.9714575778
 21
623.4588319792
 31
0.0
  0
LINE
  5
239
330
75
100
AcDbEntity
  8
$DDT_AUDIT_GENERATED_(D9)
  6
Continuous
 62
     7
100
AcDbLine
 10
107.5714575778
 20
622.9384176532
 30
0.0
 11
107.5714575778
 21
622.8078914609
 31
0.0
  0
LINE
  5
23A
330
75
100
AcDbEntity
  8
$DDT_AUDIT_GENERATED_(D9)
  6
Continuous
 62
     7
100
AcDbLine
 10
107.5714575778
 20
622.7817862225
 30
0.0
 11
107.5714575778
 21
622.6512600303
 31
0.0
  0
LINE
  5
23B
330
75
100
AcDbEntity
  8
$DDT_AUDIT_GENERATED_(D9)
  6
Continuous
 62
     7
100
AcDbLine
 10
107.5714575778
 20
622.6251547918
 30
0.0
 11
107.5714575778
 21
622.4946285996
 31
0.0
  0
LINE
  5
23C
330
75
100
AcDbEntity
  8
$DDT_AUDIT_GENERATED_(D9)
  6
Continuous
 62
     7
100
AcDbLine
 10
107.5714575778
 20
622.4685233612
 30
0.0
 11
107.5714575778
 21
622.337997169
 31
0.0
  0
LINE
  5
23D
330
75
100
AcDbEntity
  8
$DDT_AUDIT_GENERATED_(D9)
  6
Continuous
 62
     7
100
AcDbLine
 10
107.5714575778
 20
622.3118919305
 30
0.0
 11
107.5714575778
 21
622.1813657383
 31
0.0
  0
LINE
  5
23E
330
75
100
AcDbEntity
  8
$DDT_AUDIT_GENERATED_(D9)
  6
Continuous
 62
     7
100
AcDbLine
 10
107.5714575778
 20
622.1552604999
 30
0.0
 11
107.5714575778
 21
622.0247343076
 31
0.0
  0
LINE
  5
23F
330
75
100
AcDbEntity
  8
$DDT_AUDIT_GENERATED_(D9)
  6
Continuous
 62
     7
100
AcDbLine
 10
107.5714575778
 20
621.9986290692
 30
0.0
 11
107.5714575778
 21
621.868102877
 31
0.0
  0
LINE
  5
240
330
75
100
AcDbEntity
  8
$DDT_AUDIT_GENERATED_(D9)
  6
Continuous
 62
     7
100
AcDbLine
 10
108.7714575778
 20
622.8078914609
 30
0.0
 11
107.7714575778
 21
622.8078914609
 31
0.0
  0
LINE
  5
241
330
75
100
AcDbEntity
  8
$DDT_AUDIT_GENERATED_(D9)
  6
Continuous
 62
     7
100
AcDbLine
 10
108.7714575778
 20
622.7817862225
 30
0.0
 11
108.7714575778
 21
622.6512600303
 31
0.0
  0
LINE
  5
242
330
75
100
AcDbEntity
  8
$DDT_AUDIT_GENERATED_(D9)
  6
Continuous
 62
     7
100
AcDbLine
 10
108.7714575778
 20
622.6512600303
 30
0.0
 11
107.7714575778
 21
622.6512600303
 31
0.0
  0
LINE
  5
243
330
75
100
AcDbEntity
  8
$DDT_AUDIT_GENERATED_(D9)
  6
Continuous
 62
     7
100
AcDbLine
 10
107.7714575778
 20
622.6512600303
 30
0.0
 11
107.7714575778
 21
622.7817862225
 31
0.0
  0
LINE
  5
244
330
75
100
AcDbEntity
  8
$DDT_AUDIT_GENERATED_(D9)
  6
Continuous
 62
     7
100
AcDbLine
 10
107.7714575778
 20
622.7817862225
 30
0.0
 11
108.7714575778
 21
622.7817862225
 31
0.0
  0
LINE
  5
245
330
75
100
AcDbEntity
  8
$DDT_AUDIT_GENERATED_(D9)
  6
Continuous
 62
     7
100
AcDbLine
 10
108.7714575778
 20
622.6251547918
 30
0.0
 11
108.7714575778
 21
622.4946285996
 31
0.0
  0
LINE
  5
246
330
75
100
AcDbEntity
  8
$DDT_AUDIT_GENERATED_(D9)
  6
Continuous
 62
     7
100
AcDbLine
 10
108.7714575778
 20
622.4946285996
 30
0.0
 11
107.7714575778
 21
622.4946285996
 31
0.0
  0
LINE
  5
247
330
75
100
AcDbEntity
  8
$DDT_AUDIT_GENERATED_(D9)
  6
Continuous
 62
     7
100
AcDbLine
 10
107.7714575778
 20
622.4946285996
 30
0.0
 11
107.7714575778
 21
622.6251547918
 31
0.0
  0
LINE
  5
248
330
75
100
AcDbEntity
  8
$DDT_AUDIT_GENERATED_(D9)
  6
Continuous
 62
     7
100
AcDbLine
 10
107.7714575778
 20
622.6251547918
 30
0.0
 11
108.7714575778
 21
622.6251547918
 31
0.0
  0
LINE
  5
249
330
75
100
AcDbEntity
  8
$DDT_AUDIT_GENERATED_(D9)
  6
Continuous
 62
     7
100
AcDbLine
 10
108.7714575778
 20
622.4685233612
 30
0.0
 11
108.7714575778
 21
622.337997169
 31
0.0
  0
LINE
  5
24A
330
75
100
AcDbEntity
  8
$DDT_AUDIT_GENERATED_(D9)
  6
Continuous
 62
     7
100
AcDbLine
 10
108.7714575778
 20
622.337997169
 30
0.0
 11
107.7714575778
 21
622.337997169
 31
0.0
  0
LINE
  5
24B
330
75
100
AcDbEntity
  8
$DDT_AUDIT_GENERATED_(D9)
  6
Continuous
 62
     7
100
AcDbLine
 10
107.7714575778
 20
622.337997169
 30
0.0
 11
107.7714575778
 21
622.4685233612
 31
0.0
  0
LINE
  5
24C
330
75
100
AcDbEntity
  8
$DDT_AUDIT_GENERATED_(D9)
  6
Continuous
 62
     7
100
AcDbLine
 10
107.7714575778
 20
622.4685233612
 30
0.0
 11
108.7714575778
 21
622.4685233612
 31
0.0
  0
LINE
  5
24D
330
75
100
AcDbEntity
  8
$DDT_AUDIT_GENERATED_(D9)
  6
Continuous
 62
     7
100
AcDbLine
 10
108.7714575778
 20
622.3118919305
 30
0.0
 11
108.7714575778
 21
622.1813657383
 31
0.0
  0
LINE
  5
24E
330
75
100
AcDbEntity
  8
$DDT_AUDIT_GENERATED_(D9)
  6
Continuous
 62
     7
100
AcDbLine
 10
108.7714575778
 20
622.1813657383
 30
0.0
 11
107.7714575778
 21
622.1813657383
 31
0.0
  0
LINE
  5
24F
330
75
100
AcDbEntity
  8
$DDT_AUDIT_GENERATED_(D9)
  6
Continuous
 62
     7
100
AcDbLine
 10
107.7714575778
 20
622.1813657383
 30
0.0
 11
107.7714575778
 21
622.3118919305
 31
0.0
  0
LINE
  5
250
330
75
100
AcDbEntity
  8
$DDT_AUDIT_GENERATED_(D9)
  6
Continuous
 62
     7
100
AcDbLine
 10
107.7714575778
 20
622.3118919305
 30
0.0
 11
108.7714575778
 21
622.3118919305
 31
0.0
  0
LINE
  5
251
330
75
100
AcDbEntity
  8
$DDT_AUDIT_GENERATED_(D9)
  6
Continuous
 62
     7
100
AcDbLine
 10
108.7714575778
 20
622.1552604999
 30
0.0
 11
108.7714575778
 21
622.0247343076
 31
0.0
  0
LINE
  5
252
330
75
100
AcDbEntity
  8
$DDT_AUDIT_GENERATED_(D9)
  6
Continuous
 62
     7
100
AcDbLine
 10
108.7714575778
 20
622.0247343076
 30
0.0
 11
107.7714575778
 21
622.0247343076
 31
0.0
  0
LINE
  5
253
330
75
100
AcDbEntity
  8
$DDT_AUDIT_GENERATED_(D9)
  6
Continuous
 62
     7
100
AcDbLine
 10
107.7714575778
 20
622.0247343076
 30
0.0
 11
107.7714575778
 21
622.1552604999
 31
0.0
  0
LINE
  5
254
330
75
100
AcDbEntity
  8
$DDT_AUDIT_GENERATED_(D9)
  6
Continuous
 62
     7
100
AcDbLine
 10
107.7714575778
 20
622.1552604999
 30
0.0
 11
108.7714575778
 21
622.1552604999
 31
0.0
  0
LINE
  5
255
330
75
100
AcDbEntity
  8
$DDT_AUDIT_GENERATED_(D9)
  6
Continuous
 62
     7
100
AcDbLine
 10
108.7714575778
 20
621.9986290692
 30
0.0
 11
108.7714575778
 21
621.868102877
 31
0.0
  0
LINE
  5
256
330
75
100
AcDbEntity
  8
$DDT_AUDIT_GENERATED_(D9)
  6
Continuous
 62
     7
100
AcDbLine
 10
108.7714575778
 20
621.868102877
 30
0.0
 11
107.7714575778
 21
621.868102877
 31
0.0
  0
LINE
  5
257
330
75
100
AcDbEntity
  8
$DDT_AUDIT_GENERATED_(D9)
  6
Continuous
 62
     7
100
AcDbLine
 10
107.7714575778
 20
621.868102877
 30
0.0
 11
107.7714575778
 21
621.9986290692
 31
0.0
  0
LINE
  5
258
330
75
100
AcDbEntity
  8
$DDT_AUDIT_GENERATED_(D9)
  6
Continuous
 62
     7
100
AcDbLine
 10
107.7714575778
 20
621.9986290692
 30
0.0
 11
108.7714575778
 21
621.9986290692
 31
0.0
  0
LINE
  5
259
330
75
100
AcDbEntity
  8
$DDT_AUDIT_GENERATED_(D9)
  6
Continuous
 62
     7
100
AcDbLine
 10
109.9714575778
 20
622.8078914609
 30
0.0
 11
108.9714575778
 21
622.8078914609
 31
0.0
  0
LINE
  5
25A
330
75
100
AcDbEntity
  8
$DDT_AUDIT_GENERATED_(D9)
  6
Continuous
 62
     7
100
AcDbLine
 10
109.9714575778
 20
622.7817862225
 30
0.0
 11
109.9714575778
 21
622.6512600303
 31
0.0
  0
LINE
  5
25B
330
75
100
AcDbEntity
  8
$DDT_AUDIT_GENERATED_(D9)
  6
Continuous
 62
     7
100
AcDbLine
 10
109.9714575778
 20
622.6512600303
 30
0.0
 11
108.9714575778
 21
622.6512600303
 31
0.0
  0
LINE
  5
25C
330
75
100
AcDbEntity
  8
$DDT_AUDIT_GENERATED_(D9)
  6
Continuous
 62
     7
100
AcDbLine
 10
108.9714575778
 20
622.6512600303
 30
0.0
 11
108.9714575778
 21
622.7817862225
 31
0.0
  0
LINE
  5
25D
330
75
100
AcDbEntity
  8
$DDT_AUDIT_GENERATED_(D9)
  6
Continuous
 62
     7
100
AcDbLine
 10
108.9714575778
 20
622.7817862225
 30
0.0
 11
109.9714575778
 21
622.7817862225
 31
0.0
  0
LINE
  5
25E
330
75
100
AcDbEntity
  8
$DDT_AUDIT_GENERATED_(D9)
  6
Continuous
 62
     7
100
AcDbLine
 10
109.9714575778
 20
622.6251547918
 30
0.0
 11
109.9714575778
 21
622.4946285996
 31
0.0
  0
LINE
  5
25F
330
75
100
AcDbEntity
  8
$DDT_AUDIT_GENERATED_(D9)
  6
Continuous
 62
     7
100
AcDbLine
 10
109.9714575778
 20
622.4946285996
 30
0.0
 11
108.9714575778
 21
622.4946285996
 31
0.0
  0
LINE
  5
260
330
75
100
AcDbEntity
  8
$DDT_AUDIT_GENERATED_(D9)
  6
Continuous
 62
     7
100
AcDbLine
 10
108.9714575778
 20
622.4946285996
 30
0.0
 11
108.9714575778
 21
622.6251547918
 31
0.0
  0
LINE
  5
261
330
75
100
AcDbEntity
  8
$DDT_AUDIT_GENERATED_(D9)
  6
Continuous
 62
     7
100
AcDbLine
 10
108.9714575778
 20
622.6251547918
 30
0.0
 11
109.9714575778
 21
622.6251547918
 31
0.0
  0
LINE
  5
262
330
75
100
AcDbEntity
  8
$DDT_AUDIT_GENERATED_(D9)
  6
Continuous
 62
     7
100
AcDbLine
 10
109.9714575778
 20
622.4685233612
 30
0.0
 11
109.9714575778
 21
622.337997169
 31
0.0
  0
LINE
  5
263
330
75
100
AcDbEntity
  8
$DDT_AUDIT_GENERATED_(D9)
  6
Continuous
 62
     7
100
AcDbLine
 10
109.9714575778
 20
622.337997169
 30
0.0
 11
108.9714575778
 21
622.337997169
 31
0.0
  0
LINE
  5
264
330
75
100
AcDbEntity
  8
$DDT_AUDIT_GENERATED_(D9)
  6
Continuous
 62
     7
100
AcDbLine
 10
108.9714575778
 20
622.337997169
 30
0.0
 11
108.9714575778
 21
622.4685233612
 31
0.0
  0
LINE
  5
265
330
75
100
AcDbEntity
  8
$DDT_AUDIT_GENERATED_(D9)
  6
Continuous
 62
     7
100
AcDbLine
 10
108.9714575778
 20
622.4685233612
 30
0.0
 11
109.9714575778
 21
622.4685233612
 31
0.0
  0
LINE
  5
266
330
75
100
AcDbEntity
  8
$DDT_AUDIT_GENERATED_(D9)
  6
Continuous
 62
     7
100
AcDbLine
 10
109.9714575778
 20
622.3118919305
 30
0.0
 11
109.9714575778
 21
622.1813657383
 31
0.0
  0
LINE
  5
267
330
75
100
AcDbEntity
  8
$DDT_AUDIT_GENERATED_(D9)
  6
Continuous
 62
     7
100
AcDbLine
 10
109.9714575778
 20
622.1813657383
 30
0.0
 11
108.9714575778
 21
622.1813657383
 31
0.0
  0
LINE
  5
268
330
75
100
AcDbEntity
  8
$DDT_AUDIT_GENERATED_(D9)
  6
Continuous
 62
     7
100
AcDbLine
 10
108.9714575778
 20
622.1813657383
 30
0.0
 11
108.9714575778
 21
622.3118919305
 31
0.0
  0
LINE
  5
269
330
75
100
AcDbEntity
  8
$DDT_AUDIT_GENERATED_(D9)
  6
Continuous
 62
     7
100
AcDbLine
 10
108.9714575778
 20
622.3118919305
 30
0.0
 11
109.9714575778
 21
622.3118919305
 31
0.0
  0
LINE
  5
26A
330
75
100
AcDbEntity
  8
$DDT_AUDIT_GENERATED_(D9)
  6
Continuous
 62
     7
100
AcDbLine
 10
109.9714575778
 20
622.1552604999
 30
0.0
 11
109.9714575778
 21
622.0247343076
 31
0.0
  0
LINE
  5
26B
330
75
100
AcDbEntity
  8
$DDT_AUDIT_GENERATED_(D9)
  6
Continuous
 62
     7
100
AcDbLine
 10
109.9714575778
 20
622.0247343076
 30
0.0
 11
108.9714575778
 21
622.0247343076
 31
0.0
  0
LINE
  5
26C
330
75
100
AcDbEntity
  8
$DDT_AUDIT_GENERATED_(D9)
  6
Continuous
 62
     7
100
AcDbLine
 10
108.9714575778
 20
622.0247343076
 30
0.0
 11
108.9714575778
 21
622.1552604999
 31
0.0
  0
LINE
  5
26D
330
75
100
AcDbEntity
  8
$DDT_AUDIT_GENERATED_(D9)
  6
Continuous
 62
     7
100
AcDbLine
 10
108.9714575778
 20
622.1552604999
 30
0.0
 11
109.9714575778
 21
622.1552604999
 31
0.0
  0
LINE
  5
26E
330
75
100
AcDbEntity
  8
$DDT_AUDIT_GENERATED_(D9)
  6
Continuous
 62
     7
100
AcDbLine
 10
111.1714575778
 20
622.8078914609
 30
0.0
 11
110.1714575778
 21
622.8078914609
 31
0.0
  0
LINE
  5
26F
330
75
100
AcDbEntity
  8
$DDT_AUDIT_GENERATED_(D9)
  6
Continuous
 62
     7
100
AcDbLine
 10
111.1714575778
 20
622.7817862225
 30
0.0
 11
111.1714575778
 21
622.6512600303
 31
0.0
  0
LINE
  5
270
330
75
100
AcDbEntity
  8
$DDT_AUDIT_GENERATED_(D9)
  6
Continuous
 62
     7
100
AcDbLine
 10
111.1714575778
 20
622.6512600303
 30
0.0
 11
110.1714575778
 21
622.6512600303
 31
0.0
  0
LINE
  5
271
330
75
100
AcDbEntity
  8
$DDT_AUDIT_GENERATED_(D9)
  6
Continuous
 62
     7
100
AcDbLine
 10
110.1714575778
 20
622.6512600303
 30
0.0
 11
110.1714575778
 21
622.7817862225
 31
0.0
  0
LINE
  5
272
330
75
100
AcDbEntity
  8
$DDT_AUDIT_GENERATED_(D9)
  6
Continuous
 62
     7
100
AcDbLine
 10
110.1714575778
 20
622.7817862225
 30
0.0
 11
111.1714575778
 21
622.7817862225
 31
0.0
  0
LINE
  5
273
330
75
100
AcDbEntity
  8
$DDT_AUDIT_GENERATED_(D9)
  6
Continuous
 62
     7
100
AcDbLine
 10
111.1714575778
 20
622.6251547918
 30
0.0
 11
111.1714575778
 21
622.4946285996
 31
0.0
  0
LINE
  5
274
330
75
100
AcDbEntity
  8
$DDT_AUDIT_GENERATED_(D9)
  6
Continuous
 62
     7
100
AcDbLine
 10
111.1714575778
 20
622.4946285996
 30
0.0
 11
110.1714575778
 21
622.4946285996
 31
0.0
  0
LINE
  5
275
330
75
100
AcDbEntity
  8
$DDT_AUDIT_GENERATED_(D9)
  6
Continuous
 62
     7
100
AcDbLine
 10
110.1714575778
 20
622.4946285996
 30
0.0
 11
110.1714575778
 21
622.6251547918
 31
0.0
  0
LINE
  5
276
330
75
100
AcDbEntity
  8
$DDT_AUDIT_GENERATED_(D9)
  6
Continuous
 62
     7
100
AcDbLine
 10
110.1714575778
 20
622.6251547918
 30
0.0
 11
111.1714575778
 21
622.6251547918
 31
0.0
  0
LINE
  5
277
330
75
100
AcDbEntity
  8
$DDT_AUDIT_GENERATED_(D9)
  6
Continuous
 62
     7
100
AcDbLine
 10
111.1714575778
 20
622.4685233612
 30
0.0
 11
111.1714575778
 21
622.337997169
 31
0.0
  0
LINE
  5
278
330
75
100
AcDbEntity
  8
$DDT_AUDIT_GENERATED_(D9)
  6
Continuous
 62
     7
100
AcDbLine
 10
111.1714575778
 20
622.337997169
 30
0.0
 11
110.1714575778
 21
622.337997169
 31
0.0
  0
LINE
  5
279
330
75
100
AcDbEntity
  8
$DDT_AUDIT_GENERATED_(D9)
  6
Continuous
 62
     7
100
AcDbLine
 10
110.1714575778
 20
622.337997169
 30
0.0
 11
110.1714575778
 21
622.4685233612
 31
0.0
  0
LINE
  5
27A
330
75
100
AcDbEntity
  8
$DDT_AUDIT_GENERATED_(D9)
  6
Continuous
 62
     7
100
AcDbLine
 10
110.1714575778
 20
622.4685233612
 30
0.0
 11
111.1714575778
 21
622.4685233612
 31
0.0
  0
LINE
  5
27B
330
75
100
AcDbEntity
  8
$DDT_AUDIT_GENERATED_(D9)
  6
Continuous
 62
     7
100
AcDbLine
 10
111.1714575778
 20
622.3118919305
 30
0.0
 11
111.1714575778
 21
622.1813657383
 31
0.0
  0
LINE
  5
27C
330
75
100
AcDbEntity
  8
$DDT_AUDIT_GENERATED_(D9)
  6
Continuous
 62
     7
100
AcDbLine
 10
111.1714575778
 20
622.1813657383
 30
0.0
 11
110.1714575778
 21
622.1813657383
 31
0.0
  0
LINE
  5
27D
330
75
100
AcDbEntity
  8
$DDT_AUDIT_GENERATED_(D9)
  6
Continuous
 62
     7
100
AcDbLine
 10
110.1714575778
 20
622.1813657383
 30
0.0
 11
110.1714575778
 21
622.3118919305
 31
0.0
  0
LINE
  5
27E
330
75
100
AcDbEntity
  8
$DDT_AUDIT_GENERATED_(D9)
  6
Continuous
 62
     7
100
AcDbLine
 10
110.1714575778
 20
622.3118919305
 30
0.0
 11
111.1714575778
 21
622.3118919305
 31
0.0
  0
LINE
  5
27F
330
75
100
AcDbEntity
  8
$DDT_AUDIT_GENERATED_(D9)
  6
Continuous
 62
     7
100
AcDbLine
 10
111.1714575778
 20
622.1552604999
 30
0.0
 11
111.1714575778
 21
622.0247343076
 31
0.0
  0
LINE
  5
280
330
75
100
AcDbEntity
  8
$DDT_AUDIT_GENERATED_(D9)
  6
Continuous
 62
     7
100
AcDbLine
 10
111.1714575778
 20
622.0247343076
 30
0.0
 11
110.1714575778
 21
622.0247343076
 31
0.0
  0
LINE
  5
281
330
75
100
AcDbEntity
  8
$DDT_AUDIT_GENERATED_(D9)
  6
Continuous
 62
     7
100
AcDbLine
 10
110.1714575778
 20
622.0247343076
 30
0.0
 11
110.1714575778
 21
622.1552604999
 31
0.0
  0
LINE
  5
282
330
75
100
AcDbEntity
  8
$DDT_AUDIT_GENERATED_(D9)
  6
Continuous
 62
     7
100
AcDbLine
 10
110.1714575778
 20
622.1552604999
 30
0.0
 11
111.1714575778
 21
622.1552604999
 31
0.0
  0
LINE
  5
283
330
75
100
AcDbEntity
  8
$DDT_AUDIT_GENERATED_(D9)
  6
Continuous
 62
     7
100
AcDbLine
 10
112.3714575778
 20
622.8078914609
 30
0.0
 11
111.3714575778
 21
622.8078914609
 31
0.0
  0
LINE
  5
284
330
75
100
AcDbEntity
  8
$DDT_AUDIT_GENERATED_(D9)
  6
Continuous
 62
     7
100
AcDbLine
 10
112.3714575778
 20
622.7817862225
 30
0.0
 11
112.3714575778
 21
622.6512600303
 31
0.0
  0
LINE
  5
285
330
75
100
AcDbEntity
  8
$DDT_AUDIT_GENERATED_(D9)
  6
Continuous
 62
     7
100
AcDbLine
 10
112.3714575778
 20
622.6512600303
 30
0.0
 11
111.3714575778
 21
622.6512600303
 31
0.0
  0
LINE
  5
286
330
75
100
AcDbEntity
  8
$DDT_AUDIT_GENERATED_(D9)
  6
Continuous
 62
     7
100
AcDbLine
 10
111.3714575778
 20
622.6512600303
 30
0.0
 11
111.3714575778
 21
622.7817862225
 31
0.0
  0
LINE
  5
287
330
75
100
AcDbEntity
  8
$DDT_AUDIT_GENERATED_(D9)
  6
Continuous
 62
     7
100
AcDbLine
 10
111.3714575778
 20
622.7817862225
 30
0.0
 11
112.3714575778
 21
622.7817862225
 31
0.0
  0
LINE
  5
288
330
75
100
AcDbEntity
  8
$DDT_AUDIT_GENERATED_(D9)
  6
Continuous
 62
     7
100
AcDbLine
 10
112.3714575778
 20
622.6251547918
 30
0.0
 11
112.3714575778
 21
622.4946285996
 31
0.0
  0
LINE
  5
289
330
75
100
AcDbEntity
  8
$DDT_AUDIT_GENERATED_(D9)
  6
Continuous
 62
     7
100
AcDbLine
 10
112.3714575778
 20
622.4946285996
 30
0.0
 11
111.3714575778
 21
622.4946285996
 31
0.0
  0
LINE
  5
28A
330
75
100
AcDbEntity
  8
$DDT_AUDIT_GENERATED_(D9)
  6
Continuous
 62
     7
100
AcDbLine
 10
111.3714575778
 20
622.4946285996
 30
0.0
 11
111.3714575778
 21
622.6251547918
 31
0.0
  0
LINE
  5
28B
330
75
100
AcDbEntity
  8
$DDT_AUDIT_GENERATED_(D9)
  6
Continuous
 62
     7
100
AcDbLine
 10
111.3714575778
 20
622.6251547918
 30
0.0
 11
112.3714575778
 21
622.6251547918
 31
0.0
  0
LINE
  5
28C
330
75
100
AcDbEntity
  8
$DDT_AUDIT_GENERATED_(D9)
  6
Continuous
 62
     7
100
AcDbLine
 10
112.3714575778
 20
622.4685233612
 30
0.0
 11
112.3714575778
 21
622.337997169
 31
0.0
  0
LINE
  5
28D
330
75
100
AcDbEntity
  8
$DDT_AUDIT_GENERATED_(D9)
  6
Continuous
 62
     7
100
AcDbLine
 10
112.3714575778
 20
622.337997169
 30
0.0
 11
111.3714575778
 21
622.337997169
 31
0.0
  0
LINE
  5
28E
330
75
100
AcDbEntity
  8
$DDT_AUDIT_GENERATED_(D9)
  6
Continuous
 62
     7
100
AcDbLine
 10
111.3714575778
 20
622.337997169
 30
0.0
 11
111.3714575778
 21
622.4685233612
 31
0.0
  0
LINE
  5
28F
330
75
100
AcDbEntity
  8
$DDT_AUDIT_GENERATED_(D9)
  6
Continuous
 62
     7
100
AcDbLine
 10
111.3714575778
 20
622.4685233612
 30
0.0
 11
112.3714575778
 21
622.4685233612
 31
0.0
  0
LINE
  5
290
330
75
100
AcDbEntity
  8
$DDT_AUDIT_GENERATED_(D9)
  6
Continuous
 62
     7
100
AcDbLine
 10
112.3714575778
 20
622.3118919305
 30
0.0
 11
112.3714575778
 21
622.1813657383
 31
0.0
  0
LINE
  5
291
330
75
100
AcDbEntity
  8
$DDT_AUDIT_GENERATED_(D9)
  6
Continuous
 62
     7
100
AcDbLine
 10
112.3714575778
 20
622.1813657383
 30
0.0
 11
111.3714575778
 21
622.1813657383
 31
0.0
  0
LINE
  5
292
330
75
100
AcDbEntity
  8
$DDT_AUDIT_GENERATED_(D9)
  6
Continuous
 62
     7
100
AcDbLine
 10
111.3714575778
 20
622.1813657383
 30
0.0
 11
111.3714575778
 21
622.3118919305
 31
0.0
  0
LINE
  5
293
330
75
100
AcDbEntity
  8
$DDT_AUDIT_GENERATED_(D9)
  6
Continuous
 62
     7
100
AcDbLine
 10
111.3714575778
 20
622.3118919305
 30
0.0
 11
112.3714575778
 21
622.3118919305
 31
0.0
  0
LINE
  5
294
330
75
100
AcDbEntity
  8
$DDT_AUDIT_GENERATED_(D9)
  6
Continuous
 62
     7
100
AcDbLine
 10
113.5714575778
 20
622.8078914609
 30
0.0
 11
112.5714575778
 21
622.8078914609
 31
0.0
  0
LINE
  5
295
330
75
100
AcDbEntity
  8
$DDT_AUDIT_GENERATED_(D9)
  6
Continuous
 62
     7
100
AcDbLine
 10
113.5714575778
 20
622.7817862225
 30
0.0
 11
113.5714575778
 21
622.6512600303
 31
0.0
  0
LINE
  5
296
330
75
100
AcDbEntity
  8
$DDT_AUDIT_GENERATED_(D9)
  6
Continuous
 62
     7
100
AcDbLine
 10
113.5714575778
 20
622.6512600303
 30
0.0
 11
112.5714575778
 21
622.6512600303
 31
0.0
  0
LINE
  5
297
330
75
100
AcDbEntity
  8
$DDT_AUDIT_GENERATED_(D9)
  6
Continuous
 62
     7
100
AcDbLine
 10
112.5714575778
 20
622.6512600303
 30
0.0
 11
112.5714575778
 21
622.7817862225
 31
0.0
  0
LINE
  5
298
330
75
100
AcDbEntity
  8
$DDT_AUDIT_GENERATED_(D9)
  6
Continuous
 62
     7
100
AcDbLine
 10
112.5714575778
 20
622.7817862225
 30
0.0
 11
113.5714575778
 21
622.7817862225
 31
0.0
  0
LINE
  5
299
330
75
100
AcDbEntity
  8
$DDT_AUDIT_GENERATED_(D9)
  6
Continuous
 62
     7
100
AcDbLine
 10
113.5714575778
 20
622.6251547918
 30
0.0
 11
113.5714575778
 21
622.4946285996
 31
0.0
  0
LINE
  5
29A
330
75
100
AcDbEntity
  8
$DDT_AUDIT_GENERATED_(D9)
  6
Continuous
 62
     7
100
AcDbLine
 10
113.5714575778
 20
622.4946285996
 30
0.0
 11
112.5714575778
 21
622.4946285996
 31
0.0
  0
LINE
  5
29B
330
75
100
AcDbEntity
  8
$DDT_AUDIT_GENERATED_(D9)
  6
Continuous
 62
     7
100
AcDbLine
 10
112.5714575778
 20
622.4946285996
 30
0.0
 11
112.5714575778
 21
622.6251547918
 31
0.0
  0
LINE
  5
29C
330
75
100
AcDbEntity
  8
$DDT_AUDIT_GENERATED_(D9)
  6
Continuous
 62
     7
100
AcDbLine
 10
112.5714575778
 20
622.6251547918
 30
0.0
 11
113.5714575778
 21
622.6251547918
 31
0.0
  0
LINE
  5
29D
330
75
100
AcDbEntity
  8
$DDT_AUDIT_GENERATED_(D9)
  6
Continuous
 62
     7
100
AcDbLine
 10
113.5714575778
 20
622.4685233612
 30
0.0
 11
113.5714575778
 21
622.337997169
 31
0.0
  0
LINE
  5
29E
330
75
100
AcDbEntity
  8
$DDT_AUDIT_GENERATED_(D9)
  6
Continuous
 62
     7
100
AcDbLine
 10
113.5714575778
 20
622.337997169
 30
0.0
 11
112.5714575778
 21
622.337997169
 31
0.0
  0
LINE
  5
29F
330
75
100
AcDbEntity
  8
$DDT_AUDIT_GENERATED_(D9)
  6
Continuous
 62
     7
100
AcDbLine
 10
112.5714575778
 20
622.337997169
 30
0.0
 11
112.5714575778
 21
622.4685233612
 31
0.0
  0
LINE
  5
2A0
330
75
100
AcDbEntity
  8
$DDT_AUDIT_GENERATED_(D9)
  6
Continuous
 62
     7
100
AcDbLine
 10
112.5714575778
 20
622.4685233612
 30
0.0
 11
113.5714575778
 21
622.4685233612
 31
0.0
  0
LINE
  5
2A1
330
75
100
AcDbEntity
  8
$DDT_AUDIT_GENERATED_(D9)
  6
Continuous
 62
     7
100
AcDbLine
 10
114.7714575778
 20
622.8078914609
 30
0.0
 11
113.7714575778
 21
622.8078914609
 31
0.0
  0
LINE
  5
2A2
330
75
100
AcDbEntity
  8
$DDT_AUDIT_GENERATED_(D9)
  6
Continuous
 62
     7
100
AcDbLine
 10
114.7714575778
 20
622.7817862225
 30
0.0
 11
114.7714575778
 21
622.6512600303
 31
0.0
  0
LINE
  5
2A3
330
75
100
AcDbEntity
  8
$DDT_AUDIT_GENERATED_(D9)
  6
Continuous
 62
     7
100
AcDbLine
 10
114.7714575778
 20
622.6512600303
 30
0.0
 11
113.7714575778
 21
622.6512600303
 31
0.0
  0
LINE
  5
2A4
330
75
100
AcDbEntity
  8
$DDT_AUDIT_GENERATED_(D9)
  6
Continuous
 62
     7
100
AcDbLine
 10
113.7714575778
 20
622.6512600303
 30
0.0
 11
113.7714575778
 21
622.7817862225
 31
0.0
  0
LINE
  5
2A5
330
75
100
AcDbEntity
  8
$DDT_AUDIT_GENERATED_(D9)
  6
Continuous
 62
     7
100
AcDbLine
 10
113.7714575778
 20
622.7817862225
 30
0.0
 11
114.7714575778
 21
622.7817862225
 31
0.0
  0
LINE
  5
2A6
330
75
100
AcDbEntity
  8
$DDT_AUDIT_GENERATED_(D9)
  6
Continuous
 62
     7
100
AcDbLine
 10
114.7714575778
 20
622.6251547918
 30
0.0
 11
114.7714575778
 21
622.4946285996
 31
0.0
  0
LINE
  5
2A7
330
75
100
AcDbEntity
  8
$DDT_AUDIT_GENERATED_(D9)
  6
Continuous
 62
     7
100
AcDbLine
 10
114.7714575778
 20
622.4946285996
 30
0.0
 11
113.7714575778
 21
622.4946285996
 31
0.0
  0
LINE
  5
2A8
330
75
100
AcDbEntity
  8
$DDT_AUDIT_GENERATED_(D9)
  6
Continuous
 62
     7
100
AcDbLine
 10
113.7714575778
 20
622.4946285996
 30
0.0
 11
113.7714575778
 21
622.6251547918
 31
0.0
  0
LINE
  5
2A9
330
75
100
AcDbEntity
  8
$DDT_AUDIT_GENERATED_(D9)
  6
Continuous
 62
     7
100
AcDbLine
 10
113.7714575778
 20
622.6251547918
 30
0.0
 11
114.7714575778
 21
622.6251547918
 31
0.0
  0
ELLIPSE
  5
2AA
330
75
100
AcDbEntity
  8
$DDT_AUDIT_GENERATED_(D9)
  6
Continuous
 62
     7
100
AcDbEllipse
 10
107.071457578
 20
622.8731545571
 30
0.0
 11
8.249999999782451
 21
3.941291737419306E-12
 31
0.0
210
0.0
220
0.0
230
1.0
 40
0.1305261922
 41
-0.2075474504859125
 42
-0.1640860757389833
  0
LINE
  5
2AB
330
75
100
AcDbEntity
  8
$DDT_AUDIT_GENERATED_(D9)
  6
Continuous
 62
     7
100
AcDbLine
 10
115.1444062336
 20
622.6512600303
 30
0.0
 11
115.1444062336
 21
622.724678411
 31
0.0
  0
LINE
  5
2AC
330
75
100
AcDbEntity
  8
$DDT_AUDIT_GENERATED_(D9)
  6
Continuous
 62
     7
100
AcDbLine
 10
115.1444062336
 20
622.6512600303
 30
0.0
 11
114.9714575778
 21
622.6512600303
 31
0.0
  0
LINE
  5
2AD
330
75
100
AcDbEntity
  8
$DDT_AUDIT_GENERATED_(D9)
  6
Continuous
 62
     7
100
AcDbLine
 10
114.9714575778
 20
622.6512600303
 30
0.0
 11
114.9714575778
 21
622.7817862225
 31
0.0
  0
LINE
  5
2AE
330
75
100
AcDbEntity
  8
$DDT_AUDIT_GENERATED_(D9)
  6
Continuous
 62
     7
100
AcDbLine
 10
114.9714575778
 20
622.7817862225
 30
0.0
 11
114.9868323474
 21
622.7817862225
 31
0.0
  0
ELLIPSE
  5
2AF
330
75
100
AcDbEntity
  8
$DDT_AUDIT_GENERATED_(D9)
  6
Continuous
 62
     7
100
AcDbEllipse
 10
107.0714575794
 20
622.873154557
 30
0.0
 11
8.249999998343066
 21
5.055678098386807E-11
 31
0.0
210
0.0
220
0.0
230
1.0
 40
0.1305261922
 41
-0.2923273931834123
 42
-0.2323890725050406
  0
LINE
  5
2B0
330
75
100
AcDbEntity
  8
$DDT_AUDIT_GENERATED_(D9)
  6
Continuous
 62
     7
100
AcDbLine
 10
114.9714575778
 20
622.5628287066
 30
0.0
 11
114.9714575778
 21
622.6251547918
 31
0.0
  0
LINE
  5
2B1
330
75
100
AcDbEntity
  8
$DDT_AUDIT_GENERATED_(D9)
  6
Continuous
 62
     7
100
AcDbLine
 10
114.9714575778
 20
622.6251547918
 30
0.0
 11
115.0996890144
 21
622.6251547918
 31
0.0
  0
ELLIPSE
  5
2B2
330
75
100
AcDbEntity
  8
$DDT_AUDIT_GENERATED_(D9)
  6
Continuous
 62
     7
100
AcDbEllipse
 10
107.0714575777
 20
622.8731545571
 30
0.0
 11
8.250000000065212
 21
-2.331468351712829E-12
 31
0.0
210
0.0
220
0.0
230
1.0
 40
0.1305261922
 41
-0.5201032032623205
 42
-0.3852141216607166
  0
LINE
  5
2B3
330
75
100
AcDbEntity
  8
$DDT_AUDIT_GENERATED_(D9)
  6
Continuous
 62
     7
100
AcDbLine
 10
114.2305427149
 20
622.337997169
 30
0.0
 11
114.2305427149
 21
622.4685233612
 31
0.0
  0
LINE
  5
2B4
330
75
100
AcDbEntity
  8
$DDT_AUDIT_GENERATED_(D9)
  6
Continuous
 62
     7
100
AcDbLine
 10
114.2305427149
 20
622.337997169
 30
0.0
 11
113.7714575778
 21
622.337997169
 31
0.0
  0
LINE
  5
2B5
330
75
100
AcDbEntity
  8
$DDT_AUDIT_GENERATED_(D9)
  6
Continuous
 62
     7
100
AcDbLine
 10
113.7714575778
 20
622.337997169
 30
0.0
 11
113.7714575778
 21
622.4685233612
 31
0.0
  0
LINE
  5
2B6
330
75
100
AcDbEntity
  8
$DDT_AUDIT_GENERATED_(D9)
  6
Continuous
 62
     7
100
AcDbLine
 10
113.7714575778
 20
622.4685233612
 30
0.0
 11
114.7168810455
 21
622.4685233612
 31
0.0
  0
ELLIPSE
  5
2B7
330
75
100
AcDbEntity
  8
$DDT_AUDIT_GENERATED_(D9)
  6
Continuous
 62
     7
100
AcDbEllipse
 10
107.0714576122
 20
622.8731545535
 30
0.0
 11
8.249999964515142
 21
2.851316405205750E-9
 31
0.0
210
0.0
220
0.0
230
1.0
 40
0.1305261923
 41
-0.6976574542732612
 42
-0.6634394355505551
  0
LINE
  5
2B8
330
75
100
AcDbEntity
  8
$DDT_AUDIT_GENERATED_(D9)
  6
Continuous
 62
     7
100
AcDbLine
 10
113.3938384584
 20
622.1813657383
 30
0.0
 11
113.3938384584
 21
622.3118919305
 31
0.0
  0
LINE
  5
2B9
330
75
100
AcDbEntity
  8
$DDT_AUDIT_GENERATED_(D9)
  6
Continuous
 62
     7
100
AcDbLine
 10
113.3938384584
 20
622.1813657383
 30
0.0
 11
112.5714575778
 21
622.1813657383
 31
0.0
  0
LINE
  5
2BA
330
75
100
AcDbEntity
  8
$DDT_AUDIT_GENERATED_(D9)
  6
Continuous
 62
     7
100
AcDbLine
 10
112.5714575778
 20
622.1813657383
 30
0.0
 11
112.5714575778
 21
622.3118919305
 31
0.0
  0
LINE
  5
2BB
330
75
100
AcDbEntity
  8
$DDT_AUDIT_GENERATED_(D9)
  6
Continuous
 62
     7
100
AcDbLine
 10
112.5714575778
 20
622.3118919305
 30
0.0
 11
113.5714575778
 21
622.3118919305
 31
0.0
  0
LINE
  5
2BC
330
75
100
AcDbEntity
  8
$DDT_AUDIT_GENERATED_(D9)
  6
Continuous
 62
     7
100
AcDbLine
 10
113.5714575778
 20
622.3118919305
 30
0.0
 11
113.5714575778
 21
622.2100031381
 31
0.0
  0
ELLIPSE
  5
2BD
330
75
100
AcDbEntity
  8
$DDT_AUDIT_GENERATED_(D9)
  6
Continuous
 62
     7
100
AcDbEllipse
 10
107.0714575797
 20
622.8731545569
 30
0.0
 11
8.249999998015277
 21
1.427746809667951E-10
 31
0.0
210
0.0
220
0.0
230
1.0
 40
0.1305261922
 41
-0.6230179598960541
 42
-0.5482706341455321
  0
LINE
  5
2BE
330
75
100
AcDbEntity
  8
$DDT_AUDIT_GENERATED_(D9)
  6
Continuous
 62
     7
100
AcDbLine
 10
113.7714575778
 20
622.2448298837
 30
0.0
 11
113.7714575778
 21
622.3118919305
 31
0.0
  0
LINE
  5
2BF
330
75
100
AcDbEntity
  8
$DDT_AUDIT_GENERATED_(D9)
  6
Continuous
 62
     7
100
AcDbLine
 10
113.7714575778
 20
622.3118919305
 30
0.0
 11
114.112231683
 21
622.3118919305
 31
0.0
  0
ELLIPSE
  5
2C0
330
75
100
AcDbEntity
  8
$DDT_AUDIT_GENERATED_(D9)
  6
Continuous
 62
     7
100
AcDbEllipse
 10
107.0714575681
 20
622.8731545586
 30
0.0
 11
8.250000010770098
 21
-1.002448124509669E-9
 31
0.0
210
0.0
220
0.0
230
1.0
 40
0.1305261922
 41
-0.9073568920674049
 42
-0.8731388734683527
  0
LINE
  5
2C1
330
75
100
AcDbEntity
  8
$DDT_AUDIT_GENERATED_(D9)
  6
Continuous
 62
     7
100
AcDbLine
 10
112.152057936
 20
622.0247343076
 30
0.0
 11
112.152057936
 21
622.1552604999
 31
0.0
  0
LINE
  5
2C2
330
75
100
AcDbEntity
  8
$DDT_AUDIT_GENERATED_(D9)
  6
Continuous
 62
     7
100
AcDbLine
 10
112.152057936
 20
622.0247343076
 30
0.0
 11
111.3714575778
 21
622.0247343076
 31
0.0
  0
LINE
  5
2C3
330
75
100
AcDbEntity
  8
$DDT_AUDIT_GENERATED_(D9)
  6
Continuous
 62
     7
100
AcDbLine
 10
111.3714575778
 20
622.0247343076
 30
0.0
 11
111.3714575778
 21
622.1552604999
 31
0.0
  0
LINE
  5
2C4
330
75
100
AcDbEntity
  8
$DDT_AUDIT_GENERATED_(D9)
  6
Continuous
 62
     7
100
AcDbLine
 10
111.3714575778
 20
622.1552604999
 30
0.0
 11
112.3714575778
 21
622.1552604999
 31
0.0
  0
LINE
  5
2C5
330
75
100
AcDbEntity
  8
$DDT_AUDIT_GENERATED_(D9)
  6
Continuous
 62
     7
100
AcDbLine
 10
112.3714575778
 20
622.1552604999
 30
0.0
 11
112.3714575778
 21
622.047918255
 31
0.0
  0
ELLIPSE
  5
2C6
330
75
100
AcDbEntity
  8
$DDT_AUDIT_GENERATED_(D9)
  6
Continuous
 62
     7
100
AcDbEllipse
 10
107.0714575778
 20
622.8731545571
 30
0.0
 11
8.250000000017417
 21
-4.163336342344337E-13
 31
0.0
210
0.0
220
0.0
230
1.0
 40
0.1305261922
 41
-0.8410686705671893
 42
-0.7297276562263963
  0
LINE
  5
2C7
330
75
100
AcDbEntity
  8
$DDT_AUDIT_GENERATED_(D9)
  6
Continuous
 62
     7
100
AcDbLine
 10
112.5714575778
 20
622.0705246008
 30
0.0
 11
112.5714575778
 21
622.1552604999
 31
0.0
  0
LINE
  5
2C8
330
75
100
AcDbEntity
  8
$DDT_AUDIT_GENERATED_(D9)
  6
Continuous
 62
     7
100
AcDbLine
 10
112.5714575778
 20
622.1552604999
 30
0.0
 11
113.2206445159
 21
622.1552604999
 31
0.0
  0
LINE
  5
2C9
330
75
100
AcDbEntity
  8
$DDT_AUDIT_GENERATED_(D9)
  6
Continuous
 62
     7
100
AcDbLine
 10
109.9714575778
 20
621.9986290692
 30
0.0
 11
109.9714575778
 21
621.868102877
 31
0.0
  0
LINE
  5
2CA
330
75
100
AcDbEntity
  8
$DDT_AUDIT_GENERATED_(D9)
  6
Continuous
 62
     7
100
AcDbLine
 10
109.9714575778
 20
621.868102877
 30
0.0
 11
108.9714575778
 21
621.868102877
 31
0.0
  0
LINE
  5
2CB
330
75
100
AcDbEntity
  8
$DDT_AUDIT_GENERATED_(D9)
  6
Continuous
 62
     7
100
AcDbLine
 10
108.9714575778
 20
621.868102877
 30
0.0
 11
108.9714575778
 21
621.9986290692
 31
0.0
  0
LINE
  5
2CC
330
75
100
AcDbEntity
  8
$DDT_AUDIT_GENERATED_(D9)
  6
Continuous
 62
     7
100
AcDbLine
 10
108.9714575778
 20
621.9986290692
 30
0.0
 11
109.9714575778
 21
621.9986290692
 31
0.0
  0
ELLIPSE
  5
2CD
330
75
100
AcDbEntity
  8
$DDT_AUDIT_GENERATED_(D9)
  6
Continuous
 62
     7
100
AcDbEllipse
 10
107.0714575777
 20
622.8731545571
 30
0.0
 11
8.250000000067173
 21
-5.842548667089886E-12
 31
0.0
210
0.0
220
0.0
230
1.0
 40
0.1305261922
 41
-1.185582205129475
 42
-1.050693123528229
  0
LINE
  5
2CE
330
75
100
AcDbEntity
  8
$DDT_AUDIT_GENERATED_(D9)
  6
Continuous
 62
     7
100
AcDbLine
 10
110.1714575778
 20
621.8752265439
 30
0.0
 11
110.1714575778
 21
621.9986290692
 31
0.0
  0
LINE
  5
2CF
330
75
100
AcDbEntity
  8
$DDT_AUDIT_GENERATED_(D9)
  6
Continuous
 62
     7
100
AcDbLine
 10
110.1714575778
 20
621.9986290692
 30
0.0
 11
111.1714575778
 21
621.9986290692
 31
0.0
  0
LINE
  5
2D0
330
75
100
AcDbEntity
  8
$DDT_AUDIT_GENERATED_(D9)
  6
Continuous
 62
     7
100
AcDbLine
 10
111.1714575778
 20
621.9986290692
 30
0.0
 11
111.1714575778
 21
621.9387064344
 31
0.0
  0
ELLIPSE
  5
2D1
330
75
100
AcDbEntity
  8
$DDT_AUDIT_GENERATED_(D9)
  6
Continuous
 62
     7
100
AcDbEllipse
 10
107.0714575791
 20
622.8731545568
 30
0.0
 11
8.249999998418019
 21
1.448841047135829E-10
 31
0.0
210
0.0
220
0.0
230
1.0
 40
0.1305261922
 41
-1.022525692786198
 42
-0.9477783670352826
  0
LINE
  5
2D2
330
75
100
AcDbEntity
  8
$DDT_AUDIT_GENERATED_(D9)
  6
Continuous
 62
     7
100
AcDbLine
 10
111.3714575778
 20
621.9541491228
 30
0.0
 11
111.3714575778
 21
621.9986290692
 31
0.0
  0
LINE
  5
2D3
330
75
100
AcDbEntity
  8
$DDT_AUDIT_GENERATED_(D9)
  6
Continuous
 62
     7
100
AcDbLine
 10
111.3714575778
 20
621.9986290692
 30
0.0
 11
111.8852398745
 21
621.9986290692
 31
0.0
  0
LINE
  5
2D4
330
75
100
AcDbEntity
  8
$DDT_AUDIT_GENERATED_(D9)
  6
Continuous
 62
     7
100
AcDbLine
 10
107.5714575778
 20
621.8419976385
 30
0.0
 11
107.5714575778
 21
621.7982929602
 31
0.0
  0
ELLIPSE
  5
2D5
330
75
100
AcDbEntity
  8
$DDT_AUDIT_GENERATED_(D9)
  6
Continuous
 62
     7
100
AcDbEllipse
 10
107.0714575778
 20
622.8731545571
 30
0.0
 11
8.250000000016961
 21
-5.412337245047638E-13
 31
0.0
210
0.0
220
0.0
230
1.0
 40
0.1305261922
 41
-1.485845702908664
 42
-1.363248876311474
  0
LINE
  5
2D6
330
75
100
AcDbEntity
  8
$DDT_AUDIT_GENERATED_(D9)
  6
Continuous
 62
     7
100
AcDbLine
 10
107.7714575778
 20
621.8001967054
 30
0.0
 11
107.7714575778
 21
621.8419976385
 31
0.0
  0
LINE
  5
2D7
330
75
100
AcDbEntity
  8
$DDT_AUDIT_GENERATED_(D9)
  6
Continuous
 62
     7
100
AcDbLine
 10
107.7714575778
 20
621.8419976385
 30
0.0
 11
108.7714575778
 21
621.8419976385
 31
0.0
  0
LINE
  5
2D8
330
75
100
AcDbEntity
  8
$DDT_AUDIT_GENERATED_(D9)
  6
Continuous
 62
     7
100
AcDbLine
 10
108.7714575778
 20
621.8419976385
 30
0.0
 11
108.7714575778
 21
621.819423309
 31
0.0
  0
ELLIPSE
  5
2D9
330
75
100
AcDbEntity
  8
$DDT_AUDIT_GENERATED_(D9)
  6
Continuous
 62
     7
100
AcDbEllipse
 10
107.0714575777
 20
622.8731545571
 30
0.0
 11
8.250000000108306
 21
-8.298917109073045E-12
 31
0.0
210
0.0
220
0.0
230
1.0
 40
0.1305261922
 41
-1.338407254309733
 42
-1.278468933638381
  0
LINE
  5
2DA
330
75
100
AcDbEntity
  8
$DDT_AUDIT_GENERATED_(D9)
  6
Continuous
 62
     7
100
AcDbLine
 10
108.9714575778
 20
621.8252600774
 30
0.0
 11
108.9714575778
 21
621.8419976385
 31
0.0
  0
LINE
  5
2DB
330
75
100
AcDbEntity
  8
$DDT_AUDIT_GENERATED_(D9)
  6
Continuous
 62
     7
100
AcDbLine
 10
108.9714575778
 20
621.8419976385
 30
0.0
 11
109.4489562634
 21
621.8419976385
 31
0.0
  0
LINE
  5
2DC
330
75
100
AcDbEntity
  8
$DDT_AUDIT_GENERATED_(D9)
  6
Continuous
 62
     7
100
AcDbLine
 10
116.0714575778
 20
622.3774321264
 30
0.0
 11
116.0714575778
 21
623.4073496733
 31
0.0
  0
LINE
  5
2DD
330
75
100
AcDbEntity
  8
$DDT_AUDIT_GENERATED_(D9)
  6
Continuous
 62
     7
100
AcDbLine
 10
98.0714575778
 20
623.4073496733
 30
0.0
 11
98.0714575778
 21
622.3774321264
 31
0.0
  0
SPLINE
  5
2DF
330
75
100
AcDbEntity
  8
$DDT_AUDIT_GENERATED_(2DE)
  6
Continuous
 62
     7
100
AcDbSpline
210
0.0
220
0.0
230
1.0
 70
     8
 71
     3
 72
     9
 73
     5
 74
     0
 42
0.0000000012265111
 43
0.0000000001
 40
0.0362689694510381
 40
0.0362689694510381
 40
0.0362689694510381
 40
0.0362689694510381
 40
0.0403804315667031
 40
0.0626449434894499
 40
0.0626449434894499
 40
0.0626449434894499
 40
0.0626449434894499
 10
127.4010511844989
 20
660.6420601501745
 30
0.0
 10
127.4017490257909
 20
660.6309480520656
 30
0.0
 10
127.405074097357
 20
660.5596427033737
 30
0.0
 10
127.4001729048396
 20
660.4882038875493
 30
0.0
 10
127.391335658188
 20
660.4279229843518
 30
0.0
  0
SPLINE
  5
2E0
330
75
100
AcDbEntity
  8
$DDT_AUDIT_GENERATED_(2DE)
  6
Continuous
 62
     7
100
AcDbSpline
210
0.0
220
0.0
230
1.0
 70
     8
 71
     3
 72
     8
 73
     4
 74
     0
 42
0.0000000012303427
 43
0.0000000001
 40
0.9489524300091222
 40
0.9489524300091222
 40
0.9489524300091222
 40
0.9489524300091222
 40
0.9638073164591368
 40
0.9638073164591368
 40
0.9638073164591368
 40
0.9638073164591368
 10
86.74143573224373
 20
660.5217233220179
 30
0.0
 10
86.73859820984279
 20
660.561919122073
 30
0.0
 10
86.7378299651276
 20
660.6021279375329
 30
0.0
 10
86.73951693497709
 20
660.6423183551486
 30
0.0
  0
LINE
  5
2E1
330
75
100
AcDbEntity
  8
$DDT_AUDIT_GENERATED_(2DE)
  6
Continuous
 62
     7
100
AcDbLine
 10
127.3546417743
 20
660.9356805521
 30
0.0
 11
133.7361752189
 21
630.1566950775
 31
0.0
  0
SPLINE
  5
2E2
330
75
100
AcDbEntity
  8
$DDT_AUDIT_GENERATED_(2DE)
  6
Continuous
 62
     7
100
AcDbSpline
210
0.0
220
0.0
230
1.0
 70
    12
 71
     3
 72
    26
 73
    22
 74
     0
 42
0.0000000004929396
 43
0.0000000001
 40
0.0
 40
0.0
 40
0.0
 40
0.0
 40
0.125
 40
0.1875000000000001
 40
0.2499999999999999
 40
0.2499999999999999
 40
0.3749999999999997
 40
0.3749999999999997
 40
0.4375000000000001
 40
0.5000000000000001
 40
0.5000000000000001
 40
0.6249999999999999
 40
0.6875000000000001
 40
0.6875000000000001
 40
0.8124999999999998
 40
0.8124999999999998
 40
0.8437499999999999
 40
0.8749999999999999
 40
0.8749999999999999
 40
0.9375000000000001
 40
1.0
 40
1.0
 40
1.0
 40
1.0
 10
107.0710579910456
 20
672.3213339668206
 30
0.0
 41
1.0
 10
108.3781426851886
 20
672.3213332492685
 30
0.0
 41
1.0
 10
110.305311300345
 20
672.29681939699
 30
0.0
 41
1.0
 10
112.8107216798645
 20
672.2180806644609
 30
0.0
 41
1.0
 10
114.0422296672659
 20
672.163021745551
 30
0.0
 41
1.0
 10
115.8351663741347
 20
672.070595157255
 30
0.0
 41
1.0
 10
116.9710918447589
 20
671.9956421453375
 30
0.0
 41
1.0
 10
118.5894165997761
 20
671.8640159705296
 30
0.0
 41
1.0
 10
119.6443525214024
 20
671.7693216504872
 30
0.0
 41
1.0
 10
120.6138508510487
 20
671.6640651800332
 30
0.0
 41
1.0
 10
122.0017169252897
 20
671.499052760805
 30
0.0
 41
1.0
 10
123.2617676602696
 20
671.319519944105
 30
0.0
 41
1.0
 10
124.3127762098926
 20
671.1161878240142
 30
0.0
 41
1.0
 10
125.26327747762
 20
670.9087289795285
 30
0.0
 41
1.0
 10
125.7737882889076
 20
670.7635704573419
 30
0.0
 41
1.0
 10
126.2363754850712
 20
670.5723297648398
 30
0.0
 41
1.0
 10
126.403254101901
 20
670.4945468437289
 30
0.0
 41
1.0
 10
126.5291281929991
 20
670.4163275830704
 30
0.0
 41
1.0
 10
126.6885946216017
 20
670.2985588373247
 30
0.0
 41
1.0
 10
126.8205896314915
 20
670.1404676648892
 30
0.0
 41
1.0
 10
126.8279498614851
 20
669.9818360313864
 30
0.0
 41
1.0
 10
126.827088853593
 20
669.9013318062936
 30
0.0
 41
1.0
  0
SPLINE
  5
2E3
330
75
100
AcDbEntity
  8
$DDT_AUDIT_GENERATED_(2DE)
  6
Continuous
 62
     7
100
AcDbSpline
210
0.0
220
0.0
230
1.0
 70
     8
 71
     3
 72
    14
 73
    10
 74
     0
 42
0.0000000059347106
 43
0.0000000001
 40
0.0
 40
0.0
 40
0.0
 40
0.0
 40
0.25
 40
0.25
 40
0.5
 40
0.5
 40
0.75
 40
0.75
 40
1.0
 40
1.0
 40
1.0
 40
1.0
 10
108.7085043916962
 20
668.4809527199692
 30
0.0
 10
108.7083913401903
 20
668.4960374042771
 30
0.0
 10
108.7049215471087
 20
668.5156875987033
 30
0.0
 10
108.606506799938
 20
668.5580102129928
 30
0.0
 10
108.5127088633806
 20
668.5806540942273
 30
0.0
 10
108.2252880563692
 20
668.6219330727628
 30
0.0
 10
108.032530780724
 20
668.6405428666087
 30
0.0
 10
107.5822101900659
 20
668.666435952541
 30
0.0
 10
107.3270811780204
 20
668.6736203621723
 30
0.0
 10
107.071058012552
 20
668.6735641673944
 30
0.0
  0
LINE
  5
2E4
330
75
100
AcDbEntity
  8
$DDT_AUDIT_GENERATED_(2DE)
  6
Continuous
 62
     7
100
AcDbLine
 10
107.0614835024
 20
668.4711908238
 30
0.0
 11
107.0710580036
 21
668.4711911478
 31
0.0
  0
LINE
  5
2E5
330
75
100
AcDbEntity
  8
$DDT_AUDIT_GENERATED_(2DE)
  6
Continuous
 62
     7
100
AcDbLine
 10
107.0710580096
 20
668.4711053821
 30
0.0
 11
107.0710580126
 21
668.6735641674
 31
0.0
  0
ARC
  5
2E6
330
75
100
AcDbEntity
  8
$DDT_AUDIT_GENERATED_(2DE)
  6
Continuous
 62
     7
100
AcDbCircle
 10
102.6795864196
 20
764.4900306067
 30
0.0
 40
101.9671084541642
100
AcDbArc
 50
261.2381647044
 51
272.4683512128
  0
ARC
  5
2E7
330
75
100
AcDbEntity
  8
$DDT_AUDIT_GENERATED_(2DE)
  6
Continuous
 62
     7
100
AcDbCircle
 10
111.6109792068
 20
761.9295174972
 30
0.0
 40
99.41543136820802
100
AcDbArc
 50
267.3860170828
 51
278.9020273746
  0
LINE
  5
2E8
330
75
100
AcDbEntity
  8
$DDT_AUDIT_GENERATED_(2DE)
  6
Continuous
 62
     7
100
AcDbLine
 10
126.7854277801
 20
663.417829865
 30
0.0
 11
126.8263188516
 21
669.901444229
 31
0.0
  0
ARC
  5
2E9
330
75
100
AcDbEntity
  8
$DDT_AUDIT_GENERATED_(2DE)
  6
Continuous
 62
     7
100
AcDbCircle
 10
107.0513289943
 20
805.892129857
 30
0.0
 40
137.4211695208831
100
AcDbArc
 50
270.690952187
 51
278.2739454432
  0
LINE
  5
2EA
330
75
100
AcDbEntity
  8
$DDT_AUDIT_GENERATED_(2DE)
  6
Continuous
 62
     7
100
AcDbLine
 10
108.7085029798
 20
668.4810703779
 30
0.0
 11
107.0710580036
 21
668.4711911478
 31
0.0
  0
LINE
  5
2EB
330
75
100
AcDbEntity
  8
$DDT_AUDIT_GENERATED_(2DE)
  6
Continuous
 62
     7
100
AcDbLine
 10
107.0614831772
 20
668.4711908239
 30
0.0
 11
105.4336102451
 21
668.4808453414
 31
0.0
  0
ARC
  5
2EC
330
75
100
AcDbEntity
  8
$DDT_AUDIT_GENERATED_(2DE)
  6
Continuous
 62
     7
100
AcDbCircle
 10
107.0472410376
 20
805.8116886973
 30
0.0
 40
137.3403300315243
100
AcDbArc
 50
261.7394634188
 51
269.3268083303
  0
SPLINE
  5
2ED
330
75
100
AcDbEntity
  8
$DDT_AUDIT_GENERATED_(2DE)
  6
Continuous
 62
     7
100
AcDbSpline
210
0.0
220
0.0
230
1.0
 70
     8
 71
     5
 72
    16
 73
    10
 74
     0
 42
0.0000000059328375
 43
0.0000000001
 40
0.0
 40
0.0
 40
0.0
 40
0.0
 40
0.0
 40
0.0
 40
0.07438016528926
 40
0.182569496619
 40
0.272727272727
 40
0.471074380165
 40
1.0
 40
1.0
 40
1.0
 40
1.0
 40
1.0
 40
1.0
 10
105.4336101620336
 20
668.4808383810779
 30
0.0
 10
105.4336298066614
 20
668.4835856528725
 30
0.0
 10
105.4336796675624
 20
668.4905879405346
 30
0.0
 10
105.4352731947684
 20
668.5019405111896
 30
0.0
 10
105.4504566029014
 20
668.5236225367806
 30
0.0
 10
105.5615989903104
 20
668.5752471396236
 30
0.0
 10
105.8624312424774
 20
668.6263732441067
 30
0.0
 10
106.2997828542824
 20
668.6607159203996
 30
0.0
 10
106.7462750752264
 20
668.6735727608366
 30
0.0
 10
107.071058012552
 20
668.6735641673944
 30
0.0
  0
LINE
  5
2EE
330
75
100
AcDbEntity
  8
$DDT_AUDIT_GENERATED_(2DE)
  6
Continuous
 62
     7
100
AcDbLine
 10
87.3570453549
 20
663.4199073158
 30
0.0
 11
87.315301124
 21
669.898756157
 31
0.0
  0
ARC
  5
2EF
330
75
100
AcDbEntity
  8
$DDT_AUDIT_GENERATED_(2DE)
  6
Continuous
 62
     7
100
AcDbCircle
 10
87.3783048022
 20
670.3848559884
 30
0.0
 40
0.4926829817939095
100
AcDbArc
 50
180.203881139
 51
262.6085208056
  0
SPLINE
  5
2F0
330
75
100
AcDbEntity
  8
$DDT_AUDIT_GENERATED_(2DE)
  6
Continuous
 62
     7
100
AcDbSpline
210
0.0
220
0.0
230
1.0
 70
    12
 71
     3
 72
    26
 73
    22
 74
     0
 42
0.0000000004929645
 43
0.0000000001
 40
0.0
 40
0.0
 40
0.0
 40
0.0
 40
0.0625000000002605
 40
0.1250000000002003
 40
0.1250000000002003
 40
0.1562500000001703
 40
0.1875000000001403
 40
0.1875000000001403
 40
0.3125000000000199
 40
0.3125000000000199
 40
0.3749999999999599
 40
0.5000000000001603
 40
0.5000000000001603
 40
0.5625000000001003
 40
0.6250000000000401
 40
0.6250000000000401
 40
0.7499999999999198
 40
0.7499999999999198
 40
0.8124999999998599
 40
0.8749999999997997
 40
1.0
 40
1.0
 40
1.0
 40
1.0
 10
87.3144985516592
 20
669.9027641549699
 30
0.0
 41
1.0
 10
87.31416616720304
 20
669.9818350943505
 30
0.0
 41
1.0
 10
87.32083432120064
 20
670.1405698122288
 30
0.0
 41
1.0
 10
87.45347546401113
 20
670.2985625087905
 30
0.0
 41
1.0
 10
87.61324496972975
 20
670.4162907311619
 30
0.0
 41
1.0
 10
87.73925502945853
 20
670.4944973392026
 30
0.0
 41
1.0
 10
87.90602329650854
 20
670.5723021064665
 30
0.0
 41
1.0
 10
88.36818192559504
 20
670.7636306581594
 30
0.0
 41
1.0
 10
88.87901222604404
 20
670.9087216062749
 30
0.0
 41
1.0
 10
89.82950056238924
 20
671.1161854989376
 30
0.0
 41
1.0
 10
90.88033809743715
 20
671.319574641879
 30
0.0
 41
1.0
 10
92.14051941917515
 20
671.4990754909928
 30
0.0
 41
1.0
 10
93.52853646717864
 20
671.6640460963588
 30
0.0
 41
1.0
 10
94.49808694720474
 20
671.7692881362668
 30
0.0
 41
1.0
 10
95.55291507927063
 20
671.8640153624164
 30
0.0
 41
1.0
 10
97.17111120602324
 20
671.9956819490944
 30
0.0
 41
1.0
 10
98.3070233221194
 20
672.0706235756795
 30
0.0
 41
1.0
 10
100.0999683717612
 20
672.1630179956991
 30
0.0
 41
1.0
 10
101.3314721257348
 20
672.2180593372076
 30
0.0
 41
1.0
 10
103.8368434899814
 20
672.296818038069
 30
0.0
 41
1.0
 10
105.7639845740673
 20
672.3213364033726
 30
0.0
 41
1.0
 10
107.0710579910456
 20
672.3213339668206
 30
0.0
 41
1.0
  0
ELLIPSE
  5
2F1
330
75
100
AcDbEntity
  8
$DDT_AUDIT_GENERATED_(2DE)
  6
Continuous
 62
     7
100
AcDbEllipse
 10
87.3856196389
 20
670.3939969442
 30
0.0
 11
0.4999962744585348
 21
0.001931199692550845
 31
0.0
210
0.0
220
0.0
230
1.0
 40
0.9925496657
 41
3.141577589451784
 42
3.215682511159792
  0
LINE
  5
2F2
330
75
100
AcDbEntity
  8
$DDT_AUDIT_GENERATED_(2DE)
  6
Continuous
 62
     7
100
AcDbLine
 10
86.9375777895
 20
664.006051695
 30
0.0
 11
86.8980684174
 21
670.278784157
 31
0.0
  0
SPLINE
  5
2F3
330
75
100
AcDbEntity
  8
$DDT_AUDIT_GENERATED_(2DE)
  6
Continuous
 62
     7
100
AcDbSpline
210
0.0
220
0.0
230
1.0
 70
     8
 71
     3
 72
    17
 73
    13
 74
     0
 42
0.0000000004548755
 43
0.0000000001
 40
0.0710921835776961
 40
0.0710921835776961
 40
0.0710921835776961
 40
0.0710921835776961
 40
0.14299243607803
 40
0.269855134165761
 40
0.3862592334084902
 40
0.5235222086370598
 40
0.5943419851481087
 40
0.6686023988658568
 40
0.7462969233358988
 40
0.8274168053160147
 40
0.9119753254039591
 40
1.0
 40
1.0
 40
1.0
 40
1.0
 10
86.95140431738585
 20
670.7672073234321
 30
0.0
 10
87.00340763028517
 20
670.8582095201384
 30
0.0
 10
87.26959507562019
 20
671.107452766516
 30
0.0
 10
88.34688847578654
 20
671.4871505862678
 30
0.0
 10
90.42238157343053
 20
671.9008749277228
 30
0.0
 10
92.73908188385568
 20
672.2079486062789
 30
0.0
 10
95.05618261251644
 20
672.4341600265732
 30
0.0
 10
97.03498546485167
 20
672.5886439485221
 30
0.0
 10
99.24610191894
 20
672.7212735826777
 30
0.0
 10
101.6791912504292
 20
672.8242613071559
 30
0.0
 10
104.312004763922
 20
672.8942796505155
 30
0.0
 10
106.1391431584756
 20
672.9032993111492
 30
0.0
 10
107.0710604457701
 20
672.9078997167314
 30
0.0
  0
SPLINE
  5
2F4
330
75
100
AcDbEntity
  8
$DDT_AUDIT_GENERATED_(2DE)
  6
Continuous
 62
     7
100
AcDbSpline
210
0.0
220
0.0
230
1.0
 70
     8
 71
     3
 72
    28
 73
    24
 74
     0
 42
0.0000000004552832
 43
0.0000000001
 40
0.0
 40
0.0
 40
0.0
 40
0.0
 40
0.0454955424194569
 40
0.0909899398046276
 40
0.1364792199035451
 40
0.1819635904837081
 40
0.2274448000987469
 40
0.2729235839393663
 40
0.3183984102145982
 40
0.3638662685841405
 40
0.4093256382792664
 40
0.4547801489712506
 40
0.5002365686111451
 40
0.5456977557283897
 40
0.5911572116040086
 40
0.6366017201178249
 40
0.6820246399841359
 40
0.7274417901749651
 40
0.7728887632784879
 40
0.8183808317941036
 40
0.8638709525634004
 40
0.9092961646001622
 40
0.9289413947794259
 40
0.9289413947794259
 40
0.9289413947794259
 40
0.9289413947794259
 10
107.0710604457701
 20
672.9078997167314
 30
0.0
 10
107.5528590043611
 20
672.9066846429175
 30
0.0
 10
108.5164435562698
 20
672.9042545258709
 30
0.0
 10
109.9539745027334
 20
672.8844923753718
 30
0.0
 10
111.3759510069801
 20
672.8531092405827
 30
0.0
 10
112.7749793942587
 20
672.8092164587601
 30
0.0
 10
114.1441127653494
 20
672.7534917024825
 30
0.0
 10
115.4768634862158
 20
672.6862973145898
 30
0.0
 10
116.7672113963838
 20
672.6081632182497
 30
0.0
 10
118.0095867540167
 20
672.5196260373679
 30
0.0
 10
119.1988314668798
 20
672.4212368673461
 30
0.0
 10
120.3300958779369
 20
672.313531633431
 30
0.0
 10
121.3986518735578
 20
672.1970308390078
 30
0.0
 10
122.399598460146
 20
672.0722455427613
 30
0.0
 10
123.3275291580796
 20
671.9396810465179
 30
0.0
 10
124.1762775379733
 20
671.7998285955538
 30
0.0
 10
124.9388263495115
 20
671.6531522367657
 30
0.0
 10
125.6071553699739
 20
671.5000903675818
 30
0.0
 10
126.1722537557227
 20
671.341154836468
 30
0.0
 10
126.624787761165
 20
671.1771227739964
 30
0.0
 10
126.9554029794707
 20
671.0091051678422
 30
0.0
 10
127.120225685436
 20
670.8707300649368
 30
0.0
 10
127.1772003149026
 20
670.78887955818
 30
0.0
 10
127.1911845054068
 20
670.764146772653
 30
0.0
  0
SPLINE
  5
2F5
330
75
100
AcDbEntity
  8
$DDT_AUDIT_GENERATED_(2DE)
  6
Continuous
 62
     7
100
AcDbSpline
210
0.0
220
0.0
230
1.0
 70
     8
 71
     3
 72
    22
 73
    18
 74
     0
 42
0.0000000002325716
 43
0.0000000001
 40
0.0355768267068114
 40
0.0355768267068114
 40
0.0355768267068114
 40
0.0355768267068114
 40
0.0431774712186524
 40
0.0847500520406457
 40
0.1070893529186631
 40
0.1397965511066236
 40
0.18699959566965
 40
0.2744379968452239
 40
0.3615361300216172
 40
0.4501982817447956
 40
0.5641111126582364
 40
0.6548344899438054
 40
0.7344136128903339
 40
0.8337950063335624
 40
0.9345404124521981
 40
0.9555499082758366
 40
0.9588361770772011
 40
0.9588361770772011
 40
0.9588361770772011
 40
0.9588361770772011
 10
87.5039289841867
 20
673.4238595432653
 30
0.0
 10
87.51370828172777
 20
673.4423085098554
 30
0.0
 10
87.58925312510486
 20
673.5617986634428
 30
0.0
 10
87.83929205871381
 20
673.737109281324
 30
0.0
 10
88.41314803492969
 20
673.9716040820497
 30
0.0
 10
89.22503374534618
 20
674.2155513653514
 30
0.0
 10
90.97872143294097
 20
674.5921931193019
 30
0.0
 10
94.08969318590655
 20
675.0162357868052
 30
0.0
 10
98.67195159838663
 20
675.3768415381717
 30
0.0
 10
104.407577049917
 20
675.58544883131
 30
0.0
 10
110.5705970494482
 20
675.5722388937331
 30
0.0
 10
116.1188777107161
 20
675.3352126928888
 30
0.0
 10
120.7009879431041
 20
674.9478271737713
 30
0.0
 10
124.4744553769292
 20
674.3910326520404
 30
0.0
 10
126.2067825815067
 20
673.8412153462217
 30
0.0
 10
126.5553548240094
 20
673.5388863285139
 30
0.0
 10
126.6023019373378
 20
673.4800265924899
 30
0.0
 10
126.6082770518232
 20
673.4720638532197
 30
0.0
  0
SPLINE
  5
2F6
330
75
100
AcDbEntity
  8
$DDT_AUDIT_GENERATED_(2DE)
  6
Continuous
 62
     7
100
AcDbSpline
210
0.0
220
0.0
230
1.0
 70
     8
 71
     3
 72
     8
 73
     4
 74
     0
 42
0.0000000011475684
 43
0.0000000001
 40
0.9588361770772011
 40
0.9588361770772011
 40
0.9588361770772011
 40
0.9588361770772011
 40
0.965354755235107
 40
0.965354755235107
 40
0.965354755235107
 40
0.965354755235107
 10
126.6082770518232
 20
673.4720638532197
 30
0.0
 10
126.6201291713938
 20
673.4562691202193
 30
0.0
 10
126.6305058279537
 20
673.4404692171186
 30
0.0
 10
126.6394476482765
 20
673.4246705330504
 30
0.0
  0
SPLINE
  5
2F7
330
75
100
AcDbEntity
  8
$DDT_AUDIT_GENERATED_(2DE)
  6
Continuous
 62
     7
100
AcDbSpline
210
0.0
220
0.0
230
1.0
 70
     8
 71
     3
 72
    22
 73
    18
 74
     0
 42
0.0000000034660588
 43
0.0000000001
 40
0.0075486349843554
 40
0.0075486349843554
 40
0.0075486349843554
 40
0.0075486349843554
 40
0.0614182387250037
 40
0.1222000483425594
 40
0.241426139914894
 40
0.3705494596519595
 40
0.4832983728766406
 40
0.5356102731383972
 40
0.6262789457392478
 40
0.7006125265007055
 40
0.746372180821088
 40
0.7733327617928055
 40
0.7983610856348059
 40
0.8290029019463852
 40
0.8477219727056657
 40
0.8851543404384355
 40
0.9129524274778684
 40
0.9129524274778684
 40
0.9129524274778684
 40
0.9129524274778684
 10
87.21482562343012
 20
663.5978985966009
 30
0.0
 10
87.35496844016271
 20
663.3534397462136
 30
0.0
 10
87.35196500811287
 20
663.2544080678874
 30
0.0
 10
87.33419745188499
 20
663.0443611462401
 30
0.0
 10
87.29265263445006
 20
662.7557434593846
 30
0.0
 10
87.21375470236387
 20
662.410101309904
 30
0.0
 10
87.1334256864461
 20
662.1326557637594
 30
0.0
 10
87.0496328117632
 20
661.908494356809
 30
0.0
 10
86.98026250941764
 20
661.729059061066
 30
0.0
 10
86.92291548592388
 20
661.5628618754696
 30
0.0
 10
86.8878828779765
 20
661.450099463687
 30
0.0
 10
86.86597656458954
 20
661.3778444328473
 30
0.0
 10
86.84618188657447
 20
661.3255201420045
 30
0.0
 10
86.83106834328444
 20
661.2809344638232
 30
0.0
 10
86.81776241430424
 20
661.2223528211897
 30
0.0
 10
86.80704467676868
 20
661.1650731826679
 30
0.0
 10
86.80049551264307
 20
661.1211054485384
 30
0.0
 10
86.79806306760499
 20
661.1025893931446
 30
0.0
  0
LINE
  5
2F8
330
75
100
AcDbEntity
  8
$DDT_AUDIT_GENERATED_(2DE)
  6
Continuous
 62
     7
100
AcDbLine
 10
127.243051993
 20
670.2904856379
 30
0.0
 11
127.2049000125
 21
664.0042199438
 31
0.0
  0
LINE
  5
2F9
330
75
100
AcDbEntity
  8
$DDT_AUDIT_GENERATED_(2DE)
  6
Continuous
 62
     7
100
AcDbLine
 10
127.2047442637
 20
664.0050111192
 30
0.0
 11
127.3416103721
 21
661.2025140765
 31
0.0
  0
SPLINE
  5
2FA
330
75
100
AcDbEntity
  8
$DDT_AUDIT_GENERATED_(2DE)
  6
Continuous
 62
     7
100
AcDbSpline
210
0.0
220
0.0
230
1.0
 70
     8
 71
     3
 72
    12
 73
     8
 74
     0
 42
0.0000000103425751
 43
0.0000000001
 40
0.3320080406529002
 40
0.3320080406529002
 40
0.3320080406529002
 40
0.3320080406529002
 40
0.5
 40
0.5
 40
0.75
 40
0.75
 40
1.0
 40
1.0
 40
1.0
 40
1.0
 10
133.8859096544618
 20
628.9017014386549
 30
0.0
 10
133.892842285469
 20
628.9288397896192
 30
0.0
 10
133.8971593943802
 20
628.962852552027
 30
0.0
 10
133.9015560610806
 20
629.0646068405335
 30
0.0
 10
133.8983792808501
 20
629.1410962826411
 30
0.0
 10
133.8813968651937
 20
629.3211045122281
 30
0.0
 10
133.8676291126918
 20
629.4250151615007
 30
0.0
 10
133.848957878738
 20
629.5430877860404
 30
0.0
  0
ARC
  5
2FB
330
75
100
AcDbEntity
  8
$DDT_AUDIT_GENERATED_(2DE)
  6
Continuous
 62
     7
100
AcDbCircle
 10
92.7802447821
 20
627.5650964173
 30
0.0
 40
12.64277590180001
100
AcDbArc
 50
168.1712899409
 51
170.9989653907
  0
ARC
  5
2FC
330
75
100
AcDbEntity
  8
$DDT_AUDIT_GENERATED_(2DE)
  6
Continuous
 62
     7
100
AcDbCircle
 10
121.3959544612
 20
627.5713610039
 30
0.0
 40
12.60813232088059
100
AcDbArc
 50
8.9971489912
 51
11.8325956772
  0
LINE
  5
2FD
330
75
100
AcDbEntity
  8
$DDT_AUDIT_GENERATED_(2DE)
  6
Continuous
 62
     7
100
AcDbLine
 10
133.5704924667
 20
628.5206263222
 30
0.0
 11
122.5813816221
 21
628.5206263222
 31
0.0
  0
LINE
  5
2FE
330
75
100
AcDbEntity
  8
$DDT_AUDIT_GENERATED_(2DE)
  6
Continuous
 62
     7
100
AcDbLine
 10
91.5562465404
 20
628.5206263222
 30
0.0
 11
80.5716235584
 21
628.5206263222
 31
0.0
  0
SPLINE
  5
2FF
330
75
100
AcDbEntity
  8
$DDT_AUDIT_GENERATED_(2DE)
  6
Continuous
 62
     7
100
AcDbSpline
210
0.0
220
0.0
230
1.0
 70
     8
 71
     3
 72
     8
 73
     4
 74
     0
 42
0.0000000003110366
 43
0.0000000001
 40
0.0
 40
0.0
 40
0.0
 40
0.0
 40
1.0
 40
1.0
 40
1.0
 40
1.0
 10
86.75673464158167
 20
660.3971666404769
 30
0.0
 10
84.6231223632351
 20
650.0523747452655
 30
0.0
 10
82.45691853445464
 20
639.5567347185731
 30
0.0
 10
80.25812315524033
 20
628.9102465603997
 30
0.0
  0
SPLINE
  5
300
330
75
100
AcDbEntity
  8
$DDT_AUDIT_GENERATED_(2DE)
  6
Continuous
 62
     7
100
AcDbSpline
210
0.0
220
0.0
230
1.0
 70
     8
 71
     3
 72
     8
 73
     4
 74
     0
 42
0.0000000003110422
 43
0.0000000001
 40
0.0
 40
0.0
 40
0.0
 40
0.0
 40
1.0
 40
1.0
 40
1.0
 40
1.0
 10
133.8838775817663
 20
628.9108049663961
 30
0.0
 10
131.6851590739725
 20
639.5569208542275
 30
0.0
 10
129.5189936881197
 20
650.0523746798701
 30
0.0
 10
127.3853814242078
 20
660.3971664433237
 30
0.0
  0
ARC
  5
301
330
75
100
AcDbEntity
  8
$DDT_AUDIT_GENERATED_(2DE)
  6
Continuous
 62
     7
100
AcDbCircle
 10
126.3431089344
 20
670.4238026766
 30
0.0
 40
0.9144367307217461
100
AcDbArc
 50
355.7024890869
 51
21.9772012258
  0
LINE
  5
302
330
75
100
AcDbEntity
  8
$DDT_AUDIT_GENERATED_(2DE)
  6
Continuous
 62
     7
100
AcDbLine
 10
86.885623405
 20
670.3920465586
 30
0.0
 11
86.8856584685
 21
670.3830587047
 31
0.0
  0
ARC
  5
303
330
75
100
AcDbEntity
  8
$DDT_AUDIT_GENERATED_(2DE)
  6
Continuous
 62
     7
100
AcDbCircle
 10
87.7975259845
 20
670.4248013813
 30
0.0
 40
0.9130352974261119
100
AcDbArc
 50
158.0581254001
 51
184.3669866986
  0
LINE
  5
304
330
75
100
AcDbEntity
  8
$DDT_AUDIT_GENERATED_(2DE)
  6
Continuous
 62
     7
100
AcDbLine
 10
127.1902022117
 20
670.7688790621
 30
0.0
 11
126.639278142
 21
673.4247359456
 31
0.0
  0
LINE
  5
305
330
75
100
AcDbEntity
  8
$DDT_AUDIT_GENERATED_(2DE)
  6
Continuous
 62
     7
100
AcDbLine
 10
87.5028401193
 20
673.4268977407
 30
0.0
 11
86.9514976564
 21
670.7688370769
 31
0.0
  0
SPLINE
  5
306
330
75
100
AcDbEntity
  8
$DDT_AUDIT_GENERATED_(2DE)
  6
Continuous
 62
     7
100
AcDbSpline
210
0.0
220
0.0
230
1.0
 70
     8
 71
     3
 72
    61
 73
    57
 74
     0
 42
0.0000000002459486
 43
0.0000000001
 40
0.0
 40
0.0
 40
0.0
 40
0.0
 40
0.0085050616134329
 40
0.0163544125582278
 40
0.0339179289655766
 40
0.0485418332557723
 40
0.0607630623716788
 40
0.0703928550453473
 40
0.078689421987279
 40
0.0872400615791371
 40
0.1078182155386772
 40
0.1296099498641491
 40
0.1496817003728796
 40
0.1644327700675082
 40
0.1769212155618887
 40
0.1875987633466183
 40
0.1992120301775959
 40
0.212217446789827
 40
0.2266004070794119
 40
0.2423439593486053
 40
0.2624021046920718
 40
0.2842385389273884
 40
0.3077980748565644
 40
0.3330206627231969
 40
0.358858860731423
 40
0.3844718376088958
 40
0.409854603507715
 40
0.4350023035529279
 40
0.459912920086622
 40
0.4845897161060841
 40
0.5090420923565195
 40
0.5332837802544987
 40
0.5573329560616049
 40
0.5812139065937459
 40
0.6049558736179194
 40
0.6285577538221311
 40
0.6511441361061662
 40
0.672344746135504
 40
0.695999027608651
 40
0.7177394795872412
 40
0.7375865832385387
 40
0.7555503972537385
 40
0.7723363591395089
 40
0.7911527778706556
 40
0.8124283336687325
 40
0.8356130810053295
 40
0.8596352685150014
 40
0.8838642826593417
 40
0.8975556401972151
 40
0.9099265411646562
 40
0.9227716555003665
 40
0.9375697357242866
 40
0.9544229234320549
 40
0.9712601559529439
 40
0.9864549601433732
 40
0.9910902730539649
 40
0.9910902730539649
 40
0.9910902730539649
 40
0.9910902730539649
 10
126.6112184095943
 20
673.4627806501292
 30
0.0
 10
126.5794442476764
 20
673.5644759260528
 30
0.0
 10
126.5278256625056
 20
673.7270341176722
 30
0.0
 10
126.3585063651068
 20
673.9808515149423
 30
0.0
 10
126.1797147035658
 20
674.0928207508409
 30
0.0
 10
125.9536654339695
 20
674.2226442109165
 30
0.0
 10
125.7252236074494
 20
674.3212052458002
 30
0.0
 10
125.5199558201855
 20
674.3981076477597
 30
0.0
 10
125.3324321397538
 20
674.4618868712973
 30
0.0
 10
125.0494966274263
 20
674.5507344602802
 30
0.0
 10
124.625646203336
 20
674.6675613154873
 30
0.0
 10
124.0303943955136
 20
674.8050012737501
 30
0.0
 10
123.4307064039823
 20
674.9244163669088
 30
0.0
 10
122.8913091551055
 20
675.0203190733861
 30
0.0
 10
122.4362683473574
 20
675.0945792880572
 30
0.0
 10
122.0024861373042
 20
675.1605096070178
 30
0.0
 10
121.5459373978845
 20
675.2253717611846
 30
0.0
 10
121.0221116179623
 20
675.2944910669846
 30
0.0
 10
120.4199370469872
 20
675.3677060371184
 30
0.0
 10
119.6914112156561
 20
675.448648388597
 30
0.0
 10
118.8185667138465
 20
675.5356652373581
 30
0.0
 10
117.78238921927
 20
675.6263058922226
 30
0.0
 10
116.6153787014299
 20
675.7141970545628
 30
0.0
 10
115.331374064164
 20
675.7954446626013
 30
0.0
 10
113.9637959527584
 20
675.86606735613
 30
0.0
 10
112.5520847846433
 20
675.9235719173503
 30
0.0
 10
111.1202713735229
 20
675.9673262706833
 30
0.0
 10
109.6775139039435
 20
675.9975319257023
 30
0.0
 10
108.2327922218667
 20
676.0144429360056
 30
0.0
 10
106.794698490558
 20
676.0183523543209
 30
0.0
 10
105.3712603420147
 20
676.009607040481
 30
0.0
 10
103.9696679935288
 20
675.988580192643
 30
0.0
 10
102.596262580029
 20
675.955610440049
 30
0.0
 10
101.2564812418758
 20
675.9110378855013
 30
0.0
 10
99.95539230526536
 20
675.8552304818551
 30
0.0
 10
98.71349360373797
 20
675.7893762583171
 30
0.0
 10
97.55538471660812
 20
675.7157186379071
 30
0.0
 10
96.43734773730081
 20
675.6325704436655
 30
0.0
 10
95.37832582477878
 20
675.5411756779082
 30
0.0
 10
94.38941489512335
 20
675.4427670165348
 30
0.0
 10
93.53024376131532
 20
675.345789956563
 30
0.0
 10
92.78113112482457
 20
675.2511336982466
 30
0.0
 10
92.0828956489886
 20
675.1532570041496
 30
0.0
 10
91.38258885861936
 20
675.0439033407843
 30
0.0
 10
90.65981824137661
 20
674.9159588507619
 30
0.0
 10
89.94940204648645
 20
674.7703571222532
 30
0.0
 10
89.29137905698099
 20
674.6101456612412
 30
0.0
 10
88.80572172210044
 20
674.4648330280683
 30
0.0
 10
88.46800379712025
 20
674.3418774938276
 30
0.0
 10
88.23777199972007
 20
674.243714319258
 30
0.0
 10
88.0294918603057
 20
674.1374524020063
 30
0.0
 10
87.83619898334963
 20
674.0109941531325
 30
0.0
 10
87.68389654227622
 20
673.8684879182568
 30
0.0
 10
87.5725033988852
 20
673.7005651652918
 30
0.0
 10
87.51125608778601
 20
673.5251180557943
 30
0.0
 10
87.48609356430642
 20
673.403154865029
 30
0.0
 10
87.48041712313896
 20
673.3729583065884
 30
0.0
  0
SPLINE
  5
307
330
75
100
AcDbEntity
  8
$DDT_AUDIT_GENERATED_(2DE)
  6
Continuous
 62
     7
100
AcDbSpline
210
0.0
220
0.0
230
1.0
 70
     8
 71
     3
 72
     8
 73
     4
 74
     0
 42
0.0000000004154926
 43
0.0000000001
 40
0.998430662000676
 40
0.998430662000676
 40
0.998430662000676
 40
0.998430662000676
 40
1.0
 40
1.0
 40
1.0
 40
1.0
 10
87.45408259272389
 20
673.2159811282698
 30
0.0
 10
87.4521859667709
 20
673.2037717258688
 30
0.0
 10
87.45027119252605
 20
673.1913311539249
 30
0.0
 10
87.44832935821185
 20
673.1786513439337
 30
0.0
  0
SPLINE
  5
308
330
75
100
AcDbEntity
  8
$DDT_AUDIT_GENERATED_(2DE)
  6
Continuous
 62
     7
100
AcDbSpline
210
0.0
220
0.0
230
1.0
 70
     8
 71
     3
 72
    15
 73
    11
 74
     0
 42
0.0000000088577056
 43
0.0000000001
 40
0.0
 40
0.0
 40
0.0
 40
0.0
 40
0.076447638065143
 40
0.268827071673884
 40
0.4686886771923873
 40
0.6351099690794375
 40
0.7395998297087228
 40
0.8303993732136092
 40
0.9171011627147647
 40
1.0
 40
1.0
 40
1.0
 40
1.0
 10
80.28126523537811
 20
629.4604318766873
 30
0.0
 10
80.27498885640533
 20
629.4206072590689
 30
0.0
 10
80.25642776593259
 20
629.3016377116136
 30
0.0
 10
80.2387104095165
 20
629.1189210124461
 30
0.0
 10
80.2338028977168
 20
628.9385386830958
 30
0.0
 10
80.24963419805839
 20
628.8042165468041
 30
0.0
 10
80.28809626457657
 20
628.6952941755552
 30
0.0
 10
80.35082201157174
 20
628.604419447708
 30
0.0
 10
80.45735252600704
 20
628.5321571079979
 30
0.0
 10
80.52901604341545
 20
628.5259598943816
 30
0.0
 10
80.57126678477766
 20
628.52279950363
 30
0.0
  0
SPLINE
  5
309
330
75
100
AcDbEntity
  8
$DDT_AUDIT_GENERATED_(2DE)
  6
Continuous
 62
     7
100
AcDbSpline
210
0.0
220
0.0
230
1.0
 70
     8
 71
     3
 72
    14
 73
    10
 74
     0
 42
0.0000000140285009
 43
0.0000000001
 40
0.0
 40
0.0
 40
0.0
 40
0.0
 40
0.026085205769347
 40
0.1582566097996946
 40
0.2948091461107654
 40
0.4300347427506445
 40
0.5861688093828196
 40
0.7972763914349021
 40
1.0
 40
1.0
 40
1.0
 40
1.0
 10
133.5727089687493
 20
628.5236070170113
 30
0.0
 10
133.5804098917108
 20
628.5225805516359
 30
0.0
 10
133.6202442554696
 20
628.5174953888855
 30
0.0
 10
133.7177836619777
 20
628.5493319319951
 30
0.0
 10
133.8083446582733
 20
628.6245675812462
 30
0.0
 10
133.8622314992357
 20
628.7146785147004
 30
0.0
 10
133.8918386098819
 20
628.8106023171638
 30
0.0
 10
133.906470654528
 20
628.9165734182692
 30
0.0
 10
133.9038811390634
 20
629.0002898696999
 30
0.0
 10
133.9017376774516
 20
629.0486948250307
 30
0.0
  0
ENDBLK
  5
30B
330
75
100
AcDbEntity
  8
0
100
AcDbBlockEnd
  0
BLOCK
  5
37C
330
30C
100
AcDbEntity
  8
0
100
AcDbBlockBegin
  2
SE1
 70
     0
 10
0.0
 20
0.0
 30
0.0
  3
SE1
  1

  0
LINE
  5
30E
330
30C
100
AcDbEntity
  8
$DDT_AUDIT_GENERATED_(77)
  6
Continuous
 62
     7
100
AcDbLine
 10
259.0042634305
 20
513.9261388355
 30
0.0
 11
207.0042634305
 21
513.9261388355
 31
0.0
  0
LINE
  5
30F
330
30C
100
AcDbEntity
  8
$DDT_AUDIT_GENERATED_(77)
  6
Continuous
 62
     7
100
AcDbLine
 10
206.5042634305
 20
514.4761388355
 30
0.0
 11
206.5042634305
 21
514.4261388355
 31
0.0
  0
LINE
  5
310
330
30C
100
AcDbEntity
  8
$DDT_AUDIT_GENERATED_(77)
  6
Continuous
 62
     7
100
AcDbLine
 10
259.5042634305
 20
514.4261388355
 30
0.0
 11
259.5042634305
 21
514.4761388355
 31
0.0
  0
ARC
  5
311
330
30C
100
AcDbEntity
  8
$DDT_AUDIT_GENERATED_(77)
  6
Continuous
 62
     7
100
AcDbCircle
 10
207.0042634305
 20
514.4261388355
 30
0.0
 40
0.5000000000000004
100
AcDbArc
 50
180.0
 51
270.0
  0
ARC
  5
312
330
30C
100
AcDbEntity
  8
$DDT_AUDIT_GENERATED_(77)
  6
Continuous
 62
     7
100
AcDbCircle
 10
259.0042634305
 20
514.4261388355
 30
0.0
 40
0.5000000000000004
100
AcDbArc
 50
270.0
 51
0.0
  0
LINE
  5
313
330
30C
100
AcDbEntity
  8
$DDT_AUDIT_GENERATED_(7D)
  6
Continuous
 62
     7
100
AcDbLine
 10
262.0042634305
 20
582.4761388355
 30
0.0
 11
204.0042634305
 21
582.4761388355
 31
0.0
  0
LINE
  5
314
330
30C
100
AcDbEntity
  8
$DDT_AUDIT_GENERATED_(7D)
  6
Continuous
 62
     7
100
AcDbLine
 10
262.0042634305
 20
514.4761388355
 30
0.0
 11
204.0042634305
 21
514.4761388355
 31
0.0
  0
ARC
  5
315
330
30C
100
AcDbEntity
  8
$DDT_AUDIT_GENERATED_(7D)
  6
Continuous
 62
     7
100
AcDbCircle
 10
175.0706772792
 20
575.6761388356
 30
0.0
 40
29.00262759774685
100
AcDbArc
 50
356.0457869831
 51
3.9542132731
  0
LINE
  5
316
330
30C
100
AcDbEntity
  8
$DDT_AUDIT_GENERATED_(7D)
  6
Continuous
 62
     7
100
AcDbLine
 10
262.0042634305
 20
514.4761388355
 30
0.0
 11
262.0042634305
 21
544.2537395487
 31
0.0
  0
LINE
  5
317
330
30C
100
AcDbEntity
  8
$DDT_AUDIT_GENERATED_(7D)
  6
Continuous
 62
     7
100
AcDbLine
 10
262.0042634305
 20
566.2340448239
 30
0.0
 11
262.0042634305
 21
582.4761388355
 31
0.0
  0
LINE
  5
318
330
30C
100
AcDbEntity
  8
$DDT_AUDIT_GENERATED_(7D)
  6
Continuous
 62
     7
100
AcDbLine
 10
204.0042634305
 20
573.7007926644
 30
0.0
 11
204.0042634305
 21
514.4761388355
 31
0.0
  0
LINE
  5
319
330
30C
100
AcDbEntity
  8
$DDT_AUDIT_GENERATED_(7D)
  6
Continuous
 62
     7
100
AcDbLine
 10
204.0042634305
 20
582.4761388355
 30
0.0
 11
204.0042634305
 21
577.6761388355
 31
0.0
  0
ARC
  5
31A
330
30C
100
AcDbEntity
  8
$DDT_AUDIT_GENERATED_(83)
  6
Continuous
 62
     7
100
AcDbCircle
 10
476.6766074364
 20
486.8097374247
 30
0.0
 40
167.5445975746229
100
AcDbArc
 50
92.0800142447
 51
97.3880346957
  0
SPLINE
  5
31B
330
30C
100
AcDbEntity
  8
$DDT_AUDIT_GENERATED_(83)
  6
Continuous
 62
     7
100
AcDbSpline
210
0.0
220
0.0
230
1.0
 70
     8
 71
     3
 72
    14
 73
    10
 74
     0
 42
0.0000000000456636
 43
0.0000000001
 40
0.0
 40
0.0
 40
0.0
 40
0.0
 40
0.25
 40
0.25
 40
0.5
 40
0.5
 40
0.75
 40
0.75
 40
1.0
 40
1.0
 40
1.0
 40
1.0
 10
452.2156132617394
 20
651.8135442610933
 30
0.0
 10
434.0997523718513
 20
649.1619376557464
 30
0.0
 10
416.5994658435777
 20
644.2248919223963
 30
0.0
 10
382.4319499089422
 20
631.2579113506636
 30
0.0
 10
365.8829178879551
 20
623.2664277151307
 30
0.0
 10
333.9166419087124
 20
605.7024579248587
 30
0.0
 10
318.4453286969922
 20
596.1084711715738
 30
0.0
 10
288.0973363639734
 20
575.9771199807915
 30
0.0
 10
273.2206424115181
 20
565.4315760498039
 30
0.0
 10
258.5217911414002
 20
554.6216621363396
 30
0.0
  0
ARC
  5
31C
330
30C
100
AcDbEntity
  8
$DDT_AUDIT_GENERATED_(83)
  6
Continuous
 62
     7
100
AcDbCircle
 10
167.7716854251
 20
1377.6074506594
 30
0.0
 40
779.5416234223991
100
AcDbArc
 50
291.4005752528
 51
291.6310071173
  0
SPLINE
  5
31D
330
30C
100
AcDbEntity
  8
$DDT_AUDIT_GENERATED_(83)
  6
Continuous
 62
     7
100
AcDbSpline
210
0.0
220
0.0
230
1.0
 70
     8
 71
     3
 72
    20
 73
    16
 74
     0
 42
0.0000000005890673
 43
0.0000000001
 40
0.0
 40
0.0
 40
0.0
 40
0.0
 40
0.125
 40
0.125
 40
0.2500000000000001
 40
0.2500000000000001
 40
0.3749999999999999
 40
0.3749999999999999
 40
0.4999999999999999
 40
0.4999999999999999
 40
0.7499999999999999
 40
0.7499999999999999
 40
0.875
 40
0.875
 40
1.0
 40
1.0
 40
1.0
 40
1.0
 10
440.1106623255728
 20
640.0519836568908
 30
0.0
 10
440.1106834681657
 20
640.0520042131864
 30
0.0
 10
440.2065544728277
 20
640.1685909984398
 30
0.0
 10
440.5708973317483
 20
640.6085168427473
 30
0.0
 10
440.8428245626098
 20
640.9358877867388
 30
0.0
 10
441.5126304700402
 20
641.7327312324717
 30
0.0
 10
441.9176441594454
 20
642.210645666517
 30
0.0
 10
442.8212973670009
 20
643.2584683920726
 30
0.0
 10
443.3174319813574
 20
643.8257110135763
 30
0.0
 10
444.9268491144938
 20
645.6201210317472
 30
0.0
 10
446.1597677461031
 20
646.9473702828368
 30
0.0
 10
448.2083525461258
 20
648.8922224519
 30
0.0
 10
448.9330235792341
 20
649.5405086354123
 30
0.0
 10
450.4864495307863
 20
650.7654073475942
 30
0.0
 10
451.3069227829838
 20
651.3393417003745
 30
0.0
 10
452.2156132617394
 20
651.8135442610933
 30
0.0
  0
SPLINE
  5
31E
330
30C
100
AcDbEntity
  8
$DDT_AUDIT_GENERATED_(83)
  6
Continuous
 62
     7
100
AcDbSpline
210
0.0
220
0.0
230
1.0
 70
     8
 71
     3
 72
    16
 73
    12
 74
     0
 42
0.0000000000495321
 43
0.0000000001
 40
0.0
 40
0.0
 40
0.0
 40
0.0
 40
0.1249999999999999
 40
0.1249999999999999
 40
0.2499999999999999
 40
0.2499999999999999
 40
0.4999999999999998
 40
0.4999999999999998
 40
0.7499999999999999
 40
0.7499999999999999
 40
1.0
 40
1.0
 40
1.0
 40
1.0
 10
440.1106623255728
 20
640.0519836568908
 30
0.0
 10
431.8723026219465
 20
638.2850575218694
 30
0.0
 10
423.7180176860601
 20
636.0386823025974
 30
0.0
 10
407.6919855441837
 20
630.8014610983912
 30
0.0
 10
399.8274825560974
 20
627.8164310748826
 30
0.0
 10
376.585726644941
 20
617.9934770578276
 30
0.0
 10
361.5286869926176
 20
610.2792544404896
 30
0.0
 10
332.3379401500885
 20
593.6270388574599
 30
0.0
 10
318.1509458796117
 20
584.6619918257537
 30
0.0
 10
290.2722287633412
 20
565.957009163927
 30
0.0
 10
276.5831033826315
 20
556.2130096084961
 30
0.0
 10
263.0456545298667
 20
546.2317009609309
 30
0.0
  0
SPLINE
  5
31F
330
30C
100
AcDbEntity
  8
$DDT_AUDIT_GENERATED_(83)
  6
Continuous
 62
     7
100
AcDbSpline
210
0.0
220
0.0
230
1.0
 70
     8
 71
     3
 72
     8
 73
     4
 74
     0
 42
0.0000000007471604
 43
0.0000000001
 40
0.0
 40
0.0
 40
0.0
 40
0.0
 40
1.0
 40
1.0
 40
1.0
 40
1.0
 10
454.7883699771449
 20
655.5700522764392
 30
0.0
 10
459.211424976973
 20
656.1523585197557
 30
0.0
 10
463.6667037275579
 20
656.4326541047809
 30
0.0
 10
468.1253772712887
 20
656.417612673047
 30
0.0
  0
SPLINE
  5
320
330
30C
100
AcDbEntity
  8
$DDT_AUDIT_GENERATED_(83)
  6
Continuous
 62
     7
100
AcDbSpline
210
0.0
220
0.0
230
1.0
 70
     8
 71
     3
 72
    20
 73
    16
 74
     0
 42
0.0000000027779355
 43
0.0000000001
 40
0.0
 40
0.0
 40
0.0
 40
0.0
 40
0.2500000000000013
 40
0.2500000000000013
 40
0.3750000000000011
 40
0.3750000000000011
 40
0.5000000000000009
 40
0.5000000000000009
 40
0.6250000000000007
 40
0.6250000000000007
 40
0.7500000000000004
 40
0.7500000000000004
 40
0.8750000000000002
 40
0.8750000000000002
 40
1.0
 40
1.0
 40
1.0
 40
1.0
 10
470.5955555725785
 20
654.2439423670261
 30
0.0
 10
470.5561411334889
 20
654.5433254938876
 30
0.0
 10
470.4642717007778
 20
654.8289549345448
 30
0.0
 10
470.2519140401086
 20
655.2270229263152
 30
0.0
 10
470.1701688112308
 20
655.3516586770779
 30
0.0
 10
469.9853902210289
 20
655.585286385917
 30
0.0
 10
469.8812144548714
 20
655.6952192941415
 30
0.0
 10
469.6560813202067
 20
655.8933651126915
 30
0.0
 10
469.5359045979989
 20
655.9813068036149
 30
0.0
 10
469.2805954418187
 20
656.1353147708373
 30
0.0
 10
469.1439847106847
 20
656.2018258607824
 30
0.0
 10
468.8642685916016
 20
656.3080000381653
 30
0.0
 10
468.7209389067654
 20
656.3481576438652
 30
0.0
 10
468.4273773774651
 20
656.4027669256385
 30
0.0
 10
468.276359651604
 20
656.4171033307173
 30
0.0
 10
468.1253772712887
 20
656.417612673047
 30
0.0
  0
ARC
  5
321
330
30C
100
AcDbEntity
  8
$DDT_AUDIT_GENERATED_(83)
  6
Continuous
 62
     7
100
AcDbCircle
 10
27.1902790992
 20
761.398484396
 30
0.0
 40
305.3306065104644
100
AcDbArc
 50
319.3377531655
 51
320.2758439014
  0
ARC
  5
322
330
30C
100
AcDbEntity
  8
$DDT_AUDIT_GENERATED_(83)
  6
Continuous
 62
     7
100
AcDbCircle
 10
268.4597978443
 20
556.0445414424
 30
0.0
 40
11.5855365352149
100
AcDbArc
 50
146.4618809068
 51
191.5856804437
  0
ARC
  5
323
330
30C
100
AcDbEntity
  8
$DDT_AUDIT_GENERATED_(83)
  6
Continuous
 62
     7
100
AcDbCircle
 10
287.3837655796
 20
563.3729152233
 30
0.0
 40
31.77583415652771
100
AcDbArc
 50
197.6890771077
 51
217.0682801835
  0
ARC
  5
324
330
30C
100
AcDbEntity
  8
$DDT_AUDIT_GENERATED_(83)
  6
Continuous
 62
     7
100
AcDbCircle
 10
281.5166662743
 20
561.6058755635
 30
0.0
 40
24.03213514391567
100
AcDbArc
 50
196.895063985
 51
219.7719894512
  0
SPLINE
  5
325
330
30C
100
AcDbEntity
  8
$DDT_AUDIT_GENERATED_(83)
  6
Continuous
 62
     7
100
AcDbSpline
210
0.0
220
0.0
230
1.0
 70
     8
 71
     3
 72
    18
 73
    14
 74
     0
 42
0.0000000000471937
 43
0.0000000001
 40
0.0
 40
0.0
 40
0.0
 40
0.0
 40
0.2500000000000001
 40
0.2500000000000001
 40
0.5000000000000001
 40
0.5000000000000001
 40
0.6250000000000001
 40
0.6250000000000001
 40
0.7500000000000002
 40
0.7500000000000002
 40
0.8750000000000001
 40
0.8750000000000001
 40
1.0
 40
1.0
 40
1.0
 40
1.0
 10
265.9939216559094
 20
564.2380682389336
 30
0.0
 10
280.3053353905186
 20
574.5841066361384
 30
0.0
 10
294.8091297447152
 20
584.6528147055279
 30
0.0
 10
324.4810479071769
 20
603.8325527493431
 30
0.0
 10
339.609119767881
 20
612.9227591105658
 30
0.0
 10
363.012564810901
 20
625.3016293636841
 30
0.0
 10
370.9454257081429
 20
629.221172032343
 30
0.0
 10
387.0390430672626
 20
636.4810881141096
 30
0.0
 10
395.2036087710439
 20
639.824465784032
 30
0.0
 10
411.8279899295456
 20
645.7926840878943
 30
0.0
 10
420.2841626505019
 20
648.4128888166016
 30
0.0
 10
437.368409631821
 20
652.7203598388194
 30
0.0
 10
446.0164525911874
 20
654.4152032079733
 30
0.0
 10
454.7883699771449
 20
655.5700522764392
 30
0.0
  0
ARC
  5
326
330
30C
100
AcDbEntity
  8
$DDT_AUDIT_GENERATED_(83)
  6
Continuous
 62
     7
100
AcDbCircle
 10
264.5292634306
 20
566.2640929879
 30
0.0
 40
2.500000000028956
100
AcDbArc
 50
180.0000000036
 51
305.8640009369
  0
ARC
  5
327
330
30C
100
AcDbEntity
  8
$DDT_AUDIT_GENERATED_(83)
  6
Continuous
 62
     7
100
AcDbCircle
 10
264.5292634299
 20
544.2195119456
 30
0.0
 40
2.499999999403784
100
AcDbArc
 50
126.401756374
 51
180.0000000009
  0
LINE
  5
328
330
30C
100
AcDbEntity
  8
$DDT_AUDIT_GENERATED_(83)
  6
Continuous
 62
     7
100
AcDbLine
 10
472.0380160778
 20
643.2873663103
 30
0.0
 11
470.595555477
 21
654.2439423543
 31
0.0
  0
SPLINE
  5
329
330
30C
100
AcDbEntity
  8
$DDT_AUDIT_GENERATED_(83)
  6
Continuous
 62
     7
100
AcDbSpline
210
0.0
220
0.0
230
1.0
 70
     8
 71
     3
 72
    14
 73
    10
 74
     0
 42
0.0000000061303083
 43
0.0000000001
 40
0.0
 40
0.0
 40
0.0
 40
0.0
 40
0.2500000000000011
 40
0.2500000000000011
 40
0.5000000000000007
 40
0.5000000000000007
 40
0.7500000000000003
 40
0.7500000000000003
 40
1.0
 40
1.0
 40
1.0
 40
1.0
 10
441.307301704146
 20
639.235351084193
 30
0.0
 10
441.2854466154997
 20
639.369213576996
 30
0.0
 10
441.236280422028
 20
639.4975924303293
 30
0.0
 10
441.0916363695674
 20
639.7248230412151
 30
0.0
 10
440.9953167248094
 20
639.824216204411
 30
0.0
 10
440.7734309570722
 20
639.9757650433573
 30
0.0
 10
440.6457703769223
 20
640.0293314306301
 30
0.0
 10
440.3815879588379
 20
640.0813824323739
 30
0.0
 10
440.2439164137763
 20
640.080563391148
 30
0.0
 10
440.1106623255728
 20
640.0519836568908
 30
0.0
  0
LINE
  5
32A
330
30C
100
AcDbEntity
  8
$DDT_AUDIT_GENERATED_(83)
  6
Continuous
 62
     7
100
AcDbLine
 10
471.8658323439
 20
643.0629720994
 30
0.0
 11
441.5658301481
 21
639.0739011335
 31
0.0
  0
ARC
  5
32B
330
30C
100
AcDbEntity
  8
$DDT_AUDIT_GENERATED_(83)
  6
Continuous
 62
     7
100
AcDbCircle
 10
441.5046882833
 20
639.2675774464
 30
0.0
 40
0.1999999999969629
100
AcDbArc
 50
189.2725966802
 51
277.4999999998
  0
ARC
  5
32C
330
30C
100
AcDbEntity
  8
$DDT_AUDIT_GENERATED_(83)
  6
Continuous
 62
     7
100
AcDbCircle
 10
471.8397271054
 20
643.2612610719
 30
0.0
 40
0.2000000001409664
100
AcDbArc
 50
277.4999999991
 51
7.4999999859
  0
LINE
  5
32D
330
30C
100
AcDbEntity
  8
$DDT_AUDIT_GENERATED_(A8)
  6
Continuous
 62
     7
100
AcDbLine
 10
468.7134095045
 20
641.7401816946
 30
0.0
 11
444.9187328315
 21
638.6075530814
 31
0.0
  0
LINE
  5
32E
330
30C
100
AcDbEntity
  8
$DDT_AUDIT_GENERATED_(A8)
  6
Continuous
 62
     7
100
AcDbLine
 10
442.0747858897
 20
639.1409064281
 30
0.0
 11
444.9187328315
 21
638.6075530814
 31
0.0
  0
LINE
  5
32F
330
30C
100
AcDbEntity
  8
$DDT_AUDIT_GENERATED_(A8)
  6
Continuous
 62
     7
100
AcDbLine
 10
468.7134095045
 20
641.7401816946
 30
0.0
 11
471.3224093003
 21
642.9914290985
 31
0.0
  0
LINE
  5
330
330
30C
100
AcDbEntity
  8
$DDT_AUDIT_GENERATED_(A8)
  6
Continuous
 62
     7
100
AcDbLine
 10
467.1923608224
 20
641.0356173564
 30
0.0
 11
467.1270977263
 21
641.5313397871
 31
0.0
  0
LINE
  5
331
330
30C
100
AcDbEntity
  8
$DDT_AUDIT_GENERATED_(A8)
  6
Continuous
 62
     7
100
AcDbLine
 10
446.5050446097
 20
638.816394989
 30
0.0
 11
446.5703077058
 21
638.3206725583
 31
0.0
  0
LINE
  5
332
330
30C
100
AcDbEntity
  8
$DDT_AUDIT_GENERATED_(B2)
  6
Continuous
 62
     7
100
AcDbLine
 10
261.4042634305
 20
583.0761388355
 30
0.0
 11
204.6042634305
 21
583.0761388355
 31
0.0
  0
LINE
  5
333
330
30C
100
AcDbEntity
  8
$DDT_AUDIT_GENERATED_(B2)
  6
Continuous
 62
     7
100
AcDbLine
 10
261.5042634305
 20
582.5761388355
 30
0.0
 11
261.5042634305
 21
582.9761388355
 31
0.0
  0
LINE
  5
334
330
30C
100
AcDbEntity
  8
$DDT_AUDIT_GENERATED_(B2)
  6
Continuous
 62
     7
100
AcDbLine
 10
204.5042634305
 20
582.9761388355
 30
0.0
 11
204.5042634305
 21
582.5761388355
 31
0.0
  0
ARC
  5
335
330
30C
100
AcDbEntity
  8
$DDT_AUDIT_GENERATED_(B2)
  6
Continuous
 62
     7
100
AcDbCircle
 10
204.6042634305
 20
582.9761388355
 30
0.0
 40
0.1000000000000029
100
AcDbArc
 50
90.0
 51
180.0
  0
ARC
  5
336
330
30C
100
AcDbEntity
  8
$DDT_AUDIT_GENERATED_(B2)
  6
Continuous
 62
     7
100
AcDbCircle
 10
261.4042634305
 20
582.9761388355
 30
0.0
 40
0.0999999999999994
100
AcDbArc
 50
0.0
 51
90.0
  0
ARC
  5
337
330
30C
100
AcDbEntity
  8
$DDT_AUDIT_GENERATED_(B2)
  6
Continuous
 62
     7
100
AcDbCircle
 10
261.4042634305
 20
582.5761388355
 30
0.0
 40
0.1000000000000029
100
AcDbArc
 50
270.0
 51
0.0
  0
ARC
  5
338
330
30C
100
AcDbEntity
  8
$DDT_AUDIT_GENERATED_(B2)
  6
Continuous
 62
     7
100
AcDbCircle
 10
204.6042634305
 20
582.5761388355
 30
0.0
 40
0.0999999999999994
100
AcDbArc
 50
180.0
 51
270.0
  0
LINE
  5
339
330
30C
100
AcDbEntity
  8
$DDT_AUDIT_GENERATED_(BB)
  6
Continuous
 62
     7
100
AcDbLine
 10
261.4048920562
 20
583.0762041439
 30
0.0
 11
204.6036348048
 21
583.0762041439
 31
0.0
  0
LINE
  5
33A
330
30C
100
AcDbEntity
  8
$DDT_AUDIT_GENERATED_(BB)
  6
Continuous
 62
     7
100
AcDbLine
 10
261.9947377421
 20
583.5660498297
 30
0.0
 11
204.0137891189
 21
583.5660498297
 31
0.0
  0
LINE
  5
33B
330
30C
100
AcDbEntity
  8
$DDT_AUDIT_GENERATED_(BB)
  6
Continuous
 62
     7
100
AcDbLine
 10
258.8283139165
 20
626.572826064
 30
0.0
 11
207.1802129446
 21
626.572826064
 31
0.0
  0
LINE
  5
33C
330
30C
100
AcDbEntity
  8
$DDT_AUDIT_GENERATED_(BB)
  6
Continuous
 62
     7
100
AcDbLine
 10
204.1137891189
 20
583.5660498297
 30
0.0
 11
204.6036348048
 21
583.0762041439
 31
0.0
  0
LINE
  5
33D
330
30C
100
AcDbEntity
  8
$DDT_AUDIT_GENERATED_(BB)
  6
Continuous
 62
     7
100
AcDbLine
 10
261.4048920562
 20
583.0762041439
 30
0.0
 11
261.8947377421
 21
583.5660498297
 31
0.0
  0
ARC
  5
33E
330
30C
100
AcDbEntity
  8
$DDT_AUDIT_GENERATED_(BB)
  6
Continuous
 62
     7
100
AcDbCircle
 10
896.5247508757
 20
568.965533916
 30
0.0
 40
692.6648592344261
100
AcDbArc
 50
175.3055434556
 51
178.7921865962
  0
ARC
  5
33F
330
30C
100
AcDbEntity
  8
$DDT_AUDIT_GENERATED_(BB)
  6
Continuous
 62
     7
100
AcDbCircle
 10
-430.5162240146
 20
568.965533916
 30
0.0
 40
692.664859234426
100
AcDbArc
 50
1.2078134038
 51
4.6944565444
  0
ARC
  5
340
330
30C
100
AcDbEntity
  8
$DDT_AUDIT_GENERATED_(BB)
  6
Continuous
 62
     7
100
AcDbCircle
 10
258.8283139165
 20
625.572826064
 30
0.0
 40
0.9999999999376187
100
AcDbArc
 50
4.6944565446
 51
90.0000000009
  0
ARC
  5
341
330
30C
100
AcDbEntity
  8
$DDT_AUDIT_GENERATED_(BB)
  6
Continuous
 62
     7
100
AcDbCircle
 10
207.1802129445
 20
625.572826064
 30
0.0
 40
0.9999999999430464
100
AcDbArc
 50
89.9999999991
 51
175.3055434554
  0
ARC
  5
342
330
30C
100
AcDbEntity
  8
$DDT_AUDIT_GENERATED_(BB)
  6
Continuous
 62
     7
100
AcDbCircle
 10
258.3838181663
 20
627.0728260639
 30
0.0
 40
0.4999999999933252
100
AcDbArc
 50
198.709613237
 51
270.0000000009
  0
ARC
  5
343
330
30C
100
AcDbEntity
  8
$DDT_AUDIT_GENERATED_(BB)
  6
Continuous
 62
     7
100
AcDbCircle
 10
207.6247086947
 20
627.0728260639
 30
0.0
 40
0.4999999999933351
100
AcDbArc
 50
269.9999999991
 51
341.290386763
  0
ARC
  5
344
330
30C
100
AcDbEntity
  8
$DDT_AUDIT_GENERATED_(BB)
  6
Continuous
 62
     7
100
AcDbCircle
 10
233.0085021208
 20
618.4761388355
 30
0.0
 40
26.30000000000001
100
AcDbArc
 50
126.3473077924
 51
161.290386763
  0
ARC
  5
345
330
30C
100
AcDbEntity
  8
$DDT_AUDIT_GENERATED_(BB)
  6
Continuous
 62
     7
100
AcDbCircle
 10
233.0000247403
 20
618.4761388355
 30
0.0
 40
26.3
100
AcDbArc
 50
18.709613237
 51
22.548526702
  0
SPLINE
  5
347
330
30C
100
AcDbEntity
  8
$DDT_AUDIT_GENERATED_(346)
  6
Continuous
 62
     7
100
AcDbSpline
210
0.0
220
0.0
230
1.0
 70
     8
 71
     3
 72
     8
 73
     4
 74
     0
 42
0.0000000010574705
 43
0.0000000001
 40
0.6219933642333618
 40
0.6219933642333618
 40
0.6219933642333618
 40
0.6219933642333618
 40
1.0
 40
1.0
 40
1.0
 40
1.0
 10
257.0931746166116
 20
641.2313491987816
 30
0.0
 10
257.4921195346772
 20
640.1419271878764
 30
0.0
 10
257.9100490881934
 20
639.0218169850968
 30
0.0
 10
258.3292166073476
 20
637.8772354352423
 30
0.0
  0
ARC
  5
348
330
30C
100
AcDbEntity
  8
$DDT_AUDIT_GENERATED_(346)
  6
Continuous
 62
     7
100
AcDbCircle
 10
298.6478068502
 20
656.8616661924
 30
0.0
 40
44.56452995765265
100
AcDbArc
 50
205.070697417
 51
205.2138927298
  0
ARC
  5
349
330
30C
100
AcDbEntity
  8
$DDT_AUDIT_GENERATED_(346)
  6
Continuous
 62
     7
100
AcDbCircle
 10
298.1679329932
 20
656.6914126703
 30
0.0
 40
44.05787770995708
100
AcDbArc
 50
205.1364026461
 51
205.2794274176
  0
LINE
  5
34A
330
30C
100
AcDbEntity
  8
$DDT_AUDIT_GENERATED_(346)
  6
Continuous
 62
     7
100
AcDbLine
 10
258.4234315551
 20
637.6199714871
 30
0.0
 11
258.3292166073
 21
637.8772354352
 31
0.0
  0
ARC
  5
34B
330
30C
100
AcDbEntity
  8
$DDT_AUDIT_GENERATED_(346)
  6
Continuous
 62
     7
100
AcDbCircle
 10
298.7427549696
 20
656.8559231284
 30
0.0
 40
44.672918822772
100
AcDbArc
 50
203.2029995776
 51
205.5053492269
  0
LINE
  5
34C
330
30C
100
AcDbEntity
  8
$DDT_AUDIT_GENERATED_(346)
  6
Continuous
 62
     7
100
AcDbLine
 10
258.2215201723
 20
637.7056777842
 30
0.0
 11
258.4234315561
 21
637.6199714867
 31
0.0
  0
LINE
  5
34D
330
30C
100
AcDbEntity
  8
$DDT_AUDIT_GENERATED_(346)
  6
Continuous
 62
     7
100
AcDbLine
 10
258.3732680951
 20
637.7285676633
 30
0.0
 11
258.2850530466
 21
637.9749823987
 31
0.0
  0
LINE
  5
34E
330
30C
100
AcDbEntity
  8
$DDT_AUDIT_GENERATED_(CC)
  6
Continuous
 62
     7
100
AcDbLine
 10
469.5104505762
 20
624.1941073323
 30
0.0
 11
448.6901084873
 21
621.4530572957
 31
0.0
  0
LINE
  5
34F
330
30C
100
AcDbEntity
  8
$DDT_AUDIT_GENERATED_(CC)
  6
Continuous
 62
     7
100
AcDbLine
 10
469.7520795494
 20
630.0200506412
 30
0.0
 11
446.9488477378
 21
627.0179482202
 31
0.0
  0
LINE
  5
350
330
30C
100
AcDbEntity
  8
$DDT_AUDIT_GENERATED_(CC)
  6
Continuous
 62
     7
100
AcDbLine
 10
445.6284350875
 20
638.1966726757
 30
0.0
 11
468.1342334407
 21
641.159617239
 31
0.0
  0
ARC
  5
351
330
30C
100
AcDbEntity
  8
$DDT_AUDIT_GENERATED_(CC)
  6
Continuous
 62
     7
100
AcDbCircle
 10
463.8034103811
 20
629.2368934879
 30
0.0
 40
16.99999999999982
100
AcDbArc
 50
187.4999999998
 51
207.2499227955
  0
ARC
  5
352
330
30C
100
AcDbEntity
  8
$DDT_AUDIT_GENERATED_(CC)
  6
Continuous
 62
     7
100
AcDbCircle
 10
452.897516906
 20
627.8011053735
 30
0.0
 40
16.99999999999982
100
AcDbArc
 50
347.7500772042
 51
7.4999999998
  0
LINE
  5
353
330
30C
100
AcDbEntity
  8
$DDT_AUDIT_GENERATED_(CC)
  6
Continuous
 62
     7
100
AcDbLine
 10
469.7520795494
 20
630.0200506412
 30
0.0
 11
468.3025290987
 21
641.0304794386
 31
0.0
  0
LINE
  5
354
330
30C
100
AcDbEntity
  8
$DDT_AUDIT_GENERATED_(CC)
  6
Continuous
 62
     7
100
AcDbLine
 10
445.4992972871
 20
638.0283770176
 30
0.0
 11
446.9488477378
 21
627.0179482202
 31
0.0
  0
ARC
  5
355
330
30C
100
AcDbEntity
  8
$DDT_AUDIT_GENERATED_(CC)
  6
Continuous
 62
     7
100
AcDbCircle
 10
468.1538123695
 20
641.0109005098
 30
0.0
 40
0.1500000000000227
100
AcDbArc
 50
7.4999999998
 51
97.4999999998
  0
ARC
  5
356
330
30C
100
AcDbEntity
  8
$DDT_AUDIT_GENERATED_(CC)
  6
Continuous
 62
     7
100
AcDbCircle
 10
445.6480140163
 20
638.0479559465
 30
0.0
 40
0.1499999999999952
100
AcDbArc
 50
97.4999999998
 51
187.4999999998
  0
LINE
  5
357
330
30C
100
AcDbEntity
  8
$DDT_AUDIT_GENERATED_(D9)
  6
Continuous
 62
     7
100
AcDbLine
 10
468.0820200706
 20
623.5521678563
 30
0.0
 11
450.2360125659
 21
621.2026963964
 31
0.0
  0
LINE
  5
358
330
30C
100
AcDbEntity
  8
$DDT_AUDIT_GENERATED_(D9)
  6
Continuous
 62
     7
100
AcDbLine
 10
468.0820200706
 20
623.5521678563
 30
0.0
 11
468.0232832841
 21
623.9983180439
 31
0.0
  0
LINE
  5
359
330
30C
100
AcDbEntity
  8
$DDT_AUDIT_GENERATED_(D9)
  6
Continuous
 62
     7
100
AcDbLine
 10
450.1772757794
 20
621.648846584
 30
0.0
 11
450.2360125659
 21
621.2026963964
 31
0.0
  0
ARC
  5
35A
330
30C
100
AcDbEntity
  8
$DDT_AUDIT_GENERATED_(2DE)
  6
Continuous
 62
     7
100
AcDbCircle
 10
292.5970052352
 20
649.2470791491
 30
0.0
 40
36.24495330332925
100
AcDbArc
 50
185.0459763622
 51
196.8354264325
  0
ARC
  5
35B
330
30C
100
AcDbEntity
  8
$DDT_AUDIT_GENERATED_(2DE)
  6
Continuous
 62
     7
100
AcDbCircle
 10
1422.8316368942
 20
5387.0268838864
 30
0.0
 40
4873.535598689432
100
AcDbArc
 50
255.8703712957
 51
256.129619804
  0
LINE
  5
35C
330
30C
100
AcDbEntity
  8
$DDT_AUDIT_GENERATED_(2DE)
  6
Continuous
 62
     7
100
AcDbLine
 10
213.6481903312
 20
661.7765219484
 30
0.0
 11
209.7644333407
 21
644.5952663414
 31
0.0
  0
ARC
  5
35D
330
30C
100
AcDbEntity
  8
$DDT_AUDIT_GENERATED_(2DE)
  6
Continuous
 62
     7
100
AcDbCircle
 10
354.8239799202
 20
-449.9251559172
 30
0.0
 40
1120.629839372658
100
AcDbArc
 50
96.4238417521
 51
97.2372940537
  0
ARC
  5
35E
330
30C
100
AcDbEntity
  8
$DDT_AUDIT_GENERATED_(2DE)
  6
Continuous
 62
     7
100
AcDbCircle
 10
333.3467900285
 20
450.645058804
 30
0.0
 40
219.4585517492571
100
AcDbArc
 50
96.5901709804
 51
96.6121872164
  0
LINE
  5
35F
330
30C
100
AcDbEntity
  8
$DDT_AUDIT_GENERATED_(2DE)
  6
Continuous
 62
     7
100
AcDbLine
 10
306.708874829
 20
668.4711053821
 30
0.0
 11
308.3342574717
 21
668.6735641674
 31
0.0
  0
SPLINE
  5
360
330
30C
100
AcDbEntity
  8
$DDT_AUDIT_GENERATED_(2DE)
  6
Continuous
 62
     7
100
AcDbSpline
210
0.0
220
0.0
230
1.0
 70
     8
 71
     3
 72
    24
 73
    20
 74
     0
 42
0.0000000018435719
 43
0.0000000001
 40
0.0
 40
0.0
 40
0.0
 40
0.0
 40
0.0310060714524853
 40
0.0621949818380462
 40
0.0935714987060008
 40
0.1251403046075322
 40
0.1881032384570536
 40
0.2503702867252218
 40
0.3766734384338157
 40
0.500648869160122
 40
0.5571848863720781
 40
0.6133567267548878
 40
0.6692067225100999
 40
0.7247779413539736
 40
0.7801141019164616
 40
0.8352594818849459
 40
0.8902588197174093
 40
0.9451572109161964
 40
1.0
 40
1.0
 40
1.0
 40
1.0
 10
253.9365395363311
 20
663.7128715749475
 30
0.0
 10
253.9684255955675
 20
663.4206094067692
 30
0.0
 10
254.1661871182449
 20
663.3893679041043
 30
0.0
 10
254.4542851059317
 20
663.3436553350974
 30
0.0
 10
254.7371993865255
 20
663.2987185947563
 30
0.0
 10
255.1055902947844
 20
663.2402639595992
 30
0.0
 10
255.5455805203772
 20
663.170550331495
 30
0.0
 10
256.2086285385809
 20
663.0654583018481
 30
0.0
 10
256.9495530829832
 20
662.9480494359157
 30
0.0
 10
257.5594999737357
 20
662.8514070514382
 30
0.0
 10
257.9600552120036
 20
662.7879503630835
 30
0.0
 10
258.2134035171601
 20
662.7478159366486
 30
0.0
 10
258.4329706811379
 20
662.7130348768006
 30
0.0
 10
258.6187751954552
 20
662.6836027722286
 30
0.0
 10
258.7707548101789
 20
662.6595276175638
 30
0.0
 10
258.8891319186916
 20
662.6407717811809
 30
0.0
 10
258.9730771134192
 20
662.6274630157137
 30
0.0
 10
259.0256732954248
 20
662.6191110211086
 30
0.0
 10
259.0321833453858
 20
662.618052634393
 30
0.0
 10
259.0354358305157
 20
662.6175309627118
 30
0.0
  0
SPLINE
  5
361
330
30C
100
AcDbEntity
  8
$DDT_AUDIT_GENERATED_(2DE)
  6
Continuous
 62
     7
100
AcDbSpline
210
0.0
220
0.0
230
1.0
 70
     8
 71
     5
 72
    12
 73
     6
 74
     0
 42
0.0000000276291236
 43
0.0000000001
 40
0.8749443312515326
 40
0.8749443312515326
 40
0.8749443312515326
 40
0.8749443312515326
 40
0.8749443312515326
 40
0.8749443312515326
 40
1.0
 40
1.0
 40
1.0
 40
1.0
 40
1.0
 40
1.0
 10
308.2893321039177
 20
668.6683947538737
 30
0.0
 10
308.3071316302387
 20
668.6704441313589
 30
0.0
 10
308.3206633369729
 20
668.672000708376
 30
0.0
 10
308.3297463059594
 20
668.6730450546424
 30
0.0
 10
308.3342776006428
 20
668.673566199171
 30
0.0
 10
308.3342574717118
 20
668.6735641673944
 30
0.0
  0
ARC
  5
362
330
30C
100
AcDbEntity
  8
$DDT_AUDIT_GENERATED_(2DE)
  6
Continuous
 62
     7
100
AcDbCircle
 10
290.2153812355
 20
804.7832983965
 30
0.0
 40
137.3104272368937
100
AcDbArc
 50
282.7518037186
 51
285.2712356651
  0
LINE
  5
363
330
30C
100
AcDbEntity
  8
$DDT_AUDIT_GENERATED_(2DE)
  6
Continuous
 62
     7
100
AcDbLine
 10
253.9723599432
 20
663.4199073158
 30
0.0
 11
306.7082625925
 21
669.898756157
 31
0.0
  0
SPLINE
  5
364
330
30C
100
AcDbEntity
  8
$DDT_AUDIT_GENERATED_(2DE)
  6
Continuous
 62
     7
100
AcDbSpline
210
0.0
220
0.0
230
1.0
 70
    12
 71
     3
 72
    26
 73
    22
 74
     0
 42
0.0000000005063799
 43
0.0000000001
 40
0.0
 40
0.0
 40
0.0
 40
0.0
 40
0.0625000000002605
 40
0.1250000000002003
 40
0.1250000000002003
 40
0.1562500000001703
 40
0.1875000000001403
 40
0.1875000000001403
 40
0.3125000000000199
 40
0.3125000000000199
 40
0.3749999999999599
 40
0.5000000000001603
 40
0.5000000000001603
 40
0.5625000000001003
 40
0.6250000000000401
 40
0.6250000000000401
 40
0.7499999999999198
 40
0.7499999999999198
 40
0.8124999999998599
 40
0.8749999999997997
 40
1.0
 40
1.0
 40
1.0
 40
1.0
 10
306.7820630109949
 20
669.9027641549699
 30
0.0
 41
1.0
 10
307.4261598563994
 20
669.9818350943505
 30
0.0
 41
1.0
 10
308.7167112085866
 20
670.1405698122288
 30
0.0
 41
1.0
 10
309.9965844177826
 20
670.2985625087905
 30
0.0
 41
1.0
 10
310.9504440178044
 20
670.4162907311619
 30
0.0
 41
1.0
 10
311.5840828747436
 20
670.4944973392026
 30
0.0
 41
1.0
 10
312.2145179524857
 20
670.5723021064665
 30
0.0
 41
1.0
 10
313.764791234197
 20
670.7636306581594
 30
0.0
 41
1.0
 10
314.9417798979304
 20
670.9087216062749
 30
0.0
 41
1.0
 10
316.6247074192
 20
671.1161854989376
 30
0.0
 41
1.0
 10
318.2745498348634
 20
671.319574641879
 30
0.0
 41
1.0
 10
319.7305768085312
 20
671.4990754909928
 30
0.0
 41
1.0
 10
321.0681415529896
 20
671.6640460963588
 30
0.0
 41
1.0
 10
321.9211723237134
 20
671.7692881362668
 30
0.0
 41
1.0
 10
322.6883478072197
 20
671.8640153624164
 30
0.0
 41
1.0
 10
323.7542954086337
 20
671.9956819490944
 30
0.0
 41
1.0
 10
324.3605026214752
 20
672.0706235756795
 30
0.0
 41
1.0
 10
325.1069193764439
 20
672.1630179956991
 30
0.0
 41
1.0
 10
325.5511437381056
 20
672.2180593372076
 30
0.0
 41
1.0
 10
326.1853614200014
 20
672.296818038069
 30
0.0
 41
1.0
 10
326.3814127810703
 20
672.3213364033726
 30
0.0
 41
1.0
 10
326.3814068315066
 20
672.3213339668206
 30
0.0
 41
1.0
  0
ARC
  5
365
330
30C
100
AcDbEntity
  8
$DDT_AUDIT_GENERATED_(2DE)
  6
Continuous
 62
     7
100
AcDbCircle
 10
326.2539911248
 20
672.8048267151
 30
0.0
 40
0.4999999999988018
100
AcDbArc
 50
284.7635958375
 51
11.8965932099
  0
ARC
  5
366
330
30C
100
AcDbEntity
  8
$DDT_AUDIT_GENERATED_(2DE)
  6
Continuous
 62
     7
100
AcDbCircle
 10
223.9737633965
 20
1424.1224789415
 30
0.0
 40
755.5008185140097
100
AcDbArc
 50
276.2871932796
 51
277.7749670063
  0
SPLINE
  5
367
330
30C
100
AcDbEntity
  8
$DDT_AUDIT_GENERATED_(2DE)
  6
Continuous
 62
     7
100
AcDbSpline
210
0.0
220
0.0
230
1.0
 70
     8
 71
     5
 72
    12
 73
     6
 74
     0
 42
0.0000000178978082
 43
0.0000000001
 40
0.0
 40
0.0
 40
0.0
 40
0.0
 40
0.0
 40
0.0
 40
1.0
 40
1.0
 40
1.0
 40
1.0
 40
1.0
 40
1.0
 10
229.4803668687058
 20
664.1797099594137
 30
0.0
 10
229.4486071641079
 20
664.1693525629419
 30
0.0
 10
229.4168545136359
 20
664.158926209615
 30
0.0
 10
229.4104799737808
 20
664.0686821505685
 30
0.0
 10
229.4278301679717
 20
663.868653948936
 30
0.0
 10
229.4451720462068
 20
663.6687518554738
 30
0.0
  0
ARC
  5
368
330
30C
100
AcDbEntity
  8
$DDT_AUDIT_GENERATED_(2DE)
  6
Continuous
 62
     7
100
AcDbCircle
 10
94.0230426142
 20
1759.6419478508
 30
0.0
 40
1104.308108944262
100
AcDbArc
 50
277.0439549629
 51
277.2362411093
  0
ARC
  5
369
330
30C
100
AcDbEntity
  8
$DDT_AUDIT_GENERATED_(2DE)
  6
Continuous
 62
     7
100
AcDbCircle
 10
1221.0759415333
 20
-7077.2326165031
 30
0.0
 40
7804.148761242357
100
AcDbArc
 50
96.7284598767
 51
97.2727797057
  0
ARC
  5
36A
330
30C
100
AcDbEntity
  8
$DDT_AUDIT_GENERATED_(2DE)
  6
Continuous
 62
     7
100
AcDbCircle
 10
225.2435565835
 20
799.3749193686
 30
0.0
 40
138.6631835863747
100
AcDbArc
 50
273.2567616541
 51
281.942253772
  0
SPLINE
  5
36B
330
30C
100
AcDbEntity
  8
$DDT_AUDIT_GENERATED_(2DE)
  6
Continuous
 62
     7
100
AcDbSpline
210
0.0
220
0.0
230
1.0
 70
     8
 71
     5
 72
    12
 73
     6
 74
     0
 42
0.0000000008961144
 43
0.0000000001
 40
0.0
 40
0.0
 40
0.0
 40
0.0
 40
0.0
 40
0.0
 40
1.0
 40
1.0
 40
1.0
 40
1.0
 40
1.0
 40
1.0
 10
254.5175364923543
 20
655.6009471845267
 30
0.0
 10
253.9959487411821
 20
658.1208850116387
 30
0.0
 10
253.5886922764862
 20
660.0884447024886
 30
0.0
 10
254.8978858400511
 20
662.1095138650637
 30
0.0
 10
256.7072338049712
 20
662.3316755131217
 30
0.0
 10
259.0354358305157
 20
662.6175309627118
 30
0.0
  0
LINE
  5
36C
330
30C
100
AcDbEntity
  8
$DDT_AUDIT_GENERATED_(2DE)
  6
Continuous
 62
     7
100
AcDbLine
 10
233.9572313365
 20
629.2803858414
 30
0.0
 11
232.9753514393
 21
629.8939324965
 31
0.0
  0
LINE
  5
36D
330
30C
100
AcDbEntity
  8
$DDT_AUDIT_GENERATED_(2DE)
  6
Continuous
 62
     7
100
AcDbLine
 10
232.9753514393
 20
629.8939324965
 30
0.0
 11
209.8758012089
 21
644.3281334783
 31
0.0
  0
ARC
  5
36E
330
30C
100
AcDbEntity
  8
$DDT_AUDIT_GENERATED_(2DE)
  6
Continuous
 62
     7
100
AcDbCircle
 10
236.6068276577
 20
633.5206263222
 30
0.0
 40
4.999999999999668
100
AcDbArc
 50
238.0
 51
270.0
  0
LINE
  5
36F
330
30C
100
AcDbEntity
  8
$DDT_AUDIT_GENERATED_(2DE)
  6
Continuous
 62
     7
100
AcDbLine
 10
236.6068276577
 20
628.5206263222
 30
0.0
 11
259.8155934032
 21
628.5206263222
 31
0.0
  0
ARC
  5
370
330
30C
100
AcDbEntity
  8
$DDT_AUDIT_GENERATED_(2DE)
  6
Continuous
 62
     7
100
AcDbCircle
 10
210.0082810249
 20
644.5401455024
 30
0.0
 40
0.2499999999812219
100
AcDbArc
 50
167.2625827833
 51
238.0000000041
  0
LINE
  5
371
330
30C
100
AcDbEntity
  8
$DDT_AUDIT_GENERATED_(2DE)
  6
Continuous
 62
     7
100
AcDbLine
 10
256.4925182358
 20
646.0591499871
 30
0.0
 11
254.5175243008
 21
655.6009437867
 31
0.0
  0
LINE
  5
372
330
30C
100
AcDbEntity
  8
$DDT_AUDIT_GENERATED_(2DE)
  6
Continuous
 62
     7
100
AcDbLine
 10
260.0563030675
 20
628.8411126585
 30
0.0
 11
258.2215201723
 21
637.7056777842
 31
0.0
  0
ARC
  5
373
330
30C
100
AcDbEntity
  8
$DDT_AUDIT_GENERATED_(2DE)
  6
Continuous
 62
     7
100
AcDbCircle
 10
289.9596432872
 20
806.0552915883
 30
0.0
 40
138.5996180085517
100
AcDbArc
 50
277.0352867929
 51
277.5072752896
  0
LINE
  5
374
330
30C
100
AcDbEntity
  8
$DDT_AUDIT_GENERATED_(2DE)
  6
Continuous
 62
     7
100
AcDbLine
 10
306.4902844604
 20
668.4442549566
 30
0.0
 11
306.7089806068
 21
668.4714487453
 31
0.0
  0
LINE
  5
375
330
30C
100
AcDbEntity
  8
$DDT_AUDIT_GENERATED_(2DE)
  6
Continuous
 62
     7
100
AcDbLine
 10
259.1473024464
 20
662.6312592157
 30
0.0
 11
306.5969982375
 21
668.4574551392
 31
0.0
  0
ARC
  5
376
330
30C
100
AcDbEntity
  8
$DDT_AUDIT_GENERATED_(2DE)
  6
Continuous
 62
     7
100
AcDbCircle
 10
290.4212095986
 20
802.9569498003
 30
0.0
 40
135.4720842925909
100
AcDbArc
 50
277.5791071463
 51
284.1256631132
  0
LINE
  5
377
330
30C
100
AcDbEntity
  8
$DDT_AUDIT_GENERATED_(2DE)
  6
Continuous
 62
     7
100
AcDbLine
 10
326.7466266835
 20
672.8918797717
 30
0.0
 11
326.177387314
 21
675.5939103424
 31
0.0
  0
SPLINE
  5
378
330
30C
100
AcDbEntity
  8
$DDT_AUDIT_GENERATED_(2DE)
  6
Continuous
 62
     7
100
AcDbSpline
210
0.0
220
0.0
230
1.0
 70
     8
 71
     3
 72
    13
 73
     9
 74
     0
 42
0.0000000112960988
 43
0.0000000001
 40
0.0
 40
0.0
 40
0.0
 40
0.0
 40
0.2687036235641796
 40
0.388451168217267
 40
0.5000515232580663
 40
0.6116331513894687
 40
0.7313405964240695
 40
1.0
 40
1.0
 40
1.0
 40
1.0
 10
326.184330287428
 20
675.5608379829325
 30
0.0
 10
326.1683467468422
 20
675.6457170493574
 30
0.0
 10
326.1452381991594
 20
675.7485331827177
 30
0.0
 10
326.0764278232942
 20
675.8808863018927
 30
0.0
 10
326.005232160868
 20
675.9535627311419
 30
0.0
 10
325.9143711289545
 20
675.9993137218826
 30
0.0
 10
325.7673835729365
 20
676.0246007093081
 30
0.0
 10
325.6624318362644
 20
676.0152666392909
 30
0.0
 10
325.5767346860981
 20
676.0046106104577
 30
0.0
  0
ARC
  5
379
330
30C
100
AcDbEntity
  8
$DDT_AUDIT_GENERATED_(2DE)
  6
Continuous
 62
     7
100
AcDbCircle
 10
612.4076371617
 20
-2119.8255662644
 30
0.0
 40
2810.50394988211
100
AcDbArc
 50
95.8593099142
 51
98.1442603985
  0
SPLINE
  5
37A
330
30C
100
AcDbEntity
  8
$DDT_AUDIT_GENERATED_(2DE)
  6
Continuous
 62
     7
100
AcDbSpline
210
0.0
220
0.0
230
1.0
 70
     8
 71
     3
 72
    13
 73
     9
 74
     0
 42
0.0000000108009419
 43
0.0000000001
 40
0.0
 40
0.0
 40
0.0
 40
0.0
 40
0.2757914357202438
 40
0.3934669961125398
 40
0.5002796465230841
 40
0.6069789012747608
 40
0.724425978734242
 40
1.0
 40
1.0
 40
1.0
 40
1.0
 10
214.2547436767182
 20
662.3341554300458
 30
0.0
 10
214.1623875140114
 20
662.3230201127283
 30
0.0
 10
214.0524307239275
 20
662.3062922882101
 30
0.0
 10
213.904834430157
 20
662.2556308736795
 30
0.0
 10
213.8192706814713
 20
662.1986353186222
 30
0.0
 10
213.7550117047496
 20
662.1184473417976
 30
0.0
 10
213.6921110209454
 20
661.9757946716355
 30
0.0
 10
213.6666255172214
 20
661.8676309530433
 30
0.0
 10
213.6481574834135
 20
661.7765324144046
 30
0.0
  0
ARC
  5
37B
330
30C
100
AcDbEntity
  8
$DDT_AUDIT_GENERATED_(2DE)
  6
Continuous
 62
     7
100
AcDbCircle
 10
259.8155933926
 20
628.7706263223
 30
0.0
 40
0.2499999997710625
100
AcDbArc
 50
269.9998638617
 51
15.5691792187
  0
ENDBLK
  5
37D
330
30C
100
AcDbEntity
  8
0
100
AcDbBlockEnd
  0
BLOCK
  5
3B3
330
37E
100
AcDbEntity
  8
0
100
AcDbBlockBegin
  2
SE2
 70
     0
 10
0.0
 20
0.0
 30
0.0
  3
SE2
  1

  0
ARC
  5
380
330
37E
100
AcDbEntity
  8
$DDT_AUDIT_GENERATED_(7D)
  6
Continuous
 62
     7
100
AcDbCircle
 10
107.0710580126
 20
345.3837526473
 30
0.0
 40
29.00000000000001
100
AcDbArc
 50
312.8794557922
 51
360.0
  0
ARC
  5
381
330
37E
100
AcDbEntity
  8
$DDT_AUDIT_GENERATED_(7D)
  6
Continuous
 62
     7
100
AcDbCircle
 10
107.0710580126
 20
345.3837526473
 30
0.0
 40
29.00000000000001
100
AcDbArc
 50
0.0
 51
226.3187469944
  0
ARC
  5
382
330
37E
100
AcDbEntity
  8
$DDT_AUDIT_GENERATED_(83)
  6
Continuous
 62
     7
100
AcDbCircle
 10
106.6335988461
 20
123.9148783261
 30
0.0
 40
13.65924851806196
100
AcDbArc
 50
181.8763689953
 51
271.8355692939
  0
ARC
  5
383
330
37E
100
AcDbEntity
  8
$DDT_AUDIT_GENERATED_(83)
  6
Continuous
 62
     7
100
AcDbCircle
 10
107.0571863083
 20
123.3042580377
 30
0.0
 40
15.5118037919411
100
AcDbArc
 50
359.1611943784
 51
359.8207041562
  0
ARC
  5
384
330
37E
100
AcDbEntity
  8
$DDT_AUDIT_GENERATED_(83)
  6
Continuous
 62
     7
100
AcDbCircle
 10
107.5364871658
 20
123.8851706891
 30
0.0
 40
13.63047834746527
100
AcDbArc
 50
268.043453528
 51
358.2446081827
  0
SPLINE
  5
385
330
37E
100
AcDbEntity
  8
$DDT_AUDIT_GENERATED_(83)
  6
Continuous
 62
     7
100
AcDbSpline
210
0.0
220
0.0
230
1.0
 70
     8
 71
     3
 72
    14
 73
    10
 74
     0
 42
0.0000000000502212
 43
0.0000000001
 40
0.3277189941582275
 40
0.3277189941582275
 40
0.3277189941582275
 40
0.3277189941582275
 40
0.5000000000000002
 40
0.5000000000000002
 40
0.6250000000000001
 40
0.6250000000000001
 40
0.7500000000000001
 40
0.7500000000000001
 40
1.0
 40
1.0
 40
1.0
 40
1.0
 10
92.97677761933735
 20
257.3316163829916
 30
0.0
 10
92.97591620842773
 20
246.7977699654174
 30
0.0
 10
92.9751159430623
 20
236.0859833323733
 30
0.0
 10
92.97442963817302
 20
217.1731491163796
 30
0.0
 10
92.97435353609329
 20
209.0765291614287
 30
0.0
 10
92.97479426549526
 20
192.6347372149653
 30
0.0
 10
92.97531888062996
 20
184.263590629539
 30
0.0
 10
92.97769863426622
 20
158.8262597263065
 30
0.0
 10
92.98084002668664
 20
141.4510252007616
 30
0.0
 10
92.9816743431191
 20
123.4676340504733
 30
0.0
  0
SPLINE
  5
386
330
37E
100
AcDbEntity
  8
$DDT_AUDIT_GENERATED_(83)
  6
Continuous
 62
     7
100
AcDbSpline
210
0.0
220
0.0
230
1.0
 70
     8
 71
     3
 72
    14
 73
    10
 74
     0
 42
0.0000000000502211
 43
0.0000000001
 40
0.3277372542910332
 40
0.3277372542910332
 40
0.3277372542910332
 40
0.3277372542910332
 40
0.4999999999999998
 40
0.4999999999999998
 40
0.6249999999999998
 40
0.6249999999999998
 40
0.7499999999999999
 40
0.7499999999999999
 40
1.0
 40
1.0
 40
1.0
 40
1.0
 10
121.1654658952366
 20
257.3283130548454
 30
0.0
 10
121.1663272023875
 20
246.795541983485
 30
0.0
 10
121.1671273412443
 20
236.08486088377
 30
0.0
 10
121.1678136057086
 20
217.1731822408414
 30
0.0
 10
121.1678897085303
 20
209.0765596215297
 30
0.0
 10
121.1674489802638
 20
192.6347621129869
 30
0.0
 10
121.1669243655193
 20
184.2636126763321
 30
0.0
 10
121.1645446121248
 20
158.8262727296148
 30
0.0
 10
121.1614032180302
 20
141.4510319283799
 30
0.0
 10
121.1605689013302
 20
123.4676340504733
 30
0.0
  0
ELLIPSE
  5
387
330
37E
100
AcDbEntity
  8
$DDT_AUDIT_GENERATED_(83)
  6
Continuous
 62
     7
100
AcDbEllipse
 10
107.0707856667
 20
121.7155237213
 30
0.0
 11
-15.49811222341739
 21
2.111461783194102E-6
 31
0.0
210
0.0
220
0.0
230
0.9999999999999999
 40
0.9914448614
 41
1.570818139061534
 42
3.141582321098404
  0
ELLIPSE
  5
388
330
37E
100
AcDbEntity
  8
$DDT_AUDIT_GENERATED_(83)
  6
Continuous
 62
     7
100
AcDbEllipse
 10
107.0714575778
 20
121.7155237213
 30
0.0
 11
15.49811222341732
 21
2.111459146414418E-6
 31
0.0
210
0.0
220
0.0
230
0.9999999999999999
 40
0.9914448614
 41
3.141602985629884
 42
4.71236716811822
  0
LINE
  5
389
330
37E
100
AcDbEntity
  8
$DDT_AUDIT_GENERATED_(83)
  6
Continuous
 62
     7
100
AcDbLine
 10
91.5733290674
 20
123.2581694666
 30
0.0
 11
91.5733453552
 21
121.7153628548
 31
0.0
  0
ARC
  5
38A
330
37E
100
AcDbEntity
  8
$DDT_AUDIT_GENERATED_(83)
  6
Continuous
 62
     7
100
AcDbCircle
 10
92.6121178722
 20
123.0784856714
 30
0.0
 40
1.037668687602543
100
AcDbArc
 50
168.1465561704
 51
180.692174639
  0
LINE
  5
38B
330
37E
100
AcDbEntity
  8
$DDT_AUDIT_GENERATED_(83)
  6
Continuous
 62
     7
100
AcDbLine
 10
122.5688978892
 20
121.7153628548
 30
0.0
 11
122.5689141771
 21
123.2581694666
 31
0.0
  0
ARC
  5
38C
330
37E
100
AcDbEntity
  8
$DDT_AUDIT_GENERATED_(83)
  6
Continuous
 62
     7
100
AcDbCircle
 10
121.5301253722
 20
123.0784856714
 30
0.0
 40
1.037668687689372
100
AcDbArc
 50
359.3078253609
 51
11.8534438291
  0
SPLINE
  5
38D
330
37E
100
AcDbEntity
  8
$DDT_AUDIT_GENERATED_(83)
  6
Continuous
 62
     7
100
AcDbSpline
210
0.0
220
0.0
230
1.0
 70
     8
 71
     3
 72
    43
 73
    39
 74
     0
 42
0.000000000049229
 43
0.0000000001
 40
0.0
 40
0.0
 40
0.0
 40
0.0
 40
0.009748802149302
 40
0.0247838176302444
 40
0.0399444771163087
 40
0.0552426222055161
 40
0.0707035368112872
 40
0.0863137047811534
 40
0.102081677053621
 40
0.1180184836761003
 40
0.134135570913295
 40
0.1504448656265021
 40
0.1669588332751257
 40
0.1836905446737637
 40
0.2006537530637333
 40
0.2178629835366627
 40
0.2353336373393959
 40
0.2530821142245538
 40
0.2711259568377057
 40
0.2894840181664413
 40
0.3081568917247032
 40
0.3271967209299815
 40
0.3465407807296259
 40
0.366209545551737
 40
0.3862244574543779
 40
0.4066091159043388
 40
0.4273896738977462
 40
0.4485953461654635
 40
0.4702590533492836
 40
0.4924182495908732
 40
0.5151160016379083
 40
0.5384024196382866
 40
0.5623432089509818
 40
0.5869507568445727
 40
0.6120729617384931
 40
0.637760251580363
 40
0.6640705555624479
 40
0.667030574934659
 40
0.667030574934659
 40
0.667030574934659
 40
0.667030574934659
 10
122.5689152650461
 20
123.2864599007292
 30
0.0
 10
122.5689409019243
 20
124.0704093420977
 30
0.0
 10
122.5689971447652
 20
125.7589400203846
 30
0.0
 10
122.5691565672986
 20
128.739156582177
 30
0.0
 10
122.5693692730479
 20
132.0274790173756
 30
0.0
 10
122.569615950053
 20
135.3642489381342
 30
0.0
 10
122.5698844451631
 20
138.7167945495007
 30
0.0
 10
122.5701744438531
 20
142.094821814759
 30
0.0
 10
122.5704820837761
 20
145.4954331319729
 30
0.0
 10
122.5708043424996
 20
148.9206802296507
 30
0.0
 10
122.5711377698591
 20
152.3719905083144
 30
0.0
 10
122.5714787571817
 20
155.8511160378256
 30
0.0
 10
122.5718234275862
 20
159.359848691978
 30
0.0
 10
122.5721676277194
 20
162.9001136554971
 30
0.0
 10
122.5725068903917
 20
166.4739620532551
 30
0.0
 10
122.5728363855528
 20
170.0835938552556
 30
0.0
 10
122.5731509194039
 20
173.7313766478707
 30
0.0
 10
122.573444713109
 20
177.419867423316
 30
0.0
 10
122.5737119909685
 20
181.1518474778589
 30
0.0
 10
122.5739443449844
 20
184.9289692694045
 30
0.0
 10
122.5741404181566
 20
188.755343113076
 30
0.0
 10
122.5743047861583
 20
192.6293507285538
 30
0.0
 10
122.5744354163387
 20
196.5506914663582
 30
0.0
 10
122.5745322233156
 20
200.5170892500824
 30
0.0
 10
122.5745948096761
 20
204.5320901400919
 30
0.0
 10
122.5746228854575
 20
208.5995908721113
 30
0.0
 10
122.5746160863181
 20
212.7239711204478
 30
0.0
 10
122.5745740135126
 20
216.9101899499081
 30
0.0
 10
122.5744962260881
 20
221.1639084104516
 30
0.0
 10
122.5743821815939
 20
225.4916464308075
 30
0.0
 10
122.5742314246372
 20
229.9009924115354
 30
0.0
 10
122.5740427622832
 20
234.4012902327767
 30
0.0
 10
122.5738174848737
 20
238.9998914720462
 30
0.0
 10
122.573561088917
 20
243.6907165275456
 30
0.0
 10
122.5732767649413
 20
248.4669246284821
 30
0.0
 10
122.5729692772753
 20
253.3248289176266
 30
0.0
 10
122.5727422900792
 20
256.7683071322869
 30
0.0
 10
122.5726203912229
 20
258.5970032390719
 30
0.0
 10
122.5726080552226
 20
258.7818798812118
 30
0.0
  0
SPLINE
  5
38E
330
37E
100
AcDbEntity
  8
$DDT_AUDIT_GENERATED_(83)
  6
Continuous
 62
     7
100
AcDbSpline
210
0.0
220
0.0
230
1.0
 70
     8
 71
     3
 72
    41
 73
    37
 74
     0
 42
0.0000000000492198
 43
0.0000000001
 40
0.3329749126831184
 40
0.3329749126831184
 40
0.3329749126831184
 40
0.3329749126831184
 40
0.3606690108318181
 40
0.3877263240897255
 40
0.4140557025454175
 40
0.4397354602505652
 40
0.4648315254592918
 40
0.4893921034972789
 40
0.5132416342602505
 40
0.5364103923692431
 40
0.5589660051041004
 40
0.5809653122729097
 40
0.6024564913816055
 40
0.6234809611625588
 40
0.6440747792106111
 40
0.6642696873957873
 40
0.6840939083559628
 40
0.7035727622383323
 40
0.7227211881294093
 40
0.7414692835114861
 40
0.7598600908361587
 40
0.7779256075520458
 40
0.7956870171813315
 40
0.8131638343742242
 40
0.8303741776809718
 40
0.8473349573763577
 40
0.8640620322401948
 40
0.8805703415349055
 40
0.8968740168491036
 40
0.9129864774681761
 40
0.9289205121694518
 40
0.9446883497546227
 40
0.9603017255284353
 40
0.9757698757672039
 40
0.9910820748154466
 40
1.0
 40
1.0
 40
1.0
 40
1.0
 10
91.56963470733912
 20
258.7746590121398
 30
0.0
 10
91.56951927413407
 20
257.0446430190111
 30
0.0
 10
91.56929257673845
 20
253.6150633116782
 30
0.0
 10
91.56896867727572
 20
248.5077149531893
 30
0.0
 10
91.56867082349004
 20
243.4990893295625
 30
0.0
 10
91.56840399773964
 20
238.5870449052213
 30
0.0
 10
91.56817084743338
 20
233.7605730250265
 30
0.0
 10
91.56797848369447
 20
229.0247279494838
 30
0.0
 10
91.5678280301801
 20
224.386623985545
 30
0.0
 10
91.56771874911888
 20
219.8525660146198
 30
0.0
 10
91.56764963457067
 20
215.4138040344629
 30
0.0
 10
91.56761968336214
 20
211.0603091977903
 30
0.0
 10
91.56762806420903
 20
206.7836549211375
 30
0.0
 10
91.56767405663582
 20
202.5766884996198
 30
0.0
 10
91.56775704266586
 20
198.4332646750361
 30
0.0
 10
91.56787645682495
 20
194.3480468079876
 30
0.0
 10
91.56803188546776
 20
190.316357919833
 30
0.0
 10
91.56822262479567
 20
186.3346004183148
 30
0.0
 10
91.56844879371705
 20
182.4058737702873
 30
0.0
 10
91.56871519481015
 20
178.5319234311624
 30
0.0
 10
91.56901120948557
 20
174.7134958461126
 30
0.0
 10
91.56933052886926
 20
170.9450018977778
 30
0.0
 10
91.56966664886204
 20
167.222423570187
 30
0.0
 10
91.57001379546494
 20
163.5426679722779
 30
0.0
 10
91.57036663815158
 20
159.9029084525658
 30
0.0
 10
91.57072029598636
 20
156.3005472630257
 30
0.0
 10
91.5710702689706
 20
152.7331795299196
 30
0.0
 10
91.57141239040669
 20
149.1985918352334
 30
0.0
 10
91.57174281214297
 20
145.6946550206595
 30
0.0
 10
91.57205787681842
 20
142.2196217574264
 30
0.0
 10
91.57235443253084
 20
138.7709540629255
 30
0.0
 10
91.572628541413
 20
135.3495576938103
 30
0.0
 10
91.57288009435804
 20
131.9443100394532
 30
0.0
 10
91.5730954456391
 20
128.5908758703027
 30
0.0
 10
91.57325259243952
 20
125.6256925046082
 30
0.0
 10
91.57330565019846
 20
123.9722226307266
 30
0.0
 10
91.57332826640211
 20
123.2548738766345
 30
0.0
  0
ARC
  5
38F
330
37E
100
AcDbEntity
  8
$DDT_AUDIT_GENERATED_(BB)
  6
Continuous
 62
     7
100
AcDbCircle
 10
107.0710580126
 20
345.3837526473
 30
0.0
 40
28.99047431159973
100
AcDbArc
 50
312.8661841255
 51
360.0
  0
ARC
  5
390
330
37E
100
AcDbEntity
  8
$DDT_AUDIT_GENERATED_(BB)
  6
Continuous
 62
     7
100
AcDbCircle
 10
107.0710580126
 20
345.3837526473
 30
0.0
 40
28.99047431159973
100
AcDbArc
 50
0.0
 51
226.2868829529
  0
ARC
  5
391
330
37E
100
AcDbEntity
  8
$DDT_AUDIT_GENERATED_(BB)
  6
Continuous
 62
     7
100
AcDbCircle
 10
107.0710580126
 20
345.3837526473
 30
0.0
 40
26.8206957957553
100
AcDbArc
 50
357.4655041346
 51
0.0
  0
ARC
  5
392
330
37E
100
AcDbEntity
  8
$DDT_AUDIT_GENERATED_(BB)
  6
Continuous
 62
     7
100
AcDbCircle
 10
107.0710580126
 20
345.3837526473
 30
0.0
 40
26.8206957957553
100
AcDbArc
 50
0.0
 51
182.3674861795
  0
ARC
  5
393
330
37E
100
AcDbEntity
  8
$DDT_AUDIT_GENERATED_(2DE)
  6
Continuous
 62
     7
100
AcDbCircle
 10
107.2493368077
 20
345.2974642718
 30
0.0
 40
19.4431917054306
100
AcDbArc
 50
359.9058476845
 51
90.525399459
  0
ARC
  5
394
330
37E
100
AcDbEntity
  8
$DDT_AUDIT_GENERATED_(2DE)
  6
Continuous
 62
     7
100
AcDbCircle
 10
107.1487527054
 20
344.8337969148
 30
0.0
 40
19.90619326819648
100
AcDbArc
 50
90.2236623517
 51
168.0873313789
  0
SPLINE
  5
395
330
37E
100
AcDbEntity
  8
$DDT_AUDIT_GENERATED_(2DE)
  6
Continuous
 62
     7
100
AcDbSpline
210
0.0
220
0.0
230
1.0
 70
     8
 71
     3
 72
     8
 73
     4
 74
     0
 42
0.0000000703048374
 43
0.0000000001
 40
0.0
 40
0.0
 40
0.0
 40
0.0
 40
0.1287588143309084
 40
0.1287588143309084
 40
0.1287588143309084
 40
0.1287588143309084
 10
86.89674464537012
 20
271.7524307698343
 30
0.0
 10
86.88937658477522
 20
271.7482422540444
 30
0.0
 10
86.88584154965174
 20
271.7439600921637
 30
0.0
 10
86.8859875486275
 20
271.7396763754703
 30
0.0
  0
ELLIPSE
  5
396
330
37E
100
AcDbEntity
  8
$DDT_AUDIT_GENERATED_(2DE)
  6
Continuous
 62
     7
100
AcDbEllipse
 10
87.3856196389
 20
271.6662213877
 30
0.0
 11
0.4999999478075383
 21
-0.0002366821298255273
 31
0.0
210
0.0
220
0.0
230
1.0
 40
0.1218418625
 41
3.141575028142579
 42
3.217596387298939
  0
LINE
  5
397
330
37E
100
AcDbEntity
  8
$DDT_AUDIT_GENERATED_(2DE)
  6
Continuous
 62
     7
100
AcDbLine
 10
86.9375777895
 20
324.4873235771
 30
0.0
 11
86.8967446455
 21
271.7524307698
 31
0.0
  0
LINE
  5
398
330
37E
100
AcDbEntity
  8
$DDT_AUDIT_GENERATED_(2DE)
  6
Continuous
 62
     7
100
AcDbLine
 10
86.8967508839
 20
271.752430604
 30
0.0
 11
86.8961907397
 21
271.6789104791
 31
0.0
  0
SPLINE
  5
399
330
37E
100
AcDbEntity
  8
$DDT_AUDIT_GENERATED_(2DE)
  6
Continuous
 62
     7
100
AcDbSpline
210
0.0
220
0.0
230
1.0
 70
     8
 71
     3
 72
    23
 73
    19
 74
     0
 42
0.0000000001612847
 43
0.0000000001
 40
0.0
 40
0.0
 40
0.0
 40
0.0
 40
0.0431774712186524
 40
0.0847500520406457
 40
0.1070893529186631
 40
0.1397965511066236
 40
0.18699959566965
 40
0.2744379968452239
 40
0.3615361300216172
 40
0.4501982817447956
 40
0.5641111126582364
 40
0.6548344899438054
 40
0.7344136128903339
 40
0.8337950063335624
 40
0.9345404124521981
 40
0.9555499082758366
 40
0.9700535998984466
 40
1.0
 40
1.0
 40
1.0
 40
1.0
 10
87.44977206248296
 20
271.6777422126764
 30
0.0
 10
87.45484844932554
 20
270.7971843998198
 30
0.0
 10
87.46486104609187
 20
269.0687853103898
 30
0.0
 10
87.83929205871378
 20
266.907512478042
 30
0.0
 10
88.41314803492966
 20
265.0233051664558
 30
0.0
 10
89.22503374534615
 20
263.0989851226097
 30
0.0
 10
90.97872143294094
 20
260.1574314087934
 30
0.0
 10
94.08969318590653
 20
256.7901256271234
 30
0.0
 10
98.6719515983866
 20
253.8471001115346
 30
0.0
 10
104.407577049917
 20
252.0426985092305
 30
0.0
 10
110.5705970494482
 20
252.1705056657279
 30
0.0
 10
116.1188777107161
 20
254.1826196470645
 30
0.0
 10
120.7009879431041
 20
257.3435158735594
 30
0.0
 10
124.4744553769291
 20
261.7365397533551
 30
0.0
 10
126.2067825815067
 20
266.0214993775693
 30
0.0
 10
126.5866251824413
 20
268.7730213930011
 30
0.0
 10
126.687262915479
 20
270.1032878989308
 30
0.0
 10
126.6902444956027
 20
271.009125784147
 30
0.0
 10
126.6922504610368
 20
271.6193963835387
 30
0.0
  0
ARC
  5
39A
330
37E
100
AcDbEntity
  8
$DDT_AUDIT_GENERATED_(2DE)
  6
Continuous
 62
     7
100
AcDbCircle
 10
109.4284322985
 20
345.7855026486
 30
0.0
 40
21.98505941189107
100
AcDbArc
 50
171.7430279107
 51
181.3553210917
  0
ARC
  5
39B
330
37E
100
AcDbEntity
  8
$DDT_AUDIT_GENERATED_(2DE)
  6
Continuous
 62
     7
100
AcDbCircle
 10
-30366.6663497918
 20
308.3687422892
 30
0.0
 40
30454.13822443299
100
AcDbArc
 50
359.9309703022
 51
0.0694168036
  0
ARC
  5
39C
330
37E
100
AcDbEntity
  8
$DDT_AUDIT_GENERATED_(2DE)
  6
Continuous
 62
     7
100
AcDbCircle
 10
108.7083050807
 20
345.8382697902
 30
0.0
 40
20.66334978231489
100
AcDbArc
 50
171.4575456852
 51
181.4117986641
  0
ARC
  5
39D
330
37E
100
AcDbEntity
  8
$DDT_AUDIT_GENERATED_(2DE)
  6
Continuous
 62
     7
100
AcDbCircle
 10
-44159.3831167567
 20
308.2293525351
 30
0.0
 40
44247.44989807318
100
AcDbArc
 50
359.9527463875
 51
0.0480403492
  0
SPLINE
  5
39E
330
37E
100
AcDbEntity
  8
$DDT_AUDIT_GENERATED_(2DE)
  6
Continuous
 62
     7
100
AcDbSpline
210
0.0
220
0.0
230
1.0
 70
     8
 71
     3
 72
    31
 73
    27
 74
     0
 42
0.0000000001668404
 43
0.0000000001
 40
0.0
 40
0.0
 40
0.0
 40
0.0
 40
0.0173842061180774
 40
0.0300007882374531
 40
0.0595228337553401
 40
0.1113826174776574
 40
0.190434447019347
 40
0.253973083046109
 40
0.3097195425381572
 40
0.3606186883782355
 40
0.4084197007910397
 40
0.4548220945449628
 40
0.5001813585577106
 40
0.591692061595146
 40
0.6394653003231446
 40
0.6903098284866057
 40
0.746021460590514
 40
0.8093775447478551
 40
0.8458843362028425
 40
0.888207378489567
 40
0.9126518252470821
 40
0.9254600225185046
 40
0.9401724623002362
 40
0.9696639066150144
 40
0.9824439268112035
 40
1.0
 40
1.0
 40
1.0
 40
1.0
 10
88.05173317067167
 20
271.7371077257281
 30
0.0
 10
88.05184754697964
 20
271.3925565473499
 30
0.0
 10
88.05204488473912
 20
270.7979475720582
 30
0.0
 10
88.08505017984588
 20
269.6187545599749
 30
0.0
 10
88.25344320190486
 20
267.76056520742
 30
0.0
 10
89.05642520978844
 20
264.6617681137159
 30
0.0
 10
90.92900914653399
 20
261.2330097789557
 30
0.0
 10
93.54232063931798
 20
258.2564387981313
 30
0.0
 10
96.1966364957796
 20
256.129671259781
 30
0.0
 10
98.87892551004992
 20
254.5988950699341
 30
0.0
 10
101.5877767143717
 20
253.553899128144
 30
0.0
 10
104.3148334191174
 20
252.9423917533071
 30
0.0
 10
107.9720522446407
 20
252.6696510670072
 30
0.0
 10
111.678921844665
 20
253.2201130015771
 30
0.0
 10
115.2278985032137
 20
254.5816476382105
 30
0.0
 10
117.9115172428878
 20
256.107067539572
 30
0.0
 10
120.56583736553
 20
258.2236820051818
 30
0.0
 10
122.6207141755804
 20
260.5585152645828
 30
0.0
 10
124.1493135617226
 20
262.9372443595596
 30
0.0
 10
125.0004244722898
 20
264.8071226082141
 30
0.0
 10
125.5073087779774
 20
266.3029586929362
 30
0.0
 10
125.7392012991743
 20
267.3067555062526
 30
0.0
 10
125.9444154343043
 20
268.4178163220531
 30
0.0
 10
126.0540943154943
 20
269.5441465157124
 30
0.0
 10
126.0882818392332
 20
270.7293253164266
 30
0.0
 10
126.0884953188184
 20
271.3305857032134
 30
0.0
 10
126.0886213487186
 20
271.6785463440104
 30
0.0
  0
LINE
  5
39F
330
37E
100
AcDbEntity
  8
$DDT_AUDIT_GENERATED_(2DE)
  6
Continuous
 62
     7
100
AcDbLine
 10
127.2442877206
 20
271.7531105851
 30
0.0
 11
127.2049000125
 21
324.4870449577
 31
0.0
  0
ARC
  5
3A0
330
37E
100
AcDbEntity
  8
$DDT_AUDIT_GENERATED_(2DE)
  6
Continuous
 62
     7
100
AcDbCircle
 10
107.1230922684
 20
344.8533487614
 30
0.0
 40
19.27999879701157
100
AcDbArc
 50
90.1535528466
 51
167.860927573
  0
ARC
  5
3A1
330
37E
100
AcDbEntity
  8
$DDT_AUDIT_GENERATED_(2DE)
  6
Continuous
 62
     7
100
AcDbCircle
 10
107.2599072926
 20
345.3029565936
 30
0.0
 40
18.83126504163367
100
AcDbArc
 50
0.0793869128
 51
90.5734930138
  0
ARC
  5
3A2
330
37E
100
AcDbEntity
  8
$DDT_AUDIT_GENERATED_(2DE)
  6
Continuous
 62
     7
100
AcDbCircle
 10
45653.0995189659
 20
306.9707063263
 30
0.0
 40
45527.02452393056
100
AcDbArc
 50
179.9517260045
 51
180.0443420494
  0
ARC
  5
3A3
330
37E
100
AcDbEntity
  8
$DDT_AUDIT_GENERATED_(2DE)
  6
Continuous
 62
     7
100
AcDbCircle
 10
31701.3331605072
 20
308.360309406
 30
0.0
 40
31574.6622260865
100
AcDbArc
 50
179.9330313361
 51
180.0665646671
  0
ARC
  5
3A4
330
37E
100
AcDbEntity
  8
$DDT_AUDIT_GENERATED_(2DE)
  6
Continuous
 62
     7
100
AcDbCircle
 10
107.1594610418
 20
341.8230760487
 30
0.0
 40
26.8006581452199
100
AcDbArc
 50
28.1418387809
 51
90.1919396055
  0
ARC
  5
3A5
330
37E
100
AcDbEntity
  8
$DDT_AUDIT_GENERATED_(2DE)
  6
Continuous
 62
     7
100
AcDbCircle
 10
107.0020961478
 20
341.8008567427
 30
0.0
 40
26.82281034488823
100
AcDbArc
 50
89.8569931481
 51
154.0726677401
  0
ARC
  5
3A6
330
37E
100
AcDbEntity
  8
$DDT_AUDIT_GENERATED_(2DE)
  6
Continuous
 62
     7
100
AcDbCircle
 10
107.0710580126
 20
345.3361752368
 30
0.0
 40
26.98160530695275
100
AcDbArc
 50
187.6319077719
 51
223.2187327913
  0
ARC
  5
3A7
330
37E
100
AcDbEntity
  8
$DDT_AUDIT_GENERATED_(2DE)
  6
Continuous
 62
     7
100
AcDbCircle
 10
107.0710580126
 20
345.3361752368
 30
0.0
 40
26.98160530695275
100
AcDbArc
 50
318.0037528001
 51
352.3680922281
  0
ARC
  5
3A8
330
37E
100
AcDbEntity
  8
$DDT_AUDIT_GENERATED_(2DE)
  6
Continuous
 62
     7
100
AcDbCircle
 10
92.3504361509
 20
343.1893021542
 30
0.0
 40
12.10749357163191
100
AcDbArc
 50
174.7798869419
 51
186.8139865548
  0
ARC
  5
3A9
330
37E
100
AcDbEntity
  8
$DDT_AUDIT_GENERATED_(2DE)
  6
Continuous
 62
     7
100
AcDbCircle
 10
121.9390406572
 20
343.1872523558
 30
0.0
 40
11.96094043592005
100
AcDbArc
 50
353.1120113939
 51
5.2941151094
  0
ELLIPSE
  5
3AA
330
37E
100
AcDbEntity
  8
$DDT_AUDIT_GENERATED_(2DE)
  6
Continuous
 62
     7
100
AcDbEllipse
 10
80.5378522958
 20
344.2983049252
 30
0.0
 11
0.2487825003711919
 21
-0.0246427983202741
 31
0.0
210
0.0
220
0.0
230
0.9999999999999999
 40
0.5280594479
 41
3.13925294621899
 42
3.382684916335511
  0
ELLIPSE
  5
3AB
330
37E
100
AcDbEntity
  8
$DDT_AUDIT_GENERATED_(2DE)
  6
Continuous
 62
     7
100
AcDbEllipse
 10
133.6042637293
 20
344.2983049252
 30
0.0
 11
-0.2487825003711988
 21
-0.02464279832027215
 31
0.0
210
0.0
220
0.0
230
1.0
 40
0.5280594479
 41
2.900500390844209
 42
3.141894289938493
  0
ARC
  5
3AC
330
37E
100
AcDbEntity
  8
$DDT_AUDIT_GENERATED_(2DE)
  6
Continuous
 62
     7
100
AcDbCircle
 10
107.1399041162
 20
271.7502896187
 30
0.0
 40
20.11534096859753
100
AcDbArc
 50
269.8039065565
 51
359.7480181387
  0
LINE
  5
3AD
330
37E
100
AcDbEntity
  8
$DDT_AUDIT_GENERATED_(2DE)
  6
Continuous
 62
     7
100
AcDbLine
 10
86.885654721
 20
271.7396729132
 30
0.0
 11
86.8856196575
 21
271.6664584727
 31
0.0
  0
ARC
  5
3AE
330
37E
100
AcDbEntity
  8
$DDT_AUDIT_GENERATED_(2DE)
  6
Continuous
 62
     7
100
AcDbCircle
 10
106.9216479484
 20
271.6690931076
 30
0.0
 40
20.03458379542984
100
AcDbArc
 50
180.0207874198
 51
270.4273003991
  0
ARC
  5
3AF
330
37E
100
AcDbEntity
  8
$DDT_AUDIT_GENERATED_(2DE)
  6
Continuous
 62
     7
100
AcDbCircle
 10
96.2483992667
 20
343.0152208492
 30
0.0
 40
16.00846020378683
100
AcDbArc
 50
171.751857305
 51
175.3154289957
  0
ARC
  5
3B0
330
37E
100
AcDbEntity
  8
$DDT_AUDIT_GENERATED_(2DE)
  6
Continuous
 62
     7
100
AcDbCircle
 10
113.104163271
 20
342.4011087523
 30
0.0
 40
20.83593401863149
100
AcDbArc
 50
5.2919268522
 51
8.0296910563
  0
ARC
  5
3B1
330
37E
100
AcDbEntity
  8
$DDT_AUDIT_GENERATED_(2DE)
  6
Continuous
 62
     7
100
AcDbCircle
 10
107.148225706
 20
341.830766341
 30
0.0
 40
26.9739565960121
100
AcDbArc
 50
154.2037230517
 51
172.5808257337
  0
ARC
  5
3B2
330
37E
100
AcDbEntity
  8
$DDT_AUDIT_GENERATED_(2DE)
  6
Continuous
 62
     7
100
AcDbCircle
 10
107.2844740316
 20
341.9169176915
 30
0.0
 40
26.66943889880903
100
AcDbArc
 50
7.3159275843
 51
28.1541731215
  0
ENDBLK
  5
3B4
330
37E
100
AcDbEntity
  8
0
100
AcDbBlockEnd
  0
ENDSEC
  0
SECTION
  2
ENTITIES
  0
INSERT
  5
5F
330
1F
100
AcDbEntity
  8
Default
100
AcDbBlockReference
  2
SEANNOT_GROUP
 10
0.0
 20
0.0
 30
0.0
  0
INSERT
  5
66
330
1F
100
AcDbEntity
  8
Default
100
AcDbBlockReference
  2
SEANNOT_GROUP1
 10
0.0
 20
0.0
 30
0.0
  0
INSERT
  5
6C
330
1F
100
AcDbEntity
  8
Default
100
AcDbBlockReference
  2
SEANNOT_GROUP2
 10
0.0
 20
0.0
 30
0.0
  0
INSERT
  5
76
330
1F
100
AcDbEntity
  8
Default
100
AcDbBlockReference
  2
SE
 10
0.0
 20
0.0
 30
0.0
  0
INSERT
  5
30D
330
1F
100
AcDbEntity
  8
Default
100
AcDbBlockReference
  2
SE1
 10
0.0
 20
0.0
 30
0.0
  0
INSERT
  5
37F
330
1F
100
AcDbEntity
  8
Default
100
AcDbBlockReference
  2
SE2
 10
0.0
 20
0.0
 30
0.0
  0
TEXT
  5
3B6
330
1F
100
AcDbEntity
  8
Default
  6
Continuous
 62
     7
100
AcDbText
 10
5.9362635081
 20
53.4225120485
 30
0.0
 40
10.0
  1
Grohe AG^J
  7
SEACAD_seiso_ttf
 11
5.9362635081
 21
63.4225120485
 31
0.0
100
AcDbText
 73
     3
  0
TEXT
  5
3B7
330
1F
100
AcDbEntity
  8
Default
  6
Continuous
 62
     7
100
AcDbText
 10
5.9362635081
 20
37.0588756849
 30
0.0
 40
10.0
  1
 
  7
SEACAD_seiso_ttf
 11
5.9362635081
 21
47.0588756849
 31
0.0
100
AcDbText
 73
     3
  0
TEXT
  5
3B8
330
1F
100
AcDbEntity
  8
Default
  6
Continuous
 62
     7
100
AcDbText
 10
5.9362635081
 20
20.6952393213
 30
0.0
 40
10.0
  1
ecn: 
  7
SEACAD_seiso_ttf
 11
5.9362635081
 21
30.6952393213
 31
0.0
100
AcDbText
 73
     3
  0
TEXT
  5
3B9
330
1F
100
AcDbEntity
  8
Default
  6
Continuous
 62
     7
100
AcDbText
 10
5.9362635081
 20
4.3316029576
 30
0.0
 40
10.0
  1
unit: mm
  7
SEACAD_seiso_ttf
 11
5.9362635081
 21
14.3316029576
 31
0.0
100
AcDbText
 73
     3
  0
LINE
  5
3BA
330
1F
100
AcDbEntity
  8
Default
  6
Continuous
 62
     7
100
AcDbLine
 10
0.0
 20
0.0
 30
0.0
 11
100.0
 21
0.0
 31
0.0
  0
LINE
  5
3BB
330
1F
100
AcDbEntity
  8
Default
  6
Continuous
 62
     7
100
AcDbLine
 10
0.0
 20
0.0
 30
0.0
 11
0.0
 21
100.0
 31
0.0
  0
TEXT
  5
3BC
330
1F
100
AcDbEntity
  8
Default
  6
Continuous
 62
     7
100
AcDbText
 10
24.3923665681
 20
-18.2375342018
 30
0.0
 40
10.0
  1
100 mm
  7
SEACAD_seiso_ttf
 11
24.3923665681
 21
-8.2375342018
 31
0.0
100
AcDbText
 73
     3
  0
TEXT
  5
3BD
330
1F
100
AcDbEntity
  8
Default
  6
Continuous
 62
     7
100
AcDbText
 10
-7.6150308803
 20
24.6231930421
 30
0.0
 40
10.0
  1
100 mm
 50
90.0
  7
SEACAD_seiso_ttf
 11
-17.6150308803
 21
24.6231930421
 31
0.0
100
AcDbText
 73
     3
  0
TEXT
  5
3BE
330
1F
100
AcDbEntity
  8
Default
  6
Continuous
 62
     7
100
AcDbText
 10
28.4878128572
 20
20.0907663715
 30
0.0
 40
10.0
  1
218996
  7
SEACAD_seiso_ttf
 11
28.4878128572
 21
30.0907663715
 31
0.0
100
AcDbText
 73
     3
  0
TEXT
  5
3BF
330
1F
100
AcDbEntity
  8
Default
  6
Continuous
 62
     7
100
AcDbText
 10
5.9012241913
 20
36.7242780188
 30
0.0
 40
10.0
  1
31135000
  7
SEACAD_seiso_ttf
 11
5.9012241913
 21
46.7242780188
 31
0.0
100
AcDbText
 73
     3
  0
ENDSEC
  0
SECTION
  2
OBJECTS
  0
DICTIONARY
  5
C
330
0
100
AcDbDictionary
281
     1
  3
ACAD_GROUP
350
D
  3
ACAD_LAYOUT
350
1A
  3
ACAD_MLEADERSTYLE
350
3C3
  3
ACAD_MLINESTYLE
350
17
  3
ACAD_PLOTSETTINGS
350
19
  3
ACAD_PLOTSTYLENAME
350
E
  3
ACAD_SCALELIST
350
3B
  3
ACAD_TABLESTYLE
350
3C2
  3
ACAD_VISUALSTYLE
350
2A
  3
AcDbVariableDictionary
350
3C0
  0
DICTIONARY
  5
D
102
{ACAD_REACTORS
330
C
102
}
330
C
100
AcDbDictionary
281
     1
  0
DICTIONARY
  5
1A
102
{ACAD_REACTORS
330
C
102
}
330
C
100
AcDbDictionary
281
     1
  3
Layout1
350
1E
  3
Model
350
22
  0
DICTIONARY
  5
3C3
102
{ACAD_REACTORS
330
C
102
}
330
C
100
AcDbDictionary
281
     1
  0
DICTIONARY
  5
17
102
{ACAD_REACTORS
330
C
102
}
330
C
100
AcDbDictionary
281
     1
  3
Standard
350
18
  0
DICTIONARY
  5
19
102
{ACAD_REACTORS
330
C
102
}
330
C
100
AcDbDictionary
281
     1
  0
ACDBDICTIONARYWDFLT
  5
E
102
{ACAD_REACTORS
330
C
102
}
330
C
100
AcDbDictionary
281
     1
  3
Normal
350
F
100
AcDbDictionaryWithDefault
340
F
  0
DICTIONARY
  5
3B
102
{ACAD_REACTORS
330
C
102
}
330
C
100
AcDbDictionary
281
     1
  3
A0
350
3C
  3
A1
350
3D
  3
A2
350
3E
  3
A3
350
3F
  3
A4
350
40
  3
A5
350
41
  3
A6
350
42
  3
A7
350
43
  3
A8
350
44
  3
A9
350
45
  3
B0
350
46
  3
B1
350
47
  3
B2
350
48
  3
B3
350
49
  3
B4
350
4A
  3
B5
350
4B
  3
B6
350
4C
  3
B7
350
4D
  3
B8
350
4E
  3
B9
350
4F
  3
C0
350
50
  3
C1
350
51
  3
C2
350
52
  3
C3
350
53
  3
C4
350
54
  3
C5
350
55
  3
C6
350
56
  3
C7
350
57
  3
C8
350
58
  3
C9
350
59
  3
D0
350
5A
  3
D1
350
5B
  3
D2
350
5C
  0
DICTIONARY
  5
3C2
102
{ACAD_REACTORS
330
C
102
}
330
C
100
AcDbDictionary
281
     1
  0
DICTIONARY
  5
2A
102
{ACAD_REACTORS
330
C
102
}
330
C
100
AcDbDictionary
281
     1
  3
2dWireframe
350
2F
  3
3D Hidden
350
31
  3
3dWireframe
350
30
  3
Basic
350
32
  3
Brighten
350
36
  3
ColorChange
350
3A
  3
Conceptual
350
34
  3
Dim
350
35
  3
Facepattern
350
39
  3
Flat
350
2B
  3
FlatWithEdges
350
2C
  3
Gouraud
350
2D
  3
GouraudWithEdges
350
2E
  3
Linepattern
350
38
  3
Realistic
350
33
  3
Thicken
350
37
  0
DICTIONARY
  5
3C0
102
{ACAD_REACTORS
330
C
102
}
330
C
100
AcDbDictionary
281
     1
  3
CANNOSCALE
350
3C1
  3
PSOLHEIGHT
350
3C5
  3
PSOLWIDTH
350
3C4
  0
LAYOUT
  5
1E
102
{ACAD_REACTORS
330
1A
102
}
330
1A
100
AcDbPlotSettings
  1

  2
none_device
  4

  6

 40
0.0
 41
0.0
 42
0.0
 43
0.0
 44
0.0
 45
0.0
 46
0.0
 47
0.0
 48
0.0
 49
0.0
140
0.0
141
0.0
142
1.0
143
1.0
 70
   688
 72
     0
 73
     0
 74
     5
  7

 75
    16
147
1.0
148
0.0
149
0.0
100
AcDbLayout
  1
Layout1
 70
     1
 71
     1
 10
0.0
 20
0.0
 11
1682.0
 21
2378.0
 12
0.0
 22
0.0
 32
0.0
 14
0.0
 24
0.0
 34
0.0
 15
1682.0
 25
2378.0
 35
0.0
146
0.0
 13
0.0
 23
0.0
 33
0.0
 16
1.0
 26
0.0
 36
0.0
 17
0.0
 27
1.0
 37
0.0
 76
     0
330
1B
  0
LAYOUT
  5
22
102
{ACAD_REACTORS
330
1A
102
}
330
1A
100
AcDbPlotSettings
  1

  2
none_device
  4

  6

 40
0.0
 41
0.0
 42
0.0
 43
0.0
 44
0.0
 45
0.0
 46
0.0
 47
0.0
 48
0.0
 49
0.0
140
0.0
141
0.0
142
1.0
143
1.0
 70
  1712
 72
     0
 73
     0
 74
     0
  7

 75
     0
147
1.0
148
0.0
149
0.0
100
AcDbLayout
  1
Model
 70
     1
 71
     0
 10
0.0
 20
0.0
 11
1682.0
 21
2378.0
 12
0.0
 22
0.0
 32
0.0
 14
0.0
 24
0.0
 34
0.0
 15
1682.0
 25
2378.0
 35
0.0
146
0.0
 13
0.0
 23
0.0
 33
0.0
 16
1.0
 26
0.0
 36
0.0
 17
0.0
 27
1.0
 37
0.0
 76
     0
330
1F
331
29
  0
MLINESTYLE
  5
18
102
{ACAD_REACTORS
330
17
102
}
330
17
100
AcDbMlineStyle
  2
Standard
 70
     0
  3

 62
   256
 51
90.0
 52
90.0
 71
     2
 49
0.5
 62
   256
  6
BYLAYER
 49
-0.5
 62
   256
  6
BYLAYER
  0
ACDBPLACEHOLDER
  5
F
102
{ACAD_REACTORS
330
E
102
}
330
E
  0
SCALE
  5
3C
102
{ACAD_REACTORS
330
3B
102
}
330
3B
100
AcDbScale
 70
     0
300
1:1
140
1.0
141
1.0
290
     1
  0
SCALE
  5
3D
102
{ACAD_REACTORS
330
3B
102
}
330
3B
100
AcDbScale
 70
     0
300
1:2
140
1.0
141
2.0
290
     0
  0
SCALE
  5
3E
102
{ACAD_REACTORS
330
3B
102
}
330
3B
100
AcDbScale
 70
     0
300
1:4
140
1.0
141
4.0
290
     0
  0
SCALE
  5
3F
102
{ACAD_REACTORS
330
3B
102
}
330
3B
100
AcDbScale
 70
     0
300
1:5
140
1.0
141
5.0
290
     0
  0
SCALE
  5
40
102
{ACAD_REACTORS
330
3B
102
}
330
3B
100
AcDbScale
 70
     0
300
1:8
140
1.0
141
8.0
290
     0
  0
SCALE
  5
41
102
{ACAD_REACTORS
330
3B
102
}
330
3B
100
AcDbScale
 70
     0
300
1:10
140
1.0
141
10.0
290
     0
  0
SCALE
  5
42
102
{ACAD_REACTORS
330
3B
102
}
330
3B
100
AcDbScale
 70
     0
300
1:16
140
1.0
141
16.0
290
     0
  0
SCALE
  5
43
102
{ACAD_REACTORS
330
3B
102
}
330
3B
100
AcDbScale
 70
     0
300
1:20
140
1.0
141
20.0
290
     0
  0
SCALE
  5
44
102
{ACAD_REACTORS
330
3B
102
}
330
3B
100
AcDbScale
 70
     0
300
1:30
140
1.0
141
30.0
290
     0
  0
SCALE
  5
45
102
{ACAD_REACTORS
330
3B
102
}
330
3B
100
AcDbScale
 70
     0
300
1:40
140
1.0
141
40.0
290
     0
  0
SCALE
  5
46
102
{ACAD_REACTORS
330
3B
102
}
330
3B
100
AcDbScale
 70
     0
300
1:50
140
1.0
141
50.0
290
     0
  0
SCALE
  5
47
102
{ACAD_REACTORS
330
3B
102
}
330
3B
100
AcDbScale
 70
     0
300
1:100
140
1.0
141
100.0
290
     0
  0
SCALE
  5
48
102
{ACAD_REACTORS
330
3B
102
}
330
3B
100
AcDbScale
 70
     0
300
2:1
140
2.0
141
1.0
290
     0
  0
SCALE
  5
49
102
{ACAD_REACTORS
330
3B
102
}
330
3B
100
AcDbScale
 70
     0
300
4:1
140
4.0
141
1.0
290
     0
  0
SCALE
  5
4A
102
{ACAD_REACTORS
330
3B
102
}
330
3B
100
AcDbScale
 70
     0
300
8:1
140
8.0
141
1.0
290
     0
  0
SCALE
  5
4B
102
{ACAD_REACTORS
330
3B
102
}
330
3B
100
AcDbScale
 70
     0
300
10:1
140
10.0
141
1.0
290
     0
  0
SCALE
  5
4C
102
{ACAD_REACTORS
330
3B
102
}
330
3B
100
AcDbScale
 70
     0
300
100:1
140
100.0
141
1.0
290
     0
  0
SCALE
  5
4D
102
{ACAD_REACTORS
330
3B
102
}
330
3B
100
AcDbScale
 70
     0
300
1/128" = 1'-0"
140
0.0078125
141
12.0
290
     0
  0
SCALE
  5
4E
102
{ACAD_REACTORS
330
3B
102
}
330
3B
100
AcDbScale
 70
     0
300
1/64" = 1'-0"
140
0.015625
141
12.0
290
     0
  0
SCALE
  5
4F
102
{ACAD_REACTORS
330
3B
102
}
330
3B
100
AcDbScale
 70
     0
300
1/32" = 1'-0"
140
0.03125
141
12.0
290
     0
  0
SCALE
  5
50
102
{ACAD_REACTORS
330
3B
102
}
330
3B
100
AcDbScale
 70
     0
300
1/16" = 1'-0"
140
0.0625
141
12.0
290
     0
  0
SCALE
  5
51
102
{ACAD_REACTORS
330
3B
102
}
330
3B
100
AcDbScale
 70
     0
300
3/32" = 1'-0"
140
0.09375
141
12.0
290
     0
  0
SCALE
  5
52
102
{ACAD_REACTORS
330
3B
102
}
330
3B
100
AcDbScale
 70
     0
300
1/8" = 1'-0"
140
0.125
141
12.0
290
     0
  0
SCALE
  5
53
102
{ACAD_REACTORS
330
3B
102
}
330
3B
100
AcDbScale
 70
     0
300
3/16" = 1'-0"
140
0.1875
141
12.0
290
     0
  0
SCALE
  5
54
102
{ACAD_REACTORS
330
3B
102
}
330
3B
100
AcDbScale
 70
     0
300
1/4" = 1'-0"
140
0.25
141
12.0
290
     0
  0
SCALE
  5
55
102
{ACAD_REACTORS
330
3B
102
}
330
3B
100
AcDbScale
 70
     0
300
3/8" = 1'-0"
140
0.375
141
12.0
290
     0
  0
SCALE
  5
56
102
{ACAD_REACTORS
330
3B
102
}
330
3B
100
AcDbScale
 70
     0
300
1/2" = 1'-0"
140
0.5
141
12.0
290
     0
  0
SCALE
  5
57
102
{ACAD_REACTORS
330
3B
102
}
330
3B
100
AcDbScale
 70
     0
300
3/4" = 1'-0"
140
0.75
141
12.0
290
     0
  0
SCALE
  5
58
102
{ACAD_REACTORS
330
3B
102
}
330
3B
100
AcDbScale
 70
     0
300
1" = 1'-0"
140
1.0
141
12.0
290
     0
  0
SCALE
  5
59
102
{ACAD_REACTORS
330
3B
102
}
330
3B
100
AcDbScale
 70
     0
300
1-1/2" = 1'-0"
140
1.5
141
12.0
290
     0
  0
SCALE
  5
5A
102
{ACAD_REACTORS
330
3B
102
}
330
3B
100
AcDbScale
 70
     0
300
3" = 1'-0"
140
3.0
141
12.0
290
     0
  0
SCALE
  5
5B
102
{ACAD_REACTORS
330
3B
102
}
330
3B
100
AcDbScale
 70
     0
300
6" = 1'-0"
140
6.0
141
12.0
290
     0
  0
SCALE
  5
5C
102
{ACAD_REACTORS
330
3B
102
}
330
3B
100
AcDbScale
 70
     0
300
1'-0" = 1'-0"
140
12.0
141
12.0
290
     0
  0
VISUALSTYLE
  5
2F
102
{ACAD_REACTORS
330
2A
102
}
330
2A
100
AcDbVisualStyle
  2
2dWireframe
 70
     4
 71
     0
 72
     2
 73
     0
 90
        0
 40
-0.6
 41
-30.0
 62
     5
 63
     7
 74
     1
 91
        4
 64
     7
 65
   257
 75
     1
175
     1
 42
1.0
 92
        0
 66
   257
 43
1.0
 76
     1
 77
     6
 78
     2
 67
     7
 79
     5
170
     0
171
     0
290
     0
174
     0
 93
        1
 44
0.0
173
     0
291
     0
 45
0.0
1001
ACAD
1000
AcDbSavedByObjectVersion
1070
     0
  0
VISUALSTYLE
  5
31
102
{ACAD_REACTORS
330
2A
102
}
330
2A
100
AcDbVisualStyle
  2
3D Hidden
 70
     6
 71
     1
 72
     2
 73
     2
 90
        0
 40
-0.6
 41
-30.0
 62
     5
 63
     7
 74
     2
 91
        2
 64
     7
 65
   257
 75
     2
175
     1
 42
40.0
 92
        0
 66
   257
 43
1.0
 76
     1
 77
     6
 78
     2
 67
     7
 79
     3
170
     0
171
     0
290
     0
174
     0
 93
        1
 44
0.0
173
     0
291
     0
 45
0.0
1001
ACAD
1000
AcDbSavedByObjectVersion
1070
     0
  0
VISUALSTYLE
  5
30
102
{ACAD_REACTORS
330
2A
102
}
330
2A
100
AcDbVisualStyle
  2
3dWireframe
 70
     5
 71
     0
 72
     2
 73
     0
 90
        0
 40
-0.6
 41
-30.0
 62
     5
 63
     7
 74
     1
 91
        4
 64
     7
 65
   257
 75
     1
175
     1
 42
1.0
 92
        0
 66
   257
 43
1.0
 76
     1
 77
     6
 78
     2
 67
     7
 79
     5
170
     0
171
     0
290
     0
174
     0
 93
        1
 44
0.0
173
     0
291
     0
 45
0.0
1001
ACAD
1000
AcDbSavedByObjectVersion
1070
     0
  0
VISUALSTYLE
  5
32
102
{ACAD_REACTORS
330
2A
102
}
330
2A
100
AcDbVisualStyle
  2
Basic
 70
     7
 71
     1
 72
     0
 73
     1
 90
        0
 40
-0.6
 41
-30.0
 62
     5
 63
     7
 74
     0
 91
        4
 64
     7
 65
   257
 75
     1
175
     1
 42
1.0
 92
        8
 66
     7
 43
1.0
 76
     1
 77
     6
 78
     2
 67
     7
 79
     5
170
     0
171
     0
290
     0
174
     0
 93
        1
 44
0.0
173
     0
291
     1
 45
0.0
1001
ACAD
1000
AcDbSavedByObjectVersion
1070
     0
  0
VISUALSTYLE
  5
36
102
{ACAD_REACTORS
330
2A
102
}
330
2A
100
AcDbVisualStyle
  2
Brighten
 70
    12
 71
     2
 72
     2
 73
     0
 90
        0
 40
-0.6
 41
-30.0
 62
     5
 63
     7
 74
     1
 91
        4
 64
     7
 65
   257
 75
     1
175
     1
 42
1.0
 92
        8
 66
     7
 43
1.0
 76
     1
 77
     6
 78
     2
 67
     7
 79
     5
170
     0
171
     0
290
     0
174
     0
 93
        1
 44
50.0
173
     0
291
     1
 45
0.0
1001
ACAD
1000
AcDbSavedByObjectVersion
1070
     0
  0
VISUALSTYLE
  5
3A
102
{ACAD_REACTORS
330
2A
102
}
330
2A
100
AcDbVisualStyle
  2
ColorChange
 70
    16
 71
     2
 72
     2
 73
     3
 90
        0
 40
-0.6
 41
-30.0
 62
     5
 63
     8
 74
     1
 91
        4
 64
     7
 65
   257
 75
     1
175
     1
 42
1.0
 92
        8
 66
     8
 43
1.0
 76
     1
 77
     6
 78
     2
 67
     7
 79
     5
170
     0
171
     0
290
     0
174
     0
 93
        1
 44
0.0
173
     0
291
     1
 45
0.0
1001
ACAD
1000
AcDbSavedByObjectVersion
1070
     0
  0
VISUALSTYLE
  5
34
102
{ACAD_REACTORS
330
2A
102
}
330
2A
100
AcDbVisualStyle
  2
Conceptual
 70
     9
 71
     3
 72
     2
 73
     0
 90
        0
 40
-0.6
 41
-30.0
 62
     5
 63
     7
 74
     2
 91
        2
 64
     7
 65
   257
 75
     1
175
     1
 42
40.0
 92
        8
 66
     7
 43
1.0
 76
     1
 77
     6
 78
     2
 67
     7
 79
     3
170
     0
171
     0
290
     0
174
     0
 93
        1
 44
0.0
173
     0
291
     0
 45
0.0
1001
ACAD
1000
AcDbSavedByObjectVersion
1070
     0
  0
VISUALSTYLE
  5
35
102
{ACAD_REACTORS
330
2A
102
}
330
2A
100
AcDbVisualStyle
  2
Dim
 70
    11
 71
     2
 72
     2
 73
     0
 90
        0
 40
-0.6
 41
-30.0
 62
     5
 63
     7
 74
     1
 91
        4
 64
     7
 65
   257
 75
     1
175
     1
 42
1.0
 92
        8
 66
     7
 43
1.0
 76
     1
 77
     6
 78
     2
 67
     7
 79
     5
170
     0
171
     0
290
     0
174
     0
 93
        1
 44
-50.0
173
     0
291
     1
 45
0.0
1001
ACAD
1000
AcDbSavedByObjectVersion
1070
     0
  0
VISUALSTYLE
  5
39
102
{ACAD_REACTORS
330
2A
102
}
330
2A
100
AcDbVisualStyle
  2
Facepattern
 70
    15
 71
     2
 72
     2
 73
     0
 90
        0
 40
-0.6
 41
-30.0
 62
     5
 63
     7
 74
     1
 91
        4
 64
     7
 65
   257
 75
     1
175
     1
 42
1.0
 92
        8
 66
     7
 43
1.0
 76
     1
 77
     6
 78
     2
 67
     7
 79
     5
170
     0
171
     0
290
     0
174
     0
 93
        1
 44
0.0
173
     0
291
     1
 45
0.0
1001
ACAD
1000
AcDbSavedByObjectVersion
1070
     0
  0
VISUALSTYLE
  5
2B
102
{ACAD_REACTORS
330
2A
102
}
330
2A
100
AcDbVisualStyle
  2
Flat
 70
     0
 71
     2
 72
     1
 73
     1
 90
        2
 40
-0.6
 41
30.0
 62
     5
 63
     7
 74
     0
 91
        4
 64
     7
 65
   257
 75
     1
175
     1
 42
1.0
 92
        8
 66
     7
 43
1.0
 76
     1
 77
     6
 78
     2
 67
     7
 79
     5
170
     0
171
     0
290
     0
174
     0
 93
       13
 44
0.0
173
     0
291
     1
 45
0.0
1001
ACAD
1000
AcDbSavedByObjectVersion
1070
     0
  0
VISUALSTYLE
  5
2C
102
{ACAD_REACTORS
330
2A
102
}
330
2A
100
AcDbVisualStyle
  2
FlatWithEdges
 70
     1
 71
     2
 72
     1
 73
     1
 90
        2
 40
-0.6
 41
30.0
 62
     5
 63
     7
 74
     1
 91
        4
 64
     7
 65
   257
 75
     1
175
     1
 42
1.0
 92
        0
 66
   257
 43
1.0
 76
     1
 77
     6
 78
     2
 67
     7
 79
     5
170
     0
171
     0
290
     0
174
     0
 93
       13
 44
0.0
173
     0
291
     1
 45
0.0
1001
ACAD
1000
AcDbSavedByObjectVersion
1070
     0
  0
VISUALSTYLE
  5
2D
102
{ACAD_REACTORS
330
2A
102
}
330
2A
100
AcDbVisualStyle
  2
Gouraud
 70
     2
 71
     2
 72
     2
 73
     1
 90
        2
 40
-0.6
 41
30.0
 62
     5
 63
     7
 74
     0
 91
        4
 64
     7
 65
   257
 75
     1
175
     1
 42
1.0
 92
        0
 66
     7
 43
1.0
 76
     1
 77
     6
 78
     2
 67
     7
 79
     5
170
     0
171
     0
290
     0
174
     0
 93
       13
 44
0.0
173
     0
291
     1
 45
0.0
1001
ACAD
1000
AcDbSavedByObjectVersion
1070
     0
  0
VISUALSTYLE
  5
2E
102
{ACAD_REACTORS
330
2A
102
}
330
2A
100
AcDbVisualStyle
  2
GouraudWithEdges
 70
     3
 71
     2
 72
     2
 73
     1
 90
        2
 40
-0.6
 41
30.0
 62
     5
 63
     7
 74
     1
 91
        4
 64
     7
 65
   257
 75
     1
175
     1
 42
1.0
 92
        0
 66
   257
 43
1.0
 76
     1
 77
     6
 78
     2
 67
     7
 79
     5
170
     0
171
     0
290
     0
174
     0
 93
       13
 44
0.0
173
     0
291
     1
 45
0.0
1001
ACAD
1000
AcDbSavedByObjectVersion
1070
     0
  0
VISUALSTYLE
  5
38
102
{ACAD_REACTORS
330
2A
102
}
330
2A
100
AcDbVisualStyle
  2
Linepattern
 70
    14
 71
     2
 72
     2
 73
     0
 90
        0
 40
-0.6
 41
-30.0
 62
     5
 63
     7
 74
     1
 91
        4
 64
     7
 65
   257
 75
     7
175
     7
 42
1.0
 92
        8
 66
     7
 43
1.0
 76
     1
 77
     6
 78
     2
 67
     7
 79
     5
170
     0
171
     0
290
     0
174
     0
 93
        1
 44
0.0
173
     0
291
     1
 45
0.0
1001
ACAD
1000
AcDbSavedByObjectVersion
1070
     0
  0
VISUALSTYLE
  5
33
102
{ACAD_REACTORS
330
2A
102
}
330
2A
100
AcDbVisualStyle
  2
Realistic
 70
     8
 71
     2
 72
     2
 73
     0
 90
        0
 40
-0.6
 41
-30.0
 62
     5
 63
     7
 74
     1
 91
        0
 64
     7
 65
   257
 75
     1
175
     1
 42
1.0
 92
        8
 66
     8
 43
1.0
 76
     1
 77
     6
 78
     2
 67
     7
 79
     5
170
     0
171
     0
290
     0
174
     0
 93
       13
 44
0.0
173
     0
291
     0
 45
0.0
1001
ACAD
1000
AcDbSavedByObjectVersion
1070
     0
  0
VISUALSTYLE
  5
37
102
{ACAD_REACTORS
330
2A
102
}
330
2A
100
AcDbVisualStyle
  2
Thicken
 70
    13
 71
     2
 72
     2
 73
     0
 90
        0
 40
-0.6
 41
-30.0
 62
     5
 63
     7
 74
     1
 91
        4
 64
     7
 65
   257
 75
     1
175
     1
 42
1.0
 92
       12
 66
     7
 43
1.0
 76
     1
 77
     6
 78
     2
 67
     7
 79
     5
170
     0
171
     0
290
     0
174
     0
 93
        1
 44
0.0
173
     0
291
     1
 45
0.0
1001
ACAD
1000
AcDbSavedByObjectVersion
1070
     0
  0
DICTIONARYVAR
  5
3C1
102
{ACAD_REACTORS
330
3C0
102
}
330
3C0
100
DictionaryVariables
280
     0
  1
1:1
  0
DICTIONARYVAR
  5
3C5
102
{ACAD_REACTORS
330
3C0
102
}
330
3C0
100
DictionaryVariables
280
     0
  1
80.000000
  0
DICTIONARYVAR
  5
3C4
102
{ACAD_REACTORS
330
3C0
102
}
330
3C0
100
DictionaryVariables
280
     0
  1
5.000000
  0
ENDSEC
  0
EOF
