  0
SECTION
  2
HEADER
  9
$ACADVER
  1
AC1015
  9
$ACADMAINTVER
 70
     6
  9
$DWGCODEPAGE
  3
ANSI_1252
  9
$INSBASE
 10
0.0
 20
0.0
 30
0.0
  9
$EXTMIN
 10
0.0
 20
0.0
 30
0.0
  9
$EXTMAX
 10
3000.0
 20
4500.0
 30
0.0
  9
$LIMMIN
 10
0.0
 20
0.0
  9
$LIMMAX
 10
3000.0
 20
4500.0
  9
$ORTHOMODE
 70
     0
  9
$REGENMODE
 70
     1
  9
$FILLMODE
 70
     1
  9
$QTEXTMODE
 70
     0
  9
$MIRRTEXT
 70
     1
  9
$LTSCALE
 40
1.0
  9
$ATTMODE
 70
     1
  9
$TEXTSIZE
 40
2.5
  9
$TRACEWID
 40
1.0
  9
$TEXTSTYLE
  7
Standard
  9
$CLAYER
  8
0
  9
$CELTYPE
  6
ByLayer
  9
$CECOLOR
 62
   256
  9
$CELTSCALE
 40
1.0
  9
$DISPSILH
 70
     0
  9
$DIMSCALE
 40
1.0
  9
$DIMASZ
 40
2.5
  9
$DIMEXO
 40
0.625
  9
$DIMDLI
 40
3.75
  9
$DIMRND
 40
0.0
  9
$DIMDLE
 40
0.0
  9
$DIMEXE
 40
1.25
  9
$DIMTP
 40
0.0
  9
$DIMTM
 40
0.0
  9
$DIMTXT
 40
2.5
  9
$DIMCEN
 40
2.5
  9
$DIMTSZ
 40
0.0
  9
$DIMTOL
 70
     0
  9
$DIMLIM
 70
     0
  9
$DIMTIH
 70
     0
  9
$DIMTOH
 70
     0
  9
$DIMSE1
 70
     0
  9
$DIMSE2
 70
     0
  9
$DIMTAD
 70
     1
  9
$DIMZIN
 70
     8
  9
$DIMBLK
  1

  9
$DIMASO
 70
     1
  9
$DIMSHO
 70
     1
  9
$DIMPOST
  1

  9
$DIMAPOST
  1

  9
$DIMALT
 70
     0
  9
$DIMALTD
 70
     3
  9
$DIMALTF
 40
0.0393700787
  9
$DIMLFAC
 40
1.0
  9
$DIMTOFL
 70
     1
  9
$DIMTVP
 40
0.0
  9
$DIMTIX
 70
     0
  9
$DIMSOXD
 70
     0
  9
$DIMSAH
 70
     0
  9
$DIMBLK1
  1

  9
$DIMBLK2
  1

  9
$DIMSTYLE
  2
ISO-25
  9
$DIMCLRD
 70
     0
  9
$DIMCLRE
 70
     0
  9
$DIMCLRT
 70
     0
  9
$DIMTFAC
 40
1.0
  9
$DIMGAP
 40
0.625
  9
$DIMJUST
 70
     0
  9
$DIMSD1
 70
     0
  9
$DIMSD2
 70
     0
  9
$DIMTOLJ
 70
     0
  9
$DIMTZIN
 70
     8
  9
$DIMALTZ
 70
     0
  9
$DIMALTTZ
 70
     0
  9
$DIMUPT
 70
     0
  9
$DIMDEC
 70
     2
  9
$DIMTDEC
 70
     2
  9
$DIMALTU
 70
     2
  9
$DIMALTTD
 70
     3
  9
$DIMTXSTY
  7
Standard
  9
$DIMAUNIT
 70
     0
  9
$DIMADEC
 70
     0
  9
$DIMALTRND
 40
0.0
  9
$DIMAZIN
 70
     0
  9
$DIMDSEP
 70
    44
  9
$DIMATFIT
 70
     3
  9
$DIMFRAC
 70
     0
  9
$DIMLDRBLK
  1

  9
$DIMLUNIT
 70
     2
  9
$DIMLWD
 70
    -2
  9
$DIMLWE
 70
    -2
  9
$DIMTMOVE
 70
     0
  9
$LUNITS
 70
     2
  9
$LUPREC
 70
     4
  9
$SKETCHINC
 40
1.0
  9
$FILLETRAD
 40
10.0
  9
$AUNITS
 70
     0
  9
$AUPREC
 70
     0
  9
$MENU
  1
.
  9
$ELEVATION
 40
0.0
  9
$PELEVATION
 40
0.0
  9
$THICKNESS
 40
0.0
  9
$LIMCHECK
 70
     0
  9
$CHAMFERA
 40
10.0
  9
$CHAMFERB
 40
10.0
  9
$CHAMFERC
 40
20.0
  9
$CHAMFERD
 40
0.0
  9
$SKPOLY
 70
     0
  9
$TDCREATE
 40
2455856.600199109
  9
$TDUCREATE
 40
2455856.516865775
  9
$TDUPDATE
 40
2455856.600199121
  9
$TDUUPDATE
 40
2455856.516865787
  9
$TDINDWG
 40
0.0000000116
  9
$TDUSRTIMER
 40
0.0000000116
  9
$USRTIMER
 70
     1
  9
$ANGBASE
 50
0.0
  9
$ANGDIR
 70
     0
  9
$PDMODE
 70
     0
  9
$PDSIZE
 40
0.0
  9
$PLINEWID
 40
0.0
  9
$SPLFRAME
 70
     0
  9
$SPLINETYPE
 70
     6
  9
$SPLINESEGS
 70
     8
  9
$HANDSEED
  5
396
  9
$SURFTAB1
 70
     6
  9
$SURFTAB2
 70
     6
  9
$SURFTYPE
 70
     6
  9
$SURFU
 70
     6
  9
$SURFV
 70
     6
  9
$UCSBASE
  2

  9
$UCSNAME
  2

  9
$UCSORG
 10
0.0
 20
0.0
 30
0.0
  9
$UCSXDIR
 10
1.0
 20
0.0
 30
0.0
  9
$UCSYDIR
 10
0.0
 20
1.0
 30
0.0
  9
$UCSORTHOREF
  2

  9
$UCSORTHOVIEW
 70
     0
  9
$UCSORGTOP
 10
0.0
 20
0.0
 30
0.0
  9
$UCSORGBOTTOM
 10
0.0
 20
0.0
 30
0.0
  9
$UCSORGLEFT
 10
0.0
 20
0.0
 30
0.0
  9
$UCSORGRIGHT
 10
0.0
 20
0.0
 30
0.0
  9
$UCSORGFRONT
 10
0.0
 20
0.0
 30
0.0
  9
$UCSORGBACK
 10
0.0
 20
0.0
 30
0.0
  9
$PUCSBASE
  2

  9
$PUCSNAME
  2

  9
$PUCSORG
 10
0.0
 20
0.0
 30
0.0
  9
$PUCSXDIR
 10
1.0
 20
0.0
 30
0.0
  9
$PUCSYDIR
 10
0.0
 20
1.0
 30
0.0
  9
$PUCSORTHOREF
  2

  9
$PUCSORTHOVIEW
 70
     0
  9
$PUCSORGTOP
 10
0.0
 20
0.0
 30
0.0
  9
$PUCSORGBOTTOM
 10
0.0
 20
0.0
 30
0.0
  9
$PUCSORGLEFT
 10
0.0
 20
0.0
 30
0.0
  9
$PUCSORGRIGHT
 10
0.0
 20
0.0
 30
0.0
  9
$PUCSORGFRONT
 10
0.0
 20
0.0
 30
0.0
  9
$PUCSORGBACK
 10
0.0
 20
0.0
 30
0.0
  9
$USERI1
 70
     0
  9
$USERI2
 70
     0
  9
$USERI3
 70
     0
  9
$USERI4
 70
     0
  9
$USERI5
 70
     0
  9
$USERR1
 40
0.0
  9
$USERR2
 40
0.0
  9
$USERR3
 40
0.0
  9
$USERR4
 40
0.0
  9
$USERR5
 40
0.0
  9
$WORLDVIEW
 70
     1
  9
$SHADEDGE
 70
     3
  9
$SHADEDIF
 70
    70
  9
$TILEMODE
 70
     1
  9
$MAXACTVP
 70
    64
  9
$PINSBASE
 10
0.0
 20
0.0
 30
0.0
  9
$PLIMCHECK
 70
     0
  9
$PEXTMIN
 10
0.0
 20
0.0
 30
0.0
  9
$PEXTMAX
 10
3000.0
 20
4500.0
 30
0.0
  9
$PLIMMIN
 10
0.0
 20
0.0
  9
$PLIMMAX
 10
3000.0
 20
4500.0
  9
$UNITMODE
 70
     0
  9
$VISRETAIN
 70
     1
  9
$PLINEGEN
 70
     0
  9
$PSLTSCALE
 70
     1
  9
$TREEDEPTH
 70
  3020
  9
$CMLSTYLE
  2
Standard
  9
$CMLJUST
 70
     0
  9
$CMLSCALE
 40
20.0
  9
$PROXYGRAPHICS
 70
     1
  9
$MEASUREMENT
 70
     1
  9
$CELWEIGHT
370
    -1
  9
$ENDCAPS
280
     0
  9
$JOINSTYLE
280
     0
  9
$LWDISPLAY
290
     0
  9
$INSUNITS
 70
     4
  9
$HYPERLINKBASE
  1

  9
$STYLESHEET
  1

  9
$XEDIT
290
     1
  9
$CEPSNTYPE
380
     0
  9
$PSTYLEMODE
290
     1
  9
$FINGERPRINTGUID
  2
{1D1FA0AE-6FEC-404A-9B88-51054C92EDBE}
  9
$VERSIONGUID
  2
{FAEB1C32-E019-11D5-929B-00C0DF256EC4}
  9
$EXTNAMES
290
     1
  9
$PSVPSCALE
 40
0.0
  9
$OLESTARTUP
290
     0
  0
ENDSEC
  0
SECTION
  2
CLASSES
  0
CLASS
  1
ACDBDICTIONARYWDFLT
  2
AcDbDictionaryWithDefault
  3
ObjectDBX Classes
 90
        0
280
     0
281
     0
  0
CLASS
  1
VISUALSTYLE
  2
AcDbVisualStyle
  3
ObjectDBX Classes
 90
     4095
280
     0
281
     0
  0
CLASS
  1
SCALE
  2
AcDbScale
  3
ObjectDBX Classes
 90
     1153
280
     0
281
     0
  0
CLASS
  1
DICTIONARYVAR
  2
AcDbDictionaryVar
  3
ObjectDBX Classes
 90
        0
280
     0
281
     0
  0
CLASS
  1
ACDBPLACEHOLDER
  2
AcDbPlaceHolder
  3
ObjectDBX Classes
 90
        0
280
     0
281
     0
  0
CLASS
  1
LAYOUT
  2
AcDbLayout
  3
ObjectDBX Classes
 90
        0
280
     0
281
     0
  0
ENDSEC
  0
SECTION
  2
TABLES
  0
TABLE
  2
VPORT
  5
8
330
0
100
AcDbSymbolTable
 70
     1
  0
VPORT
  5
29
330
8
100
AcDbSymbolTableRecord
100
AcDbViewportTableRecord
  2
*Active
 70
     0
 10
0.0
 20
0.0
 11
1.0
 21
1.0
 12
344.1869158879
 22
148.5
 13
0.0
 23
0.0
 14
10.0
 24
10.0
 15
10.0
 25
10.0
 16
0.0
 26
0.0
 36
1.0
 17
0.0
 27
0.0
 37
0.0
 40
297.0
 41
1.9729729729
 42
50.0
 43
0.0
 44
0.0
 50
0.0
 51
0.0
 71
     0
 72
   100
 73
     1
 74
     3
 75
     0
 76
     0
 77
     0
 78
     0
281
     0
 65
     1
110
0.0
120
0.0
130
0.0
111
1.0
121
0.0
131
0.0
112
0.0
122
1.0
132
0.0
 79
     0
146
0.0
  0
ENDTAB
  0
TABLE
  2
LTYPE
  5
5
330
0
100
AcDbSymbolTable
 70
     2
  0
LTYPE
  5
14
330
5
100
AcDbSymbolTableRecord
100
AcDbLinetypeTableRecord
  2
ByBlock
 70
     0
  3

 72
    65
 73
     0
 40
0.0
  0
LTYPE
  5
15
330
5
100
AcDbSymbolTableRecord
100
AcDbLinetypeTableRecord
  2
ByLayer
 70
     0
  3

 72
    65
 73
     0
 40
0.0
  0
LTYPE
  5
16
330
5
100
AcDbSymbolTableRecord
100
AcDbLinetypeTableRecord
  2
Continuous
 70
     0
  3
Solid line
 72
    65
 73
     0
 40
0.0
  0
LTYPE
  5
60
330
5
100
AcDbSymbolTableRecord
100
AcDbLinetypeTableRecord
  2
CENTER2
 70
     0
  3
Center (.5x) ___ _ ___ _ ___ _ ___ _ ___ _ ___
 72
    65
 73
     4
 40
28.575
 49
19.05
 74
     4
 75
     0
340
0
 46
0.0
 50
0.0
 44
0.0
 45
0.0
 49
-3.175
 74
     4
 75
     0
340
0
 46
0.0
 50
0.0
 44
0.0
 45
0.0
 49
3.175
 74
     4
 75
     0
340
0
 46
0.0
 50
0.0
 44
0.0
 45
0.0
 49
-3.175
 74
     4
 75
     0
340
0
 46
0.0
 50
0.0
 44
0.0
 45
0.0
  0
ENDTAB
  0
TABLE
  2
LAYER
  5
2
330
0
100
AcDbSymbolTable
 70
    11
  0
LAYER
  5
10
330
2
100
AcDbSymbolTableRecord
100
AcDbLayerTableRecord
  2
0
 70
     0
 62
     7
  6
Continuous
370
    -3
390
F
  0
LAYER
  5
5D
330
2
100
AcDbSymbolTableRecord
100
AcDbLayerTableRecord
  2
Default
 70
     0
 62
     7
  6
Continuous
370
    -3
390
F
  0
LAYER
  5
77
330
2
100
AcDbSymbolTableRecord
100
AcDbLayerTableRecord
  2
$DDT_AUDIT_GENERATED_(77)
 70
     0
 62
     7
  6
Continuous
370
    -3
390
F
  0
LAYER
  5
7F
330
2
100
AcDbSymbolTableRecord
100
AcDbLayerTableRecord
  2
$DDT_AUDIT_GENERATED_(7F)
 70
     0
 62
     7
  6
Continuous
370
    -3
390
F
  0
LAYER
  5
8F
330
2
100
AcDbSymbolTableRecord
100
AcDbLayerTableRecord
  2
$DDT_AUDIT_GENERATED_(8F)
 70
     0
 62
     7
  6
Continuous
370
    -3
390
F
  0
LAYER
  5
95
330
2
100
AcDbSymbolTableRecord
100
AcDbLayerTableRecord
  2
$DDT_AUDIT_GENERATED_(95)
 70
     0
 62
     7
  6
Continuous
370
    -3
390
F
  0
LAYER
  5
9D
330
2
100
AcDbSymbolTableRecord
100
AcDbLayerTableRecord
  2
$DDT_AUDIT_GENERATED_(9D)
 70
     0
 62
     7
  6
Continuous
370
    -3
390
F
  0
LAYER
  5
AB
330
2
100
AcDbSymbolTableRecord
100
AcDbLayerTableRecord
  2
$DDT_AUDIT_GENERATED_(AB)
 70
     0
 62
     7
  6
Continuous
370
    -3
390
F
  0
LAYER
  5
B3
330
2
100
AcDbSymbolTableRecord
100
AcDbLayerTableRecord
  2
$DDT_AUDIT_GENERATED_(B3)
 70
     0
 62
     7
  6
Continuous
370
    -3
390
F
  0
LAYER
  5
BC
330
2
100
AcDbSymbolTableRecord
100
AcDbLayerTableRecord
  2
$DDT_AUDIT_GENERATED_(BC)
 70
     0
 62
     7
  6
Continuous
370
    -3
390
F
  0
LAYER
  5
C0
330
2
100
AcDbSymbolTableRecord
100
AcDbLayerTableRecord
  2
$DDT_AUDIT_GENERATED_(C0)
 70
     0
 62
     7
  6
Continuous
370
    -3
390
F
  0
ENDTAB
  0
TABLE
  2
STYLE
  5
3
330
0
100
AcDbSymbolTable
 70
     2
  0
STYLE
  5
11
330
3
100
AcDbSymbolTableRecord
100
AcDbTextStyleTableRecord
  2
Standard
 70
     0
 40
0.0
 41
1.0
 50
0.0
 71
     0
 42
2.5
  3
txt
  4

  0
STYLE
  5
385
330
3
100
AcDbSymbolTableRecord
100
AcDbTextStyleTableRecord
  2
SEACAD_seiso_ttf
 70
     0
 40
0.0
 41
1.0
 50
0.0
 71
     0
 42
0.2
  3
seiso.ttf
  4

  0
ENDTAB
  0
TABLE
  2
VIEW
  5
6
330
0
100
AcDbSymbolTable
 70
     0
  0
ENDTAB
  0
TABLE
  2
UCS
  5
7
330
0
100
AcDbSymbolTable
 70
     0
  0
ENDTAB
  0
TABLE
  2
APPID
  5
9
330
0
100
AcDbSymbolTable
 70
     1
  0
APPID
  5
12
330
9
100
AcDbSymbolTableRecord
100
AcDbRegAppTableRecord
  2
ACAD
 70
     0
  0
ENDTAB
  0
TABLE
  2
DIMSTYLE
  5
A
330
0
100
AcDbSymbolTable
 70
     1
100
AcDbDimStyleTable
  0
DIMSTYLE
105
27
330
A
100
AcDbSymbolTableRecord
100
AcDbDimStyleTableRecord
  2
ISO-25
 70
     0
 41
2.5
 42
0.625
 43
3.75
 44
1.25
 73
     0
 74
     0
 77
     1
 78
     8
140
2.5
141
2.5
143
0.0393700787
147
0.625
171
     3
172
     1
271
     2
272
     2
274
     3
278
    44
283
     0
284
     8
340
11
  0
ENDTAB
  0
TABLE
  2
BLOCK_RECORD
  5
1
330
0
100
AcDbSymbolTable
 70
     7
  0
BLOCK_RECORD
  5
1F
330
1
100
AcDbSymbolTableRecord
100
AcDbBlockTableRecord
  2
*Model_Space
340
22
  0
BLOCK_RECORD
  5
1B
330
1
100
AcDbSymbolTableRecord
100
AcDbBlockTableRecord
  2
*Paper_Space
340
1E
  0
BLOCK_RECORD
  5
5E
330
1
100
AcDbSymbolTableRecord
100
AcDbBlockTableRecord
  2
SEANNOT_GROUP
340
0
102
{BLKREFS
331
5F
102
}
  0
BLOCK_RECORD
  5
65
330
1
100
AcDbSymbolTableRecord
100
AcDbBlockTableRecord
  2
SEANNOT_GROUP1
340
0
102
{BLKREFS
331
66
102
}
  0
BLOCK_RECORD
  5
6B
330
1
100
AcDbSymbolTableRecord
100
AcDbBlockTableRecord
  2
SEANNOT_GROUP2
340
0
102
{BLKREFS
331
6C
102
}
  0
BLOCK_RECORD
  5
75
330
1
100
AcDbSymbolTableRecord
100
AcDbBlockTableRecord
  2
SE
340
0
102
{BLKREFS
331
76
102
}
  0
BLOCK_RECORD
  5
DD
330
1
100
AcDbSymbolTableRecord
100
AcDbBlockTableRecord
  2
SE1
340
0
102
{BLKREFS
331
DE
102
}
  0
BLOCK_RECORD
  5
34C
330
1
100
AcDbSymbolTableRecord
100
AcDbBlockTableRecord
  2
SE2
340
0
102
{BLKREFS
331
34D
102
}
  0
ENDTAB
  0
ENDSEC
  0
SECTION
  2
BLOCKS
  0
BLOCK
  5
20
330
1F
100
AcDbEntity
  8
0
100
AcDbBlockBegin
  2
*Model_Space
 70
     0
 10
0.0
 20
0.0
 30
0.0
  3
*Model_Space
  1

  0
ENDBLK
  5
21
330
1F
100
AcDbEntity
  8
0
100
AcDbBlockEnd
  0
BLOCK
  5
1C
330
1B
100
AcDbEntity
 67
     1
  8
0
100
AcDbBlockBegin
  2
*Paper_Space
 70
     0
 10
0.0
 20
0.0
 30
0.0
  3
*Paper_Space
  1

  0
ENDBLK
  5
1D
330
1B
100
AcDbEntity
 67
     1
  8
0
100
AcDbBlockEnd
  0
BLOCK
  5
63
330
5E
100
AcDbEntity
  8
0
100
AcDbBlockBegin
  2
SEANNOT_GROUP
 70
     0
 10
0.0
 20
0.0
 30
0.0
  3
SEANNOT_GROUP
  1

  0
LINE
  5
61
330
5E
100
AcDbEntity
  8
Default
  6
CENTER2
 62
     7
100
AcDbLine
 10
159.1497567846
 20
412.5276945217
 30
0.0
 11
119.1497576787
 21
412.5276945217
 31
0.0
  0
LINE
  5
62
330
5E
100
AcDbEntity
  8
Default
  6
CENTER2
 62
     7
100
AcDbLine
 10
139.1497572316
 20
432.5276940746
 30
0.0
 11
139.1497572316
 21
392.5276949687
 31
0.0
  0
ENDBLK
  5
64
330
5E
100
AcDbEntity
  8
0
100
AcDbBlockEnd
  0
BLOCK
  5
69
330
65
100
AcDbEntity
  8
0
100
AcDbBlockBegin
  2
SEANNOT_GROUP1
 70
     0
 10
0.0
 20
0.0
 30
0.0
  3
SEANNOT_GROUP1
  1

  0
LINE
  5
67
330
65
100
AcDbEntity
  8
Default
  6
CENTER2
 62
     7
100
AcDbLine
 10
382.5664936055
 20
412.5276945217
 30
0.0
 11
342.5664944995
 21
412.5276945217
 31
0.0
  0
LINE
  5
68
330
65
100
AcDbEntity
  8
Default
  6
CENTER2
 62
     7
100
AcDbLine
 10
362.5664940525
 20
432.5276940746
 30
0.0
 11
362.5664940525
 21
392.5276949687
 31
0.0
  0
ENDBLK
  5
6A
330
65
100
AcDbEntity
  8
0
100
AcDbBlockEnd
  0
BLOCK
  5
73
330
6B
100
AcDbEntity
  8
0
100
AcDbBlockBegin
  2
SEANNOT_GROUP2
 70
     0
 10
0.0
 20
0.0
 30
0.0
  3
SEANNOT_GROUP2
  1

  0
LINE
  5
6D
330
6B
100
AcDbEntity
  8
Default
  6
CENTER2
 62
     7
100
AcDbLine
 10
159.1497567846
 20
313.3975164833
 30
0.0
 11
119.1497576787
 21
313.3975164833
 31
0.0
  0
LINE
  5
6E
330
6B
100
AcDbEntity
  8
Default
  6
CENTER2
 62
     7
100
AcDbLine
 10
139.1497572316
 20
333.3975160363
 30
0.0
 11
139.1497572316
 21
293.3975169304
 31
0.0
  0
LINE
  5
6F
330
6B
100
AcDbEntity
  8
Default
  6
CENTER2
 62
     7
100
AcDbLine
 10
164.1497566728
 20
313.3975164833
 30
0.0
 11
171.6402315432
 21
313.3975164833
 31
0.0
  0
LINE
  5
70
330
6B
100
AcDbEntity
  8
Default
  6
CENTER2
 62
     7
100
AcDbLine
 10
139.1497572316
 20
338.3975159245
 30
0.0
 11
139.1497572316
 21
345.8879907949
 31
0.0
  0
LINE
  5
71
330
6B
100
AcDbEntity
  8
Default
  6
CENTER2
 62
     7
100
AcDbLine
 10
114.1497577904
 20
313.3975164833
 30
0.0
 11
106.65928292
 21
313.3975164833
 31
0.0
  0
LINE
  5
72
330
6B
100
AcDbEntity
  8
Default
  6
CENTER2
 62
     7
100
AcDbLine
 10
139.1497572316
 20
288.3975170421
 30
0.0
 11
139.1497572316
 21
280.9070421717
 31
0.0
  0
ENDBLK
  5
74
330
6B
100
AcDbEntity
  8
0
100
AcDbBlockEnd
  0
BLOCK
  5
DB
330
75
100
AcDbEntity
  8
0
100
AcDbBlockBegin
  2
SE
 70
     0
 10
0.0
 20
0.0
 30
0.0
  3
SE
  1

  0
LINE
  5
78
330
75
100
AcDbEntity
  8
$DDT_AUDIT_GENERATED_(77)
  6
Continuous
 62
     7
100
AcDbLine
 10
391.5664940525
 20
480.5276945217
 30
0.0
 11
333.5664940525
 21
480.5276945217
 31
0.0
  0
LINE
  5
79
330
75
100
AcDbEntity
  8
$DDT_AUDIT_GENERATED_(77)
  6
Continuous
 62
     7
100
AcDbLine
 10
391.5664940525
 20
412.5276945217
 30
0.0
 11
333.5664940525
 21
412.5276945217
 31
0.0
  0
ARC
  5
7A
330
75
100
AcDbEntity
  8
$DDT_AUDIT_GENERATED_(77)
  6
Continuous
 62
     7
100
AcDbCircle
 10
304.6329079012
 20
473.7276945218
 30
0.0
 40
29.00262759774684
100
AcDbArc
 50
356.0457869831
 51
3.9542132731
  0
LINE
  5
7B
330
75
100
AcDbEntity
  8
$DDT_AUDIT_GENERATED_(77)
  6
Continuous
 62
     7
100
AcDbLine
 10
391.5664940525
 20
412.5276945217
 30
0.0
 11
391.5664940525
 21
442.3052952349
 31
0.0
  0
LINE
  5
7C
330
75
100
AcDbEntity
  8
$DDT_AUDIT_GENERATED_(77)
  6
Continuous
 62
     7
100
AcDbLine
 10
391.5664940525
 20
464.2856005102
 30
0.0
 11
391.5664940525
 21
480.5276945217
 31
0.0
  0
LINE
  5
7D
330
75
100
AcDbEntity
  8
$DDT_AUDIT_GENERATED_(77)
  6
Continuous
 62
     7
100
AcDbLine
 10
333.5664940525
 20
471.7523483506
 30
0.0
 11
333.5664940525
 21
412.5276945217
 31
0.0
  0
LINE
  5
7E
330
75
100
AcDbEntity
  8
$DDT_AUDIT_GENERATED_(77)
  6
Continuous
 62
     7
100
AcDbLine
 10
333.5664940525
 20
480.5276945217
 30
0.0
 11
333.5664940525
 21
475.7276945217
 31
0.0
  0
ARC
  5
80
330
75
100
AcDbEntity
  8
$DDT_AUDIT_GENERATED_(7F)
  6
Continuous
 62
     7
100
AcDbCircle
 10
597.3156422305
 20
454.9688403856
 30
0.0
 40
98.50106207840584
100
AcDbArc
 50
97.3789387552
 51
97.4704745851
  0
SPLINE
  5
81
330
75
100
AcDbEntity
  8
$DDT_AUDIT_GENERATED_(7F)
  6
Continuous
 62
     7
100
AcDbSpline
210
0.0
220
0.0
230
1.0
 70
     8
 71
     3
 72
    16
 73
    12
 74
     0
 42
0.0000000000495321
 43
0.0000000001
 40
0.0
 40
0.0
 40
0.0
 40
0.0
 40
0.1249999999999999
 40
0.1249999999999999
 40
0.2499999999999999
 40
0.2499999999999999
 40
0.4999999999999998
 40
0.4999999999999998
 40
0.7499999999999999
 40
0.7499999999999999
 40
1.0
 40
1.0
 40
1.0
 40
1.0
 10
569.6728929475247
 20
538.1035393430927
 30
0.0
 10
561.4345332438984
 20
536.3366132080714
 30
0.0
 10
553.2802483080119
 20
534.0902379887993
 30
0.0
 10
537.2542161661354
 20
528.853016784593
 30
0.0
 10
529.3897131780493
 20
525.8679867610845
 30
0.0
 10
506.1479572668927
 20
516.0450327440295
 30
0.0
 10
491.0909176145695
 20
508.3308101266916
 30
0.0
 10
461.9001707720403
 20
491.6785945436619
 30
0.0
 10
447.7131765015634
 20
482.7135475119557
 30
0.0
 10
419.834459385293
 20
464.0085648501289
 30
0.0
 10
406.1453340045832
 20
454.2645652946982
 30
0.0
 10
392.6078851518184
 20
444.2832566471329
 30
0.0
  0
SPLINE
  5
82
330
75
100
AcDbEntity
  8
$DDT_AUDIT_GENERATED_(7F)
  6
Continuous
 62
     7
100
AcDbSpline
210
0.0
220
0.0
230
1.0
 70
     8
 71
     3
 72
     8
 73
     4
 74
     0
 42
0.0000000007471604
 43
0.0000000001
 40
0.0
 40
0.0
 40
0.0
 40
0.0
 40
1.0
 40
1.0
 40
1.0
 40
1.0
 10
584.3506005990967
 20
553.6216079626413
 30
0.0
 10
588.7736555989248
 20
554.2039142059577
 30
0.0
 10
593.2289343495096
 20
554.4842097909828
 30
0.0
 10
597.6876078932405
 20
554.469168359249
 30
0.0
  0
SPLINE
  5
83
330
75
100
AcDbEntity
  8
$DDT_AUDIT_GENERATED_(7F)
  6
Continuous
 62
     7
100
AcDbSpline
210
0.0
220
0.0
230
1.0
 70
     8
 71
     3
 72
    20
 73
    16
 74
     0
 42
0.0000000027779355
 43
0.0000000001
 40
0.0
 40
0.0
 40
0.0
 40
0.0
 40
0.2500000000000013
 40
0.2500000000000013
 40
0.3750000000000011
 40
0.3750000000000011
 40
0.5000000000000009
 40
0.5000000000000009
 40
0.6250000000000007
 40
0.6250000000000007
 40
0.7500000000000004
 40
0.7500000000000004
 40
0.8750000000000002
 40
0.8750000000000002
 40
1.0
 40
1.0
 40
1.0
 40
1.0
 10
600.1577861945302
 20
552.2954980532281
 30
0.0
 10
600.1183717554405
 20
552.5948811800895
 30
0.0
 10
600.0265023227295
 20
552.8805106207467
 30
0.0
 10
599.8141446620604
 20
553.2785786125172
 30
0.0
 10
599.7323994331825
 20
553.4032143632799
 30
0.0
 10
599.5476208429807
 20
553.6368420721192
 30
0.0
 10
599.4434450768232
 20
553.7467749803434
 30
0.0
 10
599.2183119421585
 20
553.9449207988935
 30
0.0
 10
599.0981352199507
 20
554.0328624898168
 30
0.0
 10
598.8428260637704
 20
554.1868704570393
 30
0.0
 10
598.7062153326364
 20
554.2533815469843
 30
0.0
 10
598.4264992135534
 20
554.3595557243675
 30
0.0
 10
598.2831695287172
 20
554.3997133300672
 30
0.0
 10
597.9896079994169
 20
554.4543226118404
 30
0.0
 10
597.8385902735558
 20
554.4686590169192
 30
0.0
 10
597.6876078932405
 20
554.469168359249
 30
0.0
  0
SPLINE
  5
84
330
75
100
AcDbEntity
  8
$DDT_AUDIT_GENERATED_(7F)
  6
Continuous
 62
     7
100
AcDbSpline
210
0.0
220
0.0
230
1.0
 70
     8
 71
     3
 72
    14
 73
    10
 74
     0
 42
0.0000000020003528
 43
0.0000000001
 40
0.0
 40
0.0
 40
0.0
 40
0.0
 40
0.25
 40
0.25
 40
0.5
 40
0.5
 40
0.75
 40
0.75
 40
1.0
 40
1.0
 40
1.0
 40
1.0
 10
388.365270221496
 20
460.4970093301006
 30
0.0
 10
388.8568047862909
 20
461.0691153600073
 30
0.0
 10
389.3020486693384
 20
461.5917731584099
 30
0.0
 10
390.0908618263391
 20
462.5227386455201
 30
0.0
 10
390.4345540492735
 20
462.9311946036477
 30
0.0
 10
391.0037265849713
 20
463.6100206142332
 30
0.0
 10
391.2212207673863
 20
463.8708143331936
 30
0.0
 10
391.5149065759384
 20
464.2233929791909
 30
0.0
 10
391.5914962256145
 20
464.3156454914243
 30
0.0
 10
391.5914940524414
 20
464.315648673909
 30
0.0
  0
ARC
  5
85
330
75
100
AcDbEntity
  8
$DDT_AUDIT_GENERATED_(7F)
  6
Continuous
 62
     7
100
AcDbCircle
 10
398.0220284663
 20
454.0960971286
 30
0.0
 40
11.58553653521474
100
AcDbArc
 50
146.4618809068
 51
191.5856804437
  0
ARC
  5
86
330
75
100
AcDbEntity
  8
$DDT_AUDIT_GENERATED_(7F)
  6
Continuous
 62
     7
100
AcDbCircle
 10
416.9459962015
 20
461.4244709095
 30
0.0
 40
31.77583415652771
100
AcDbArc
 50
197.6890771077
 51
217.0682801835
  0
SPLINE
  5
87
330
75
100
AcDbEntity
  8
$DDT_AUDIT_GENERATED_(7F)
  6
Continuous
 62
     7
100
AcDbSpline
210
0.0
220
0.0
230
1.0
 70
     8
 71
     3
 72
    18
 73
    14
 74
     0
 42
0.0000000000471937
 43
0.0000000001
 40
0.0
 40
0.0
 40
0.0
 40
0.0
 40
0.2500000000000001
 40
0.2500000000000001
 40
0.5000000000000001
 40
0.5000000000000001
 40
0.6250000000000001
 40
0.6250000000000001
 40
0.7500000000000002
 40
0.7500000000000002
 40
0.8750000000000001
 40
0.8750000000000001
 40
1.0
 40
1.0
 40
1.0
 40
1.0
 10
395.5561522778612
 20
462.2896239251356
 30
0.0
 10
409.8675660124704
 20
472.6356623223404
 30
0.0
 10
424.3713603666669
 20
482.7043703917298
 30
0.0
 10
454.0432785291287
 20
501.8841084355451
 30
0.0
 10
469.1713503898328
 20
510.9743147967678
 30
0.0
 10
492.5747954328527
 20
523.3531850498863
 30
0.0
 10
500.5076563300947
 20
527.2727277185452
 30
0.0
 10
516.6012736892144
 20
534.5326438003116
 30
0.0
 10
524.7658393929958
 20
537.8760214702338
 30
0.0
 10
541.3902205514975
 20
543.8442397740962
 30
0.0
 10
549.8463932724535
 20
546.4644445028035
 30
0.0
 10
566.9306402537728
 20
550.7719155250213
 30
0.0
 10
575.5786832131392
 20
552.4667588941753
 30
0.0
 10
584.3506005990967
 20
553.6216079626413
 30
0.0
  0
ARC
  5
88
330
75
100
AcDbEntity
  8
$DDT_AUDIT_GENERATED_(7F)
  6
Continuous
 62
     7
100
AcDbCircle
 10
394.0914940526
 20
464.3156486741
 30
0.0
 40
2.500000000028956
100
AcDbArc
 50
180.0000000036
 51
305.8640009369
  0
ARC
  5
89
330
75
100
AcDbEntity
  8
$DDT_AUDIT_GENERATED_(7F)
  6
Continuous
 62
     7
100
AcDbCircle
 10
394.0914940519
 20
442.2710676318
 30
0.0
 40
2.499999999403784
100
AcDbArc
 50
126.401756374
 51
180.0000000009
  0
LINE
  5
8A
330
75
100
AcDbEntity
  8
$DDT_AUDIT_GENERATED_(7F)
  6
Continuous
 62
     7
100
AcDbLine
 10
601.6002466998
 20
541.3389219965
 30
0.0
 11
600.1577860989
 21
552.2954980405
 31
0.0
  0
SPLINE
  5
8B
330
75
100
AcDbEntity
  8
$DDT_AUDIT_GENERATED_(7F)
  6
Continuous
 62
     7
100
AcDbSpline
210
0.0
220
0.0
230
1.0
 70
     8
 71
     3
 72
    14
 73
    10
 74
     0
 42
0.0000000061303083
 43
0.0000000001
 40
0.0
 40
0.0
 40
0.0
 40
0.0
 40
0.2500000000000011
 40
0.2500000000000011
 40
0.5000000000000007
 40
0.5000000000000007
 40
0.7500000000000003
 40
0.7500000000000003
 40
1.0
 40
1.0
 40
1.0
 40
1.0
 10
570.8695323260977
 20
537.2869067703949
 30
0.0
 10
570.8476772374515
 20
537.420769263198
 30
0.0
 10
570.7985110439798
 20
537.5491481165313
 30
0.0
 10
570.6538669915192
 20
537.7763787274171
 30
0.0
 10
570.5575473467611
 20
537.8757718906129
 30
0.0
 10
570.335661579024
 20
538.0273207295593
 30
0.0
 10
570.2080009988741
 20
538.0808871168321
 30
0.0
 10
569.9438185807896
 20
538.1329381185759
 30
0.0
 10
569.806147035728
 20
538.1321190773499
 30
0.0
 10
569.6728929475247
 20
538.1035393430927
 30
0.0
  0
LINE
  5
8C
330
75
100
AcDbEntity
  8
$DDT_AUDIT_GENERATED_(7F)
  6
Continuous
 62
     7
100
AcDbLine
 10
601.4280629658
 20
541.1145277856
 30
0.0
 11
571.1280607701
 21
537.1254568197
 31
0.0
  0
ARC
  5
8D
330
75
100
AcDbEntity
  8
$DDT_AUDIT_GENERATED_(7F)
  6
Continuous
 62
     7
100
AcDbCircle
 10
571.0669189053
 20
537.3191331326
 30
0.0
 40
0.1999999999969629
100
AcDbArc
 50
189.2725966801
 51
277.4999999998
  0
ARC
  5
8E
330
75
100
AcDbEntity
  8
$DDT_AUDIT_GENERATED_(7F)
  6
Continuous
 62
     7
100
AcDbCircle
 10
601.4019577273
 20
541.3128167581
 30
0.0
 40
0.2000000001409664
100
AcDbArc
 50
277.4999999991
 51
7.4999999859
  0
LINE
  5
90
330
75
100
AcDbEntity
  8
$DDT_AUDIT_GENERATED_(8F)
  6
Continuous
 62
     7
100
AcDbLine
 10
598.2756401264
 20
539.7917373808
 30
0.0
 11
574.4809634534
 21
536.6591087676
 31
0.0
  0
LINE
  5
91
330
75
100
AcDbEntity
  8
$DDT_AUDIT_GENERATED_(8F)
  6
Continuous
 62
     7
100
AcDbLine
 10
571.6370165117
 20
537.1924621143
 30
0.0
 11
574.4809634534
 21
536.6591087676
 31
0.0
  0
LINE
  5
92
330
75
100
AcDbEntity
  8
$DDT_AUDIT_GENERATED_(8F)
  6
Continuous
 62
     7
100
AcDbLine
 10
598.2756401264
 20
539.7917373808
 30
0.0
 11
600.8846399222
 21
541.0429847847
 31
0.0
  0
LINE
  5
93
330
75
100
AcDbEntity
  8
$DDT_AUDIT_GENERATED_(8F)
  6
Continuous
 62
     7
100
AcDbLine
 10
596.7545914443
 20
539.0871730426
 30
0.0
 11
596.6893283482
 21
539.5828954733
 31
0.0
  0
LINE
  5
94
330
75
100
AcDbEntity
  8
$DDT_AUDIT_GENERATED_(8F)
  6
Continuous
 62
     7
100
AcDbLine
 10
576.0672752316
 20
536.8679506752
 30
0.0
 11
576.1325383278
 21
536.3722282445
 31
0.0
  0
LINE
  5
96
330
75
100
AcDbEntity
  8
$DDT_AUDIT_GENERATED_(95)
  6
Continuous
 62
     7
100
AcDbLine
 10
390.9664940525
 20
481.1276945217
 30
0.0
 11
334.1664940525
 21
481.1276945217
 31
0.0
  0
LINE
  5
97
330
75
100
AcDbEntity
  8
$DDT_AUDIT_GENERATED_(95)
  6
Continuous
 62
     7
100
AcDbLine
 10
391.0664940525
 20
480.6276945217
 30
0.0
 11
391.0664940525
 21
481.0276945217
 31
0.0
  0
LINE
  5
98
330
75
100
AcDbEntity
  8
$DDT_AUDIT_GENERATED_(95)
  6
Continuous
 62
     7
100
AcDbLine
 10
334.0664940525
 20
481.0276945217
 30
0.0
 11
334.0664940525
 21
480.6276945217
 31
0.0
  0
ARC
  5
99
330
75
100
AcDbEntity
  8
$DDT_AUDIT_GENERATED_(95)
  6
Continuous
 62
     7
100
AcDbCircle
 10
334.1664940525
 20
481.0276945217
 30
0.0
 40
0.1000000000000029
100
AcDbArc
 50
90.0
 51
180.0
  0
ARC
  5
9A
330
75
100
AcDbEntity
  8
$DDT_AUDIT_GENERATED_(95)
  6
Continuous
 62
     7
100
AcDbCircle
 10
390.9664940525
 20
481.0276945217
 30
0.0
 40
0.0999999999999994
100
AcDbArc
 50
0.0
 51
90.0
  0
ARC
  5
9B
330
75
100
AcDbEntity
  8
$DDT_AUDIT_GENERATED_(95)
  6
Continuous
 62
     7
100
AcDbCircle
 10
390.9664940525
 20
480.6276945217
 30
0.0
 40
0.1000000000000029
100
AcDbArc
 50
270.0
 51
0.0
  0
ARC
  5
9C
330
75
100
AcDbEntity
  8
$DDT_AUDIT_GENERATED_(95)
  6
Continuous
 62
     7
100
AcDbCircle
 10
334.1664940525
 20
480.6276945217
 30
0.0
 40
0.0999999999999994
100
AcDbArc
 50
180.0
 51
270.0
  0
LINE
  5
9E
330
75
100
AcDbEntity
  8
$DDT_AUDIT_GENERATED_(9D)
  6
Continuous
 62
     7
100
AcDbLine
 10
390.9671226782
 20
481.1277598301
 30
0.0
 11
334.1658654268
 21
481.1277598301
 31
0.0
  0
LINE
  5
9F
330
75
100
AcDbEntity
  8
$DDT_AUDIT_GENERATED_(9D)
  6
Continuous
 62
     7
100
AcDbLine
 10
391.5569683641
 20
481.6176055159
 30
0.0
 11
333.5760197409
 21
481.6176055159
 31
0.0
  0
LINE
  5
A0
330
75
100
AcDbEntity
  8
$DDT_AUDIT_GENERATED_(9D)
  6
Continuous
 62
     7
100
AcDbLine
 10
388.3905445384
 20
524.6243817502
 30
0.0
 11
336.7424435665
 21
524.6243817502
 31
0.0
  0
LINE
  5
A1
330
75
100
AcDbEntity
  8
$DDT_AUDIT_GENERATED_(9D)
  6
Continuous
 62
     7
100
AcDbLine
 10
333.6760197409
 20
481.6176055159
 30
0.0
 11
334.1658654268
 21
481.1277598301
 31
0.0
  0
LINE
  5
A2
330
75
100
AcDbEntity
  8
$DDT_AUDIT_GENERATED_(9D)
  6
Continuous
 62
     7
100
AcDbLine
 10
390.9671226782
 20
481.1277598301
 30
0.0
 11
391.4569683641
 21
481.6176055159
 31
0.0
  0
ARC
  5
A3
330
75
100
AcDbEntity
  8
$DDT_AUDIT_GENERATED_(9D)
  6
Continuous
 62
     7
100
AcDbCircle
 10
1026.0869814977
 20
467.0170896022
 30
0.0
 40
692.6648592344261
100
AcDbArc
 50
175.3055434556
 51
178.7921865962
  0
ARC
  5
A4
330
75
100
AcDbEntity
  8
$DDT_AUDIT_GENERATED_(9D)
  6
Continuous
 62
     7
100
AcDbCircle
 10
-300.9539933927
 20
467.0170896022
 30
0.0
 40
692.664859234426
100
AcDbArc
 50
1.2078134038
 51
4.6944565444
  0
ARC
  5
A5
330
75
100
AcDbEntity
  8
$DDT_AUDIT_GENERATED_(9D)
  6
Continuous
 62
     7
100
AcDbCircle
 10
388.3905445385
 20
523.6243817502
 30
0.0
 40
0.9999999999376187
100
AcDbArc
 50
4.6944565446
 51
90.0000000009
  0
ARC
  5
A6
330
75
100
AcDbEntity
  8
$DDT_AUDIT_GENERATED_(9D)
  6
Continuous
 62
     7
100
AcDbCircle
 10
336.7424435665
 20
523.6243817502
 30
0.0
 40
0.9999999999430464
100
AcDbArc
 50
89.9999999991
 51
175.3055434554
  0
ARC
  5
A7
330
75
100
AcDbEntity
  8
$DDT_AUDIT_GENERATED_(9D)
  6
Continuous
 62
     7
100
AcDbCircle
 10
387.9460487883
 20
525.1243817501
 30
0.0
 40
0.4999999999933252
100
AcDbArc
 50
198.709613237
 51
270.0000000009
  0
ARC
  5
A8
330
75
100
AcDbEntity
  8
$DDT_AUDIT_GENERATED_(9D)
  6
Continuous
 62
     7
100
AcDbCircle
 10
337.1869393167
 20
525.1243817501
 30
0.0
 40
0.4999999999933351
100
AcDbArc
 50
269.9999999991
 51
341.290386763
  0
ARC
  5
A9
330
75
100
AcDbEntity
  8
$DDT_AUDIT_GENERATED_(9D)
  6
Continuous
 62
     7
100
AcDbCircle
 10
362.5707327427
 20
516.5276945217
 30
0.0
 40
26.30000000000001
100
AcDbArc
 50
126.4384326335
 51
161.290386763
  0
ARC
  5
AA
330
75
100
AcDbEntity
  8
$DDT_AUDIT_GENERATED_(9D)
  6
Continuous
 62
     7
100
AcDbCircle
 10
362.5622553623
 20
516.5276945217
 30
0.0
 40
26.3
100
AcDbArc
 50
18.709613237
 51
22.5398888074
  0
SPLINE
  5
AC
330
75
100
AcDbEntity
  8
$DDT_AUDIT_GENERATED_(AB)
  6
Continuous
 62
     7
100
AcDbSpline
210
0.0
220
0.0
230
1.0
 70
     8
 71
     3
 72
     8
 73
     4
 74
     0
 42
0.0000000010574705
 43
0.0000000001
 40
0.6219933642333618
 40
0.6219933642333618
 40
0.6219933642333618
 40
0.6219933642333618
 40
1.0
 40
1.0
 40
1.0
 40
1.0
 10
386.6554052385633
 20
539.2829048849834
 30
0.0
 10
387.054350156629
 20
538.1934828740782
 30
0.0
 10
387.4722797101452
 20
537.0733726712989
 30
0.0
 10
387.8914472292993
 20
535.9287911214442
 30
0.0
  0
ARC
  5
AD
330
75
100
AcDbEntity
  8
$DDT_AUDIT_GENERATED_(AB)
  6
Continuous
 62
     7
100
AcDbCircle
 10
428.2100374722
 20
554.9132218786
 30
0.0
 40
44.56452995765265
100
AcDbArc
 50
205.0707321821
 51
205.2138927298
  0
ARC
  5
AE
330
75
100
AcDbEntity
  8
$DDT_AUDIT_GENERATED_(AB)
  6
Continuous
 62
     7
100
AcDbCircle
 10
427.7301636152
 20
554.7429683565
 30
0.0
 40
44.05787770995708
100
AcDbArc
 50
205.1364380297
 51
205.2794274176
  0
LINE
  5
AF
330
75
100
AcDbEntity
  8
$DDT_AUDIT_GENERATED_(AB)
  6
Continuous
 62
     7
100
AcDbLine
 10
387.9856621771
 20
535.6715271733
 30
0.0
 11
387.8914472293
 21
535.9287911214
 31
0.0
  0
ARC
  5
B0
330
75
100
AcDbEntity
  8
$DDT_AUDIT_GENERATED_(AB)
  6
Continuous
 62
     7
100
AcDbCircle
 10
428.3049855915
 20
554.9074788146
 30
0.0
 40
44.672918822772
100
AcDbArc
 50
203.2029995776
 51
205.5053492269
  0
LINE
  5
B1
330
75
100
AcDbEntity
  8
$DDT_AUDIT_GENERATED_(AB)
  6
Continuous
 62
     7
100
AcDbLine
 10
387.7837507943
 20
535.7572334704
 30
0.0
 11
387.985662178
 21
535.6715271729
 31
0.0
  0
LINE
  5
B2
330
75
100
AcDbEntity
  8
$DDT_AUDIT_GENERATED_(AB)
  6
Continuous
 62
     7
100
AcDbLine
 10
387.9354987171
 20
535.7801233495
 30
0.0
 11
387.8472836685
 21
536.0265380849
 31
0.0
  0
LINE
  5
B4
330
75
100
AcDbEntity
  8
$DDT_AUDIT_GENERATED_(B3)
  6
Continuous
 62
     7
100
AcDbLine
 10
599.0726811982
 20
522.2456630185
 30
0.0
 11
578.2523391093
 21
519.5046129819
 31
0.0
  0
LINE
  5
B5
330
75
100
AcDbEntity
  8
$DDT_AUDIT_GENERATED_(B3)
  6
Continuous
 62
     7
100
AcDbLine
 10
575.1906657094
 20
536.2482283619
 30
0.0
 11
597.6964640626
 21
539.2111729252
 31
0.0
  0
ARC
  5
B6
330
75
100
AcDbEntity
  8
$DDT_AUDIT_GENERATED_(B3)
  6
Continuous
 62
     7
100
AcDbCircle
 10
593.3656410031
 20
527.2884491741
 30
0.0
 40
16.99999999999982
100
AcDbArc
 50
187.4999999998
 51
207.2499227955
  0
ARC
  5
B7
330
75
100
AcDbEntity
  8
$DDT_AUDIT_GENERATED_(B3)
  6
Continuous
 62
     7
100
AcDbCircle
 10
582.459747528
 20
525.8526610597
 30
0.0
 40
16.99999999999982
100
AcDbArc
 50
347.7500772042
 51
7.4999999998
  0
LINE
  5
B8
330
75
100
AcDbEntity
  8
$DDT_AUDIT_GENERATED_(B3)
  6
Continuous
 62
     7
100
AcDbLine
 10
599.3143101713
 20
528.0716063274
 30
0.0
 11
597.8647597207
 21
539.0820351248
 31
0.0
  0
LINE
  5
B9
330
75
100
AcDbEntity
  8
$DDT_AUDIT_GENERATED_(B3)
  6
Continuous
 62
     7
100
AcDbLine
 10
575.0615279091
 20
536.0799327039
 30
0.0
 11
576.5110783597
 21
525.0695039064
 31
0.0
  0
ARC
  5
BA
330
75
100
AcDbEntity
  8
$DDT_AUDIT_GENERATED_(B3)
  6
Continuous
 62
     7
100
AcDbCircle
 10
597.7160429915
 20
539.062456196
 30
0.0
 40
0.1500000000000227
100
AcDbArc
 50
7.4999999998
 51
97.4999999998
  0
ARC
  5
BB
330
75
100
AcDbEntity
  8
$DDT_AUDIT_GENERATED_(B3)
  6
Continuous
 62
     7
100
AcDbCircle
 10
575.2102446383
 20
536.0995116327
 30
0.0
 40
0.1499999999999952
100
AcDbArc
 50
97.4999999998
 51
187.4999999998
  0
LINE
  5
BD
330
75
100
AcDbEntity
  8
$DDT_AUDIT_GENERATED_(BC)
  6
Continuous
 62
     7
100
AcDbLine
 10
597.6442506926
 20
521.6037235425
 30
0.0
 11
579.7982431879
 21
519.2542520826
 31
0.0
  0
LINE
  5
BE
330
75
100
AcDbEntity
  8
$DDT_AUDIT_GENERATED_(BC)
  6
Continuous
 62
     7
100
AcDbLine
 10
597.6442506926
 20
521.6037235425
 30
0.0
 11
597.5855139061
 21
522.0498737301
 31
0.0
  0
LINE
  5
BF
330
75
100
AcDbEntity
  8
$DDT_AUDIT_GENERATED_(BC)
  6
Continuous
 62
     7
100
AcDbLine
 10
579.7395064014
 20
519.7004022702
 30
0.0
 11
579.7982431879
 21
519.2542520826
 31
0.0
  0
ARC
  5
C1
330
75
100
AcDbEntity
  8
$DDT_AUDIT_GENERATED_(C0)
  6
Continuous
 62
     7
100
AcDbCircle
 10
422.1592358571
 20
547.2986348353
 30
0.0
 40
36.24495330332865
100
AcDbArc
 50
185.0459763622
 51
197.6471071683
  0
LINE
  5
C2
330
75
100
AcDbEntity
  8
$DDT_AUDIT_GENERATED_(C0)
  6
Continuous
 62
     7
100
AcDbLine
 10
343.2104209531
 20
559.8280776346
 30
0.0
 11
339.3266639627
 21
542.6468220276
 31
0.0
  0
ARC
  5
C3
330
75
100
AcDbEntity
  8
$DDT_AUDIT_GENERATED_(C0)
  6
Continuous
 62
     7
100
AcDbCircle
 10
462.9090206504
 20
348.6966144902
 30
0.0
 40
219.4585517492571
100
AcDbArc
 50
96.5901709804
 51
96.6121872164
  0
LINE
  5
C4
330
75
100
AcDbEntity
  8
$DDT_AUDIT_GENERATED_(C0)
  6
Continuous
 62
     7
100
AcDbLine
 10
436.271105451
 20
566.5226610683
 30
0.0
 11
437.8964880937
 21
566.7251198536
 31
0.0
  0
SPLINE
  5
C5
330
75
100
AcDbEntity
  8
$DDT_AUDIT_GENERATED_(C0)
  6
Continuous
 62
     7
100
AcDbSpline
210
0.0
220
0.0
230
1.0
 70
     8
 71
     5
 72
    12
 73
     6
 74
     0
 42
0.0000000276291236
 43
0.0000000001
 40
0.8749443312515326
 40
0.8749443312515326
 40
0.8749443312515326
 40
0.8749443312515326
 40
0.8749443312515326
 40
0.8749443312515326
 40
1.0
 40
1.0
 40
1.0
 40
1.0
 40
1.0
 40
1.0
 10
437.8515627258694
 20
566.7199504400758
 30
0.0
 10
437.8693622521905
 20
566.7219998175609
 30
0.0
 10
437.8828939589247
 20
566.723556394578
 30
0.0
 10
437.8919769279112
 20
566.7246007408444
 30
0.0
 10
437.8965082225945
 20
566.7251218853728
 30
0.0
 10
437.8964880936635
 20
566.7251198535963
 30
0.0
  0
ARC
  5
C6
330
75
100
AcDbEntity
  8
$DDT_AUDIT_GENERATED_(C0)
  6
Continuous
 62
     7
100
AcDbCircle
 10
419.7776118574
 20
702.8348540827
 30
0.0
 40
137.3104272368937
100
AcDbArc
 50
282.7518037186
 51
285.2712356651
  0
ARC
  5
C7
330
75
100
AcDbEntity
  8
$DDT_AUDIT_GENERATED_(C0)
  6
Continuous
 62
     7
100
AcDbCircle
 10
455.8162217467
 20
570.8563824013
 30
0.0
 40
0.4999999999988018
100
AcDbArc
 50
284.7635958375
 51
11.8965932099
  0
SPLINE
  5
C8
330
75
100
AcDbEntity
  8
$DDT_AUDIT_GENERATED_(C0)
  6
Continuous
 62
     7
100
AcDbSpline
210
0.0
220
0.0
230
1.0
 70
     8
 71
     5
 72
    12
 73
     6
 74
     0
 42
0.0000000178978082
 43
0.0000000001
 40
0.0
 40
0.0
 40
0.0
 40
0.0
 40
0.0
 40
0.0
 40
1.0
 40
1.0
 40
1.0
 40
1.0
 40
1.0
 40
1.0
 10
359.0425974906576
 20
562.2312656456156
 30
0.0
 10
359.0108377860597
 20
562.2209082491438
 30
0.0
 10
358.9790851355876
 20
562.2104818958169
 30
0.0
 10
358.9727105957326
 20
562.1202378367705
 30
0.0
 10
358.9900607899235
 20
561.9202096351379
 30
0.0
 10
359.0074026681585
 20
561.7203075416758
 30
0.0
  0
ARC
  5
C9
330
75
100
AcDbEntity
  8
$DDT_AUDIT_GENERATED_(C0)
  6
Continuous
 62
     7
100
AcDbCircle
 10
354.8057872054
 20
697.4264750548
 30
0.0
 40
138.663183586375
100
AcDbArc
 50
273.2567616541
 51
281.942253772
  0
SPLINE
  5
CA
330
75
100
AcDbEntity
  8
$DDT_AUDIT_GENERATED_(C0)
  6
Continuous
 62
     7
100
AcDbSpline
210
0.0
220
0.0
230
1.0
 70
     8
 71
     5
 72
    12
 73
     6
 74
     0
 42
0.0000000008961144
 43
0.0000000001
 40
0.0
 40
0.0
 40
0.0
 40
0.0
 40
0.0
 40
0.0
 40
1.0
 40
1.0
 40
1.0
 40
1.0
 40
1.0
 40
1.0
 10
384.079767114306
 20
553.6525028707288
 30
0.0
 10
383.5581793631339
 20
556.1724406978406
 30
0.0
 10
383.150922898438
 20
558.1400003886906
 30
0.0
 10
384.4601164620029
 20
560.1610695512657
 30
0.0
 10
386.2694644269229
 20
560.3832311993236
 30
0.0
 10
388.5976664524675
 20
560.6690866489138
 30
0.0
  0
LINE
  5
CB
330
75
100
AcDbEntity
  8
$DDT_AUDIT_GENERATED_(C0)
  6
Continuous
 62
     7
100
AcDbLine
 10
363.5194619585
 20
527.3319415276
 30
0.0
 11
362.5375820612
 21
527.9454881827
 31
0.0
  0
LINE
  5
CC
330
75
100
AcDbEntity
  8
$DDT_AUDIT_GENERATED_(C0)
  6
Continuous
 62
     7
100
AcDbLine
 10
362.5375820612
 20
527.9454881827
 30
0.0
 11
339.4380318308
 21
542.3796891645
 31
0.0
  0
ARC
  5
CD
330
75
100
AcDbEntity
  8
$DDT_AUDIT_GENERATED_(C0)
  6
Continuous
 62
     7
100
AcDbCircle
 10
366.1690582796
 20
531.5721820084
 30
0.0
 40
4.999999999999668
100
AcDbArc
 50
238.0
 51
270.0
  0
LINE
  5
CE
330
75
100
AcDbEntity
  8
$DDT_AUDIT_GENERATED_(C0)
  6
Continuous
 62
     7
100
AcDbLine
 10
366.1690582796
 20
526.5721820084
 30
0.0
 11
389.3778240252
 21
526.5721820084
 31
0.0
  0
ARC
  5
CF
330
75
100
AcDbEntity
  8
$DDT_AUDIT_GENERATED_(C0)
  6
Continuous
 62
     7
100
AcDbCircle
 10
339.5705116469
 20
542.5917011886
 30
0.0
 40
0.2499999999812219
100
AcDbArc
 50
167.2625827832
 51
238.0000000041
  0
LINE
  5
D0
330
75
100
AcDbEntity
  8
$DDT_AUDIT_GENERATED_(C0)
  6
Continuous
 62
     7
100
AcDbLine
 10
386.0547488578
 20
544.1107056733
 30
0.0
 11
384.0797549228
 21
553.6524994729
 31
0.0
  0
LINE
  5
D1
330
75
100
AcDbEntity
  8
$DDT_AUDIT_GENERATED_(C0)
  6
Continuous
 62
     7
100
AcDbLine
 10
389.6185336894
 20
526.8926683447
 30
0.0
 11
387.7837507943
 21
535.7572334704
 31
0.0
  0
ARC
  5
D2
330
75
100
AcDbEntity
  8
$DDT_AUDIT_GENERATED_(C0)
  6
Continuous
 62
     7
100
AcDbCircle
 10
419.5218739091
 20
704.1068472745
 30
0.0
 40
138.5996180085517
100
AcDbArc
 50
277.0342878623
 51
277.5072752896
  0
LINE
  5
D3
330
75
100
AcDbEntity
  8
$DDT_AUDIT_GENERATED_(C0)
  6
Continuous
 62
     7
100
AcDbLine
 10
436.0525150824
 20
566.4958106428
 30
0.0
 11
436.2712112287
 21
566.5230044315
 31
0.0
  0
LINE
  5
D4
330
75
100
AcDbEntity
  8
$DDT_AUDIT_GENERATED_(C0)
  6
Continuous
 62
     7
100
AcDbLine
 10
388.7083426535
 20
560.6826687347
 30
0.0
 11
436.1604192743
 21
566.5091569926
 31
0.0
  0
ARC
  5
D5
330
75
100
AcDbEntity
  8
$DDT_AUDIT_GENERATED_(C0)
  6
Continuous
 62
     7
100
AcDbCircle
 10
419.9834402205
 20
701.0085054865
 30
0.0
 40
135.4720842925909
100
AcDbArc
 50
277.5791071463
 51
284.1256631132
  0
LINE
  5
D6
330
75
100
AcDbEntity
  8
$DDT_AUDIT_GENERATED_(C0)
  6
Continuous
 62
     7
100
AcDbLine
 10
456.3088573054
 20
570.9434354579
 30
0.0
 11
455.7396179359
 21
573.6454660286
 31
0.0
  0
SPLINE
  5
D7
330
75
100
AcDbEntity
  8
$DDT_AUDIT_GENERATED_(C0)
  6
Continuous
 62
     7
100
AcDbSpline
210
0.0
220
0.0
230
1.0
 70
     8
 71
     3
 72
    13
 73
     9
 74
     0
 42
0.0000000112960988
 43
0.0000000001
 40
0.0
 40
0.0
 40
0.0
 40
0.0
 40
0.2687036235641796
 40
0.388451168217267
 40
0.5000515232580663
 40
0.6116331513894687
 40
0.7313405964240695
 40
1.0
 40
1.0
 40
1.0
 40
1.0
 10
455.7465609093798
 20
573.6123936691347
 30
0.0
 10
455.7305773687941
 20
573.6972727355594
 30
0.0
 10
455.7074688211112
 20
573.8000888689196
 30
0.0
 10
455.638658445246
 20
573.9324419880946
 30
0.0
 10
455.5674627828199
 20
574.005118417344
 30
0.0
 10
455.4766017509062
 20
574.0508694080846
 30
0.0
 10
455.3296141948883
 20
574.07615639551
 30
0.0
 10
455.2246624582162
 20
574.0668223254929
 30
0.0
 10
455.1389653080499
 20
574.0561662966596
 30
0.0
  0
ARC
  5
D8
330
75
100
AcDbEntity
  8
$DDT_AUDIT_GENERATED_(C0)
  6
Continuous
 62
     7
100
AcDbCircle
 10
741.9698677836
 20
-2221.7740105782
 30
0.0
 40
2810.50394988211
100
AcDbArc
 50
95.8593099142
 51
98.1442603985
  0
SPLINE
  5
D9
330
75
100
AcDbEntity
  8
$DDT_AUDIT_GENERATED_(C0)
  6
Continuous
 62
     7
100
AcDbSpline
210
0.0
220
0.0
230
1.0
 70
     8
 71
     3
 72
    13
 73
     9
 74
     0
 42
0.0000000108009419
 43
0.0000000001
 40
0.0
 40
0.0
 40
0.0
 40
0.0
 40
0.2757914357202438
 40
0.3934669961125398
 40
0.5002796465230841
 40
0.6069789012747608
 40
0.724425978734242
 40
1.0
 40
1.0
 40
1.0
 40
1.0
 10
343.8169742986699
 20
560.3857111162478
 30
0.0
 10
343.7246181359632
 20
560.3745757989302
 30
0.0
 10
343.6146613458793
 20
560.3578479744122
 30
0.0
 10
343.4670650521088
 20
560.3071865598814
 30
0.0
 10
343.381501303423
 20
560.2501910048243
 30
0.0
 10
343.3172423267014
 20
560.1700030279994
 30
0.0
 10
343.2543416428971
 20
560.0273503578375
 30
0.0
 10
343.2288561391732
 20
559.9191866392455
 30
0.0
 10
343.2103881053652
 20
559.8280881006066
 30
0.0
  0
ARC
  5
DA
330
75
100
AcDbEntity
  8
$DDT_AUDIT_GENERATED_(C0)
  6
Continuous
 62
     7
100
AcDbCircle
 10
389.3778240146
 20
526.8221820085
 30
0.0
 40
0.2499999997710625
100
AcDbArc
 50
269.9998638617
 51
15.5691792187
  0
ENDBLK
  5
DC
330
75
100
AcDbEntity
  8
0
100
AcDbBlockEnd
  0
BLOCK
  5
34A
330
DD
100
AcDbEntity
  8
0
100
AcDbBlockBegin
  2
SE1
 70
     0
 10
0.0
 20
0.0
 30
0.0
  3
SE1
  1

  0
LINE
  5
DF
330
DD
100
AcDbEntity
  8
$DDT_AUDIT_GENERATED_(77)
  6
Continuous
 62
     7
100
AcDbLine
 10
168.1497572316
 20
480.5276945217
 30
0.0
 11
154.6637449819
 21
480.5276945217
 31
0.0
  0
LINE
  5
E0
330
DD
100
AcDbEntity
  8
$DDT_AUDIT_GENERATED_(77)
  6
Continuous
 62
     7
100
AcDbLine
 10
123.6381592871
 20
480.5276945217
 30
0.0
 11
110.1497572316
 21
480.5276945217
 31
0.0
  0
LINE
  5
E1
330
DD
100
AcDbEntity
  8
$DDT_AUDIT_GENERATED_(77)
  6
Continuous
 62
     7
100
AcDbLine
 10
168.1497572316
 20
412.5276945217
 30
0.0
 11
110.1497572316
 21
412.5276945217
 31
0.0
  0
LINE
  5
E2
330
DD
100
AcDbEntity
  8
$DDT_AUDIT_GENERATED_(77)
  6
Continuous
 62
     7
100
AcDbLine
 10
168.1497572316
 20
412.5276945217
 30
0.0
 11
168.1497572316
 21
480.5276945217
 31
0.0
  0
LINE
  5
E3
330
DD
100
AcDbEntity
  8
$DDT_AUDIT_GENERATED_(77)
  6
Continuous
 62
     7
100
AcDbLine
 10
110.1497572316
 20
480.5276945217
 30
0.0
 11
110.1497572316
 21
412.5276945217
 31
0.0
  0
ARC
  5
E4
330
DD
100
AcDbEntity
  8
$DDT_AUDIT_GENERATED_(7F)
  6
Continuous
 62
     7
100
AcDbCircle
 10
125.2826060772
 20
551.0092380984
 30
0.0
 40
1.630587739464879
100
AcDbArc
 50
170.1499892355
 51
179.7995842031
  0
SPLINE
  5
E5
330
DD
100
AcDbEntity
  8
$DDT_AUDIT_GENERATED_(7F)
  6
Continuous
 62
     7
100
AcDbSpline
210
0.0
220
0.0
230
1.0
 70
     8
 71
     3
 72
     8
 73
     4
 74
     0
 42
0.0000000004719943
 43
0.0000000001
 40
0.8444957373709111
 40
0.8444957373709111
 40
0.8444957373709111
 40
0.8444957373709111
 40
0.8962269032427987
 40
0.8962269032427987
 40
0.8962269032427987
 40
0.8962269032427987
 10
135.8264050397335
 20
554.4142561849812
 30
0.0
 10
136.1888918055769
 20
554.4265169176164
 30
0.0
 10
136.5544295038525
 20
554.4369238737929
 30
0.0
 10
136.921972749179
 20
554.4450313173193
 30
0.0
  0
ARC
  5
E6
330
DD
100
AcDbEntity
  8
$DDT_AUDIT_GENERATED_(7F)
  6
Continuous
 62
     7
100
AcDbCircle
 10
153.0170356054
 20
551.0092380984
 30
0.0
 40
1.630587739464894
100
AcDbArc
 50
0.2004157969
 51
9.8500107645
  0
SPLINE
  5
E7
330
DD
100
AcDbEntity
  8
$DDT_AUDIT_GENERATED_(7F)
  6
Continuous
 62
     7
100
AcDbSpline
210
0.0
220
0.0
230
1.0
 70
    12
 71
     3
 72
     8
 73
     4
 74
     0
 42
0.0000000004841388
 43
0.0000000001
 40
0.8402896067604536
 40
0.8402896067604536
 40
0.8402896067604536
 40
0.8402896067604536
 40
0.8933653622622091
 40
0.8933653622622091
 40
0.8933653622622091
 40
0.8933653622622091
 10
142.4730742948518
 20
554.4142241510233
 30
0.0
 41
0.9999999999999847
 10
142.1101405805127
 20
554.4263582813946
 30
0.0
 41
0.9999999999999847
 10
141.7445433538528
 20
554.436494940645
 30
0.0
 41
0.9999999999999847
 10
141.3772153134042
 20
554.4446218400296
 30
0.0
 41
0.9999999999999847
  0
ARC
  5
E8
330
DD
100
AcDbEntity
  8
$DDT_AUDIT_GENERATED_(7F)
  6
Continuous
 62
     7
100
AcDbCircle
 10
147.7615333275
 20
454.1224078586
 30
0.0
 40
7.91263272393962
100
AcDbArc
 50
342.699131722
 51
29.2491344671
  0
ARC
  5
E9
330
DD
100
AcDbEntity
  8
$DDT_AUDIT_GENERATED_(7F)
  6
Continuous
 62
     7
100
AcDbCircle
 10
130.5378284296
 20
454.1225483132
 30
0.0
 40
7.912398202714619
100
AcDbArc
 50
150.8260297294
 51
197.3019866443
  0
ARC
  5
EA
330
DD
100
AcDbEntity
  8
$DDT_AUDIT_GENERATED_(7F)
  6
Continuous
 62
     7
100
AcDbCircle
 10
139.9551639402
 20
459.4073423495
 30
0.0
 40
17.15519025246226
100
AcDbArc
 50
267.3091524985
 51
333.5617145261
  0
ARC
  5
EB
330
DD
100
AcDbEntity
  8
$DDT_AUDIT_GENERATED_(7F)
  6
Continuous
 62
     7
100
AcDbCircle
 10
138.3442064293
 20
459.4068531462
 30
0.0
 40
17.15471060279123
100
AcDbArc
 50
206.4370232658
 51
272.6915647094
  0
ELLIPSE
  5
EC
330
DD
100
AcDbEntity
  8
$DDT_AUDIT_GENERATED_(7F)
  6
Continuous
 62
     7
100
AcDbEllipse
 10
139.1494848857
 20
539.3160124217
 30
0.0
 11
-15.49811222341744
 21
2.779788621509738E-7
 31
0.0
210
0.0
220
0.0
230
1.0
 40
0.1305261922
 41
3.139431926544084
 42
3.141592653589845
  0
ELLIPSE
  5
ED
330
DD
100
AcDbEntity
  8
$DDT_AUDIT_GENERATED_(7F)
  6
Continuous
 62
     7
100
AcDbEllipse
 10
139.1501567968
 20
539.1177234495
 30
0.0
 11
15.29811222341763
 21
0.0
 31
0.0
210
0.0
220
0.0
230
1.0
 40
0.1305261922
 41
1.570818570781068
 42
2.7878452605199
  0
ELLIPSE
  5
EE
330
DD
100
AcDbEntity
  8
$DDT_AUDIT_GENERATED_(7F)
  6
Continuous
 62
     7
100
AcDbEllipse
 10
139.1501567968
 20
539.1177234495
 30
0.0
 11
15.29811222341763
 21
0.0
 31
0.0
210
0.0
220
0.0
230
1.0
 40
0.1305261922
 41
3.663815770271365
 42
3.824084217858458
  0
ELLIPSE
  5
EF
330
DD
100
AcDbEntity
  8
$DDT_AUDIT_GENERATED_(7F)
  6
Continuous
 62
     7
100
AcDbEllipse
 10
139.1494848857
 20
539.1177234495
 30
0.0
 11
-15.29811222341763
 21
0.0
 31
0.0
210
0.0
220
0.0
230
1.0
 40
0.1305261922
 41
-3.823932597960954
 42
-3.531297504800048
  0
ELLIPSE
  5
F0
330
DD
100
AcDbEntity
  8
$DDT_AUDIT_GENERATED_(7F)
  6
Continuous
 62
     7
100
AcDbEllipse
 10
139.1494848857
 20
539.1177234495
 30
0.0
 11
-15.29811222341763
 21
0.0
 31
0.0
210
0.0
220
0.0
230
1.0
 40
0.1305261922
 41
3.513891338010817
 42
4.712367303192432
  0
ELLIPSE
  5
F1
330
DD
100
AcDbEntity
  8
$DDT_AUDIT_GENERATED_(7F)
  6
Continuous
 62
     7
100
AcDbEllipse
 10
139.1501567968
 20
539.3160124217
 30
0.0
 11
15.49811222341744
 21
2.779788482731860E-7
 31
0.0
210
0.0
220
0.0
230
1.0
 40
0.1305261922
 41
3.141592653589793
 42
3.144037416604287
  0
ELLIPSE
  5
F2
330
DD
100
AcDbEntity
  8
$DDT_AUDIT_GENERATED_(7F)
  6
Continuous
 62
     7
100
AcDbEllipse
 10
139.1501567968
 20
539.1177234495
 30
0.0
 11
14.90000000000001
 21
0.0
 31
0.0
210
0.0
220
0.0
230
1.0
 40
0.1305261922
 41
5.72717424380548
 42
6.283185307179586
  0
ELLIPSE
  5
F3
330
DD
100
AcDbEntity
  8
$DDT_AUDIT_GENERATED_(7F)
  6
Continuous
 62
     7
100
AcDbEllipse
 10
139.1501567968
 20
539.1177234495
 30
0.0
 11
14.90000000000001
 21
0.0
 31
0.0
210
0.0
220
0.0
230
1.0
 40
0.1305261922
 41
0.0
 42
3.697603716963913
  0
LINE
  5
F4
330
DD
100
AcDbEntity
  8
$DDT_AUDIT_GENERATED_(7F)
  6
Continuous
 62
     7
100
AcDbLine
 10
123.6520282855
 20
551.0347914485
 30
0.0
 11
123.6520445734
 21
539.3160117815
 31
0.0
  0
ARC
  5
F5
330
DD
100
AcDbEntity
  8
$DDT_AUDIT_GENERATED_(7F)
  6
Continuous
 62
     7
100
AcDbCircle
 10
138.9557369073
 20
476.5558580478
 30
0.0
 40
77.91310832666292
100
AcDbArc
 50
89.8573458245
 51
91.4932246831
  0
SPLINE
  5
F6
330
DD
100
AcDbEntity
  8
$DDT_AUDIT_GENERATED_(7F)
  6
Continuous
 62
     7
100
AcDbSpline
210
0.0
220
0.0
230
1.0
 70
     8
 71
     3
 72
    29
 73
    25
 74
     0
 42
0.0000000007529819
 43
0.0000000001
 40
0.0
 40
0.0
 40
0.0
 40
0.0
 40
0.0233858526708069
 40
0.0512063742255231
 40
0.0836180215302167
 40
0.1207316068854704
 40
0.1626186194568929
 40
0.2093123176961559
 40
0.2849785175737037
 40
0.3578179396113632
 40
0.4271313349883343
 40
0.4928688387890492
 40
0.5748050738505447
 40
0.6502219685688716
 40
0.7202141203264243
 40
0.7451842554161682
 40
0.7694744838635049
 40
0.7930971866629569
 40
0.8194751968404008
 40
0.8531254323472127
 40
0.8943800008198672
 40
0.9261971506164196
 40
0.9614379079691828
 40
1.0
 40
1.0
 40
1.0
 40
1.0
 10
135.9346025574123
 20
554.4177746197945
 30
0.0
 10
135.7693422551643
 20
554.4114872129203
 30
0.0
 10
135.4630143175936
 20
554.3997356296093
 30
0.0
 10
134.9147501235826
 20
554.3703698565834
 30
0.0
 10
134.3015149011754
 20
554.3341940154012
 30
0.0
 10
133.608207194168
 20
554.2896869179452
 30
0.0
 10
132.8490628403827
 20
554.2372255789047
 30
0.0
 10
131.8913370237199
 20
554.1654705345223
 30
0.0
 10
130.8138888167611
 20
554.073513347543
 30
0.0
 10
129.6844868512864
 20
553.952882081216
 30
0.0
 10
128.688085975078
 20
553.8238100995545
 30
0.0
 10
127.7382242255206
 20
553.6760066288471
 30
0.0
 10
126.8669953552488
 20
553.5093644120063
 30
0.0
 10
126.1158819697126
 20
553.3295161009657
 30
0.0
 10
125.6100882213274
 20
553.170592398063
 30
0.0
 10
125.2802436853832
 20
553.0425775869386
 30
0.0
 10
125.0845558958352
 20
552.9569490388493
 30
0.0
 10
124.8969442310739
 20
552.8647964472784
 30
0.0
 10
124.6716668755538
 20
552.7362271357541
 30
0.0
 10
124.3871409803226
 20
552.533866639346
 30
0.0
 10
124.1208451614259
 20
552.2744188953544
 30
0.0
 10
123.9049090028303
 20
551.9739533069812
 30
0.0
 10
123.7459549919851
 20
551.6461395916689
 30
0.0
 10
123.7011410847015
 20
551.4253140086818
 30
0.0
 10
123.6752754276377
 20
551.2877446951112
 30
0.0
  0
LINE
  5
F7
330
DD
100
AcDbEntity
  8
$DDT_AUDIT_GENERATED_(7F)
  6
Continuous
 62
     7
100
AcDbLine
 10
154.6475971091
 20
539.3160117815
 30
0.0
 11
154.647613397
 21
551.0347914485
 31
0.0
  0
ARC
  5
F8
330
DD
100
AcDbEntity
  8
$DDT_AUDIT_GENERATED_(7F)
  6
Continuous
 62
     7
100
AcDbCircle
 10
139.3439047752
 20
476.5558580479
 30
0.0
 40
77.91310832655331
100
AcDbArc
 50
88.5067753169
 51
90.1426541755
  0
SPLINE
  5
F9
330
DD
100
AcDbEntity
  8
$DDT_AUDIT_GENERATED_(7F)
  6
Continuous
 62
     7
100
AcDbSpline
210
0.0
220
0.0
230
1.0
 70
     8
 71
     3
 72
    29
 73
    25
 74
     0
 42
0.0000000007529819
 43
0.0000000001
 40
0.0
 40
0.0
 40
0.0
 40
0.0
 40
0.0385620920314784
 40
0.0738028493849477
 40
0.1056199991822516
 40
0.1468745676561216
 40
0.1805248031642633
 40
0.2069028133431546
 40
0.2305255161440821
 40
0.2548157445928353
 40
0.2797858796839396
 40
0.3497780314448461
 40
0.4251949261662864
 40
0.5071311612311424
 40
0.5728686650345535
 40
0.6421820604143573
 40
0.7150214824550111
 40
0.7906876823354902
 40
0.8373813805747825
 40
0.8792683931440304
 40
0.9163819784949455
 40
0.9487936257932056
 40
0.9766141473394808
 40
1.0
 40
1.0
 40
1.0
 40
1.0
 10
154.6243662549026
 20
551.2877446951112
 30
0.0
 10
154.5985005978386
 20
551.4253140086827
 30
0.0
 10
154.5536866905547
 20
551.6461395916714
 30
0.0
 10
154.3947326797071
 20
551.9739533069861
 30
0.0
 10
154.1787965211071
 20
552.2744188953621
 30
0.0
 10
153.912500702203
 20
552.5338666393574
 30
0.0
 10
153.6279748069612
 20
552.7362271357695
 30
0.0
 10
153.402697451429
 20
552.8647964472974
 30
0.0
 10
153.2150857866537
 20
552.9569490388723
 30
0.0
 10
153.0193979970903
 20
553.0425775869654
 30
0.0
 10
152.6895534611205
 20
553.1705923980944
 30
0.0
 10
152.1837597126952
 20
553.3295161010026
 30
0.0
 10
151.4326463270995
 20
553.5093644120481
 30
0.0
 10
150.5614174567609
 20
553.676006628892
 30
0.0
 10
149.611555707132
 20
553.8238100996017
 30
0.0
 10
148.6151548308497
 20
553.9528820812636
 30
0.0
 10
147.4857528652955
 20
554.0735133475895
 30
0.0
 10
146.4083046582743
 20
554.1654705345653
 30
0.0
 10
145.4505788415853
 20
554.2372255789427
 30
0.0
 10
144.6914344878252
 20
554.2896869179759
 30
0.0
 10
143.998126780888
 20
554.334194015424
 30
0.0
 10
143.3848915585951
 20
554.3703698565981
 30
0.0
 10
142.8366273647435
 20
554.3997356296162
 30
0.0
 10
142.5302994272853
 20
554.4114872129234
 30
0.0
 10
142.365039125111
 20
554.4177746197952
 30
0.0
  0
SPLINE
  5
FA
330
DD
100
AcDbEntity
  8
$DDT_AUDIT_GENERATED_(7F)
  6
Continuous
 62
     7
100
AcDbSpline
210
0.0
220
0.0
230
1.0
 70
     8
 71
     3
 72
    51
 73
    47
 74
     0
 42
0.0000000001029328
 43
0.0000000001
 40
0.0
 40
0.0
 40
0.0
 40
0.0
 40
0.0296957559727609
 40
0.0691851497941088
 40
0.1067549186976282
 40
0.1426749784322818
 40
0.1772010119627312
 40
0.2105262162191561
 40
0.2428029900987672
 40
0.2739942032997092
 40
0.3039077898668272
 40
0.3327317903701725
 40
0.3606151591996602
 40
0.3876754089151898
 40
0.41400751869495
 40
0.4396898413403804
 40
0.4647883336796409
 40
0.4893522457895827
 40
0.5132037972897725
 40
0.5363744582501823
 40
0.5589318904560961
 40
0.5809329517603586
 40
0.6024258346417991
 40
0.6234519708230735
 40
0.6440474296140483
 40
0.6642439638687953
 40
0.6840698069280691
 40
0.7035502897631135
 40
0.7227003756409384
 40
0.7414503645533983
 40
0.759841499057771
 40
0.7779073389712682
 40
0.7956690695619696
 40
0.8131461987663774
 40
0.8303568377649171
 40
0.847317888430647
 40
0.8640451995691798
 40
0.8805536981583496
 40
0.8968575001431676
 40
0.9129700042634001
 40
0.9289039715030488
 40
0.9446715919378176
 40
0.9602845450264352
 40
0.9757461684161816
 40
0.9910528239882036
 40
1.0
 40
1.0
 40
1.0
 40
1.0
 10
154.6490218493151
 20
453.8582194322884
 30
0.0
 10
154.6489700395184
 20
455.2835153810496
 30
0.0
 10
154.6488720633134
 20
458.0901387049838
 30
0.0
 10
154.6488793055887
 20
462.8030176914826
 30
0.0
 10
154.6490007584215
 20
467.6102036367236
 30
0.0
 10
154.6492175733449
 20
472.1944566758424
 30
0.0
 10
154.6495005525519
 20
476.5447290061373
 30
0.0
 10
154.6498310724543
 20
480.6989532470854
 30
0.0
 10
154.65019140531
 20
484.6691761338289
 30
0.0
 10
154.6505648297053
 20
488.4536753412322
 30
0.0
 10
154.6509383686457
 20
492.0517018774243
 30
0.0
 10
154.6513019031104
 20
495.4709115642701
 30
0.0
 10
154.6516487795772
 20
498.7309525203812
 30
0.0
 10
154.651973461905
 20
501.8473877121588
 30
0.0
 10
154.652271357286
 20
504.8326785543391
 30
0.0
 10
154.6525382257241
 20
507.6969979949666
 30
0.0
 10
154.6527714224787
 20
510.4486228765834
 30
0.0
 10
154.6529638334673
 20
513.0861432073883
 30
0.0
 10
154.6531143276922
 20
515.6064580658046
 30
0.0
 10
154.6532236443618
 20
518.0079179673377
 30
0.0
 10
154.6532927915675
 20
520.297148379265
 30
0.0
 10
154.6533227726746
 20
522.4811491670507
 30
0.0
 10
154.6533144188895
 20
524.5658194974102
 30
0.0
 10
154.6532684505552
 20
526.5561883523022
 30
0.0
 10
154.6531854854513
 20
528.4565932855994
 30
0.0
 10
154.6530660886496
 20
530.2708121139497
 30
0.0
 10
154.6529106737138
 20
532.0021702921259
 30
0.0
 10
154.6527199426598
 20
533.6533708993975
 30
0.0
 10
154.6524937794087
 20
535.2244156471031
 30
0.0
 10
154.6522273810988
 20
536.7153616178133
 30
0.0
 10
154.6519313701926
 20
538.1272124486263
 30
0.0
 10
154.6516120603559
 20
539.4632240734666
 30
0.0
 10
154.6512759472623
 20
540.7259439991836
 30
0.0
 10
154.6509288050227
 20
541.9174322674037
 30
0.0
 10
154.6505759643584
 20
543.039558976888
 30
0.0
 10
154.6502223064558
 20
544.0940267260188
 30
0.0
 10
154.6498723316115
 20
545.0823905294176
 30
0.0
 10
154.6495302068596
 20
546.0060679044756
 30
0.0
 10
154.6491997807624
 20
546.8663706872998
 30
0.0
 10
154.648884711033
 20
547.6644464323699
 30
0.0
 10
154.6485881503615
 20
548.4015422501127
 30
0.0
 10
154.6483140359946
 20
549.0780777815928
 30
0.0
 10
154.6480625130462
 20
549.6969831060021
 30
0.0
 10
154.6478471908152
 20
550.2510324461671
 30
0.0
 10
154.6476899736724
 20
550.698803946226
 30
0.0
 10
154.647636830216
 20
550.9153261098512
 30
0.0
 10
154.6476141254676
 20
551.0089581895239
 30
0.0
  0
SPLINE
  5
FB
330
DD
100
AcDbEntity
  8
$DDT_AUDIT_GENERATED_(7F)
  6
Continuous
 62
     7
100
AcDbSpline
210
0.0
220
0.0
230
1.0
 70
     8
 71
     3
 72
    53
 73
    49
 74
     0
 42
0.0000000001029259
 43
0.0000000001
 40
0.0
 40
0.0
 40
0.0
 40
0.0
 40
0.0104085988136924
 40
0.0254367711670065
 40
0.0405939326734413
 40
0.055890950645461
 40
0.0713510092419406
 40
0.0869652519121836
 40
0.1027378761719325
 40
0.1186799029297127
 40
0.1348027587144803
 40
0.1511183630653543
 40
0.1676391832832873
 40
0.1843782993994306
 40
0.2013494802595067
 40
0.2185672725028193
 40
0.236047104820913
 40
0.2538054105855205
 40
0.2718597728077529
 40
0.2902290403534474
 40
0.308912800621461
 40
0.3279639397818883
 40
0.3473199971290188
 40
0.367001520810554
 40
0.3870300380606898
 40
0.4074292472528456
 40
0.4282254177928202
 40
0.4494479032197442
 40
0.4711297918579275
 40
0.4933087431498542
 40
0.5160280788189089
 40
0.5393382306618769
 40
0.5633059402331398
 40
0.5879355991346437
 40
0.6130787613459381
 40
0.6387892310985616
 40
0.6651252556134425
 40
0.6921550547930602
 40
0.7199595246240442
 40
0.7486360627234842
 40
0.7783040225927483
 40
0.8091134647394
 40
0.841118972798917
 40
0.8740064353884448
 40
0.9079527078324449
 40
0.9430970807119937
 40
0.9796160916977333
 40
1.0
 40
1.0
 40
1.0
 40
1.0
 10
123.6520279069694
 20
551.0065365238792
 30
0.0
 10
123.6520000100826
 20
550.8963215082707
 30
0.0
 10
123.651941187529
 20
550.6668668932147
 30
0.0
 10
123.6517779672355
 20
550.2064933297426
 30
0.0
 10
123.6515635830995
 20
549.6588430242508
 30
0.0
 10
123.651316146997
 20
549.0496089758253
 30
0.0
 10
123.651046779121
 20
548.3848525026336
 30
0.0
 10
123.6507560589098
 20
547.6620516364356
 30
0.0
 10
123.6504477780208
 20
546.8812755535423
 30
0.0
 10
123.650125012472
 20
546.0416392009586
 30
0.0
 10
123.6497912159909
 20
545.1422578044393
 30
0.0
 10
123.6494500084853
 20
544.1821189456796
 30
0.0
 10
123.6491052773146
 20
543.1601360990816
 30
0.0
 10
123.6487611880975
 20
542.0751249237226
 30
0.0
 10
123.6484222212064
 20
540.9257993740783
 30
0.0
 10
123.6480932228125
 20
539.7107600994151
 30
0.0
 10
123.6477793997164
 20
538.4284845496852
 30
0.0
 10
123.6474865648649
 20
537.0773070678677
 30
0.0
 10
123.6472204583274
 20
535.6554262389787
 30
0.0
 10
123.646989736723
 20
534.1613629881774
 30
0.0
 10
123.6467948653352
 20
532.5929277889692
 30
0.0
 10
123.646631845166
 20
530.9496996485673
 30
0.0
 10
123.6465025447887
 20
529.230654752142
 30
0.0
 10
123.6464070914567
 20
527.4359085439826
 30
0.0
 10
123.6463458712718
 20
525.5630038752391
 30
0.0
 10
123.6463191785231
 20
523.6092326713605
 30
0.0
 10
123.6463273777955
 20
521.5715566091534
 30
0.0
 10
123.6463708701136
 20
519.4465451163674
 30
0.0
 10
123.6464500967314
 20
517.230294738672
 30
0.0
 10
123.6465656090135
 20
514.9183239097525
 30
0.0
 10
123.6467178410147
 20
512.5054407398025
 30
0.0
 10
123.6469080869674
 20
509.9852828610938
 30
0.0
 10
123.6471346665049
 20
507.3528252976329
 30
0.0
 10
123.6473922781146
 20
504.6094610740362
 30
0.0
 10
123.6476776311335
 20
501.7575157413775
 30
0.0
 10
123.647985975212
 20
498.797716391134
 30
0.0
 10
123.6483129235336
 20
495.722557047331
 30
0.0
 10
123.6486533380606
 20
492.5233304246243
 30
0.0
 10
123.6490012549122
 20
489.1896156348144
 30
0.0
 10
123.6493496084102
 20
485.7087915696566
 30
0.0
 10
123.6496899711066
 20
482.0651330929772
 30
0.0
 10
123.6500113395161
 20
478.2448752734066
 30
0.0
 10
123.6502977535512
 20
474.249726584669
 30
0.0
 10
123.6505328445954
 20
470.0847744382686
 30
0.0
 10
123.6506999961296
 20
465.7375335052316
 30
0.0
 10
123.6507721120725
 20
461.2315655682594
 30
0.0
 10
123.650752510214
 20
457.1500353328054
 30
0.0
 10
123.6506543115465
 20
454.8291423645458
 30
0.0
 10
123.6506118613718
 20
453.8492783205464
 30
0.0
  0
SPLINE
  5
FC
330
DD
100
AcDbEntity
  8
$DDT_AUDIT_GENERATED_(7F)
  6
Continuous
 62
     7
100
AcDbSpline
210
0.0
220
0.0
230
1.0
 70
     8
 71
     3
 72
    17
 73
    13
 74
     0
 42
0.0000000038008135
 43
0.0000000001
 40
0.0
 40
0.0
 40
0.0
 40
0.0
 40
0.0360200966349862
 40
0.1224688954149428
 40
0.2118164875104072
 40
0.3128170623629538
 40
0.4273285587897633
 40
0.5470501104848419
 40
0.6648979778496862
 40
0.7809387228802551
 40
0.895798359736749
 40
1.0
 40
1.0
 40
1.0
 40
1.0
 10
123.6590866007324
 20
539.3073392170504
 30
0.0
 10
123.6575228233141
 20
539.2833295560748
 30
0.0
 10
123.6534596457271
 20
539.2141527265737
 30
0.0
 10
123.7026960375485
 20
539.089298117623
 30
0.0
 10
123.7941643952845
 20
538.9549037849038
 30
0.0
 10
123.9341668523736
 20
538.8250451933001
 30
0.0
 10
124.128377980483
 20
538.6965432487268
 30
0.0
 10
124.3814927740612
 20
538.5699190777584
 30
0.0
 10
124.6875827646141
 20
538.4480788871568
 30
0.0
 10
125.0376232335622
 20
538.3329849303218
 30
0.0
 10
125.4293155331667
 20
538.2231599895947
 30
0.0
 10
125.696015442809
 20
538.1605745112656
 30
0.0
 10
125.8473431332759
 20
538.1254046205122
 30
0.0
  0
SPLINE
  5
FD
330
DD
100
AcDbEntity
  8
$DDT_AUDIT_GENERATED_(7F)
  6
Continuous
 62
     7
100
AcDbSpline
210
0.0
220
0.0
230
1.0
 70
     8
 71
     3
 72
    15
 73
    11
 74
     0
 42
0.0000000059709869
 43
0.0000000001
 40
0.0
 40
0.0
 40
0.0
 40
0.0
 40
0.0858388622471239
 40
0.2411394724052815
 40
0.398018416830116
 40
0.5573135925318881
 40
0.7194970583431629
 40
0.8446332914746015
 40
0.9577329100584198
 40
1.0
 40
1.0
 40
1.0
 40
1.0
 10
153.3764636296902
 20
538.3740605252775
 30
0.0
 10
153.4495344718297
 20
538.3970323740448
 30
0.0
 10
153.6228770670477
 20
538.4519609111392
 30
0.0
 10
153.8840066729107
 20
538.5557157368838
 30
0.0
 10
154.1410075138557
 20
538.6795210962401
 30
0.0
 10
154.3527188760284
 20
538.8139738528248
 30
0.0
 10
154.5065571167601
 20
538.9534712954373
 30
0.0
 10
154.6018067403508
 20
539.0988670719945
 30
0.0
 10
154.6475091261428
 20
539.2225320989528
 30
0.0
 10
154.6427626115751
 20
539.2874448345226
 30
0.0
 10
154.6411210841063
 20
539.3082495500516
 30
0.0
  0
ELLIPSE
  5
FE
330
DD
100
AcDbEntity
  8
$DDT_AUDIT_GENERATED_(8F)
  6
Continuous
 62
     7
100
AcDbEllipse
 10
139.1501567968
 20
538.2254230742
 30
0.0
 11
-12.0
 21
0.0
 31
0.0
210
0.0
220
0.0
230
1.0
 40
0.1305261922
 41
0.0
 42
0.2985286823775302
  0
ELLIPSE
  5
FF
330
DD
100
AcDbEntity
  8
$DDT_AUDIT_GENERATED_(8F)
  6
Continuous
 62
     7
100
AcDbEllipse
 10
139.1501567968
 20
538.2254230742
 30
0.0
 11
-12.0
 21
0.0
 31
0.0
210
0.0
220
0.0
230
1.0
 40
0.1305261922
 41
2.843262150340027
 42
6.283185307179586
  0
ELLIPSE
  5
100
330
DD
100
AcDbEntity
  8
$DDT_AUDIT_GENERATED_(8F)
  6
Continuous
 62
     7
100
AcDbEllipse
 10
139.1501567968
 20
539.1177234495
 30
0.0
 11
14.75000000000001
 21
0.0
 31
0.0
210
0.0
220
0.0
230
1.0
 40
0.1305261922
 41
0.0
 42
3.555589276025124
  0
ELLIPSE
  5
101
330
DD
100
AcDbEntity
  8
$DDT_AUDIT_GENERATED_(8F)
  6
Continuous
 62
     7
100
AcDbEllipse
 10
139.1501567968
 20
539.1177234495
 30
0.0
 11
14.75000000000001
 21
0.0
 31
0.0
210
0.0
220
0.0
230
1.0
 40
0.1305261922
 41
5.869188684744258
 42
6.283185307179586
  0
ELLIPSE
  5
102
330
DD
100
AcDbEntity
  8
$DDT_AUDIT_GENERATED_(8F)
  6
Continuous
 62
     7
100
AcDbEllipse
 10
139.1501567968
 20
538.2254230742
 30
0.0
 11
10.40000000000002
 21
0.0
 31
0.0
210
0.0
220
0.0
230
1.0
 40
0.1305261922
 41
0.0790564779331464
 42
3.062536175656647
  0
LINE
  5
103
330
DD
100
AcDbEntity
  8
$DDT_AUDIT_GENERATED_(8F)
  6
Continuous
 62
     7
100
AcDbLine
 10
153.9001567968
 20
539.1177234495
 30
0.0
 11
153.9001567968
 21
539.3929913985
 31
0.0
  0
LINE
  5
104
330
DD
100
AcDbEntity
  8
$DDT_AUDIT_GENERATED_(8F)
  6
Continuous
 62
     7
100
AcDbLine
 10
124.4001567968
 20
539.3929913985
 30
0.0
 11
124.4001567968
 21
539.1177234495
 31
0.0
  0
LINE
  5
105
330
DD
100
AcDbEntity
  8
$DDT_AUDIT_GENERATED_(8F)
  6
Continuous
 62
     7
100
AcDbLine
 10
125.6462307272
 20
538.343245645
 30
0.0
 11
127.6914506085
 21
537.7356894984
 31
0.0
  0
LINE
  5
106
330
DD
100
AcDbEntity
  8
$DDT_AUDIT_GENERATED_(8F)
  6
Continuous
 62
     7
100
AcDbLine
 10
150.6114578522
 20
537.7364603336
 30
0.0
 11
152.6540828665
 21
538.343245645
 31
0.0
  0
LINE
  5
107
330
DD
100
AcDbEntity
  8
$DDT_AUDIT_GENERATED_(95)
  6
Continuous
 62
     7
100
AcDbLine
 10
110.7497572316
 20
481.1276945217
 30
0.0
 11
123.6459146441
 21
481.1276945217
 31
0.0
  0
LINE
  5
108
330
DD
100
AcDbEntity
  8
$DDT_AUDIT_GENERATED_(95)
  6
Continuous
 62
     7
100
AcDbLine
 10
154.6639876995
 20
481.1276945217
 30
0.0
 11
167.5497572316
 21
481.1276945217
 31
0.0
  0
LINE
  5
109
330
DD
100
AcDbEntity
  8
$DDT_AUDIT_GENERATED_(95)
  6
Continuous
 62
     7
100
AcDbLine
 10
167.6497572316
 20
480.6276945217
 30
0.0
 11
167.6497572316
 21
481.0276945217
 31
0.0
  0
LINE
  5
10A
330
DD
100
AcDbEntity
  8
$DDT_AUDIT_GENERATED_(95)
  6
Continuous
 62
     7
100
AcDbLine
 10
110.6497572316
 20
481.0276945217
 30
0.0
 11
110.6497572316
 21
480.6276945217
 31
0.0
  0
ARC
  5
10B
330
DD
100
AcDbEntity
  8
$DDT_AUDIT_GENERATED_(95)
  6
Continuous
 62
     7
100
AcDbCircle
 10
110.7497572316
 20
481.0276945217
 30
0.0
 40
0.1000000000000029
100
AcDbArc
 50
90.0
 51
180.0
  0
ARC
  5
10C
330
DD
100
AcDbEntity
  8
$DDT_AUDIT_GENERATED_(95)
  6
Continuous
 62
     7
100
AcDbCircle
 10
167.5497572316
 20
481.0276945217
 30
0.0
 40
0.0999999999999994
100
AcDbArc
 50
0.0
 51
90.0
  0
ARC
  5
10D
330
DD
100
AcDbEntity
  8
$DDT_AUDIT_GENERATED_(95)
  6
Continuous
 62
     7
100
AcDbCircle
 10
167.5497572316
 20
480.6276945217
 30
0.0
 40
0.1000000000000029
100
AcDbArc
 50
270.0
 51
0.0
  0
ARC
  5
10E
330
DD
100
AcDbEntity
  8
$DDT_AUDIT_GENERATED_(95)
  6
Continuous
 62
     7
100
AcDbCircle
 10
110.7497572316
 20
480.6276945217
 30
0.0
 40
0.0999999999999994
100
AcDbArc
 50
180.0
 51
270.0
  0
LINE
  5
10F
330
DD
100
AcDbEntity
  8
$DDT_AUDIT_GENERATED_(9D)
  6
Continuous
 62
     7
100
AcDbLine
 10
167.5503858573
 20
481.1277598301
 30
0.0
 11
154.6658594985
 21
481.1277598301
 31
0.0
  0
LINE
  5
110
330
DD
100
AcDbEntity
  8
$DDT_AUDIT_GENERATED_(9D)
  6
Continuous
 62
     7
100
AcDbLine
 10
123.637314653
 20
481.1277598301
 30
0.0
 11
110.7491286059
 21
481.1277598301
 31
0.0
  0
LINE
  5
111
330
DD
100
AcDbEntity
  8
$DDT_AUDIT_GENERATED_(9D)
  6
Continuous
 62
     7
100
AcDbLine
 10
168.1402315432
 20
481.6176055159
 30
0.0
 11
154.6576119333
 21
481.6176055159
 31
0.0
  0
LINE
  5
112
330
DD
100
AcDbEntity
  8
$DDT_AUDIT_GENERATED_(9D)
  6
Continuous
 62
     7
100
AcDbLine
 10
123.6371018659
 20
481.6176055159
 30
0.0
 11
110.15928292
 21
481.6176055159
 31
0.0
  0
LINE
  5
113
330
DD
100
AcDbEntity
  8
$DDT_AUDIT_GENERATED_(9D)
  6
Continuous
 62
     7
100
AcDbLine
 10
164.9738077176
 20
524.6243817502
 30
0.0
 11
154.6679518991
 21
524.6243817502
 31
0.0
  0
LINE
  5
114
330
DD
100
AcDbEntity
  8
$DDT_AUDIT_GENERATED_(9D)
  6
Continuous
 62
     7
100
AcDbLine
 10
123.6328358787
 20
524.6243817502
 30
0.0
 11
113.3257067457
 21
524.6243817502
 31
0.0
  0
LINE
  5
115
330
DD
100
AcDbEntity
  8
$DDT_AUDIT_GENERATED_(9D)
  6
Continuous
 62
     7
100
AcDbLine
 10
110.25928292
 20
481.6176055159
 30
0.0
 11
110.7491286059
 21
481.1277598301
 31
0.0
  0
LINE
  5
116
330
DD
100
AcDbEntity
  8
$DDT_AUDIT_GENERATED_(9D)
  6
Continuous
 62
     7
100
AcDbLine
 10
167.5503858573
 20
481.1277598301
 30
0.0
 11
168.0402315432
 21
481.6176055159
 31
0.0
  0
ARC
  5
117
330
DD
100
AcDbEntity
  8
$DDT_AUDIT_GENERATED_(9D)
  6
Continuous
 62
     7
100
AcDbCircle
 10
802.6702446768
 20
467.0170896022
 30
0.0
 40
692.6648592344261
100
AcDbArc
 50
175.3055434556
 51
178.7921865962
  0
ARC
  5
118
330
DD
100
AcDbEntity
  8
$DDT_AUDIT_GENERATED_(9D)
  6
Continuous
 62
     7
100
AcDbCircle
 10
-524.3707302136
 20
467.0170896022
 30
0.0
 40
692.664859234426
100
AcDbArc
 50
1.2078134038
 51
4.6944565444
  0
ARC
  5
119
330
DD
100
AcDbEntity
  8
$DDT_AUDIT_GENERATED_(9D)
  6
Continuous
 62
     7
100
AcDbCircle
 10
164.9738077176
 20
523.6243817502
 30
0.0
 40
0.9999999999376187
100
AcDbArc
 50
4.6944565446
 51
90.0000000009
  0
ARC
  5
11A
330
DD
100
AcDbEntity
  8
$DDT_AUDIT_GENERATED_(9D)
  6
Continuous
 62
     7
100
AcDbCircle
 10
113.3257067456
 20
523.6243817502
 30
0.0
 40
0.9999999999430464
100
AcDbArc
 50
89.9999999991
 51
175.3055434554
  0
ARC
  5
11B
330
DD
100
AcDbEntity
  8
$DDT_AUDIT_GENERATED_(9D)
  6
Continuous
 62
     7
100
AcDbCircle
 10
164.5293119674
 20
525.1243817501
 30
0.0
 40
0.4999999999933252
100
AcDbArc
 50
198.709613237
 51
270.0000000009
  0
ARC
  5
11C
330
DD
100
AcDbEntity
  8
$DDT_AUDIT_GENERATED_(9D)
  6
Continuous
 62
     7
100
AcDbCircle
 10
113.7702024958
 20
525.1243817501
 30
0.0
 40
0.4999999999933351
100
AcDbArc
 50
269.9999999991
 51
341.290386763
  0
ARC
  5
11D
330
DD
100
AcDbEntity
  8
$DDT_AUDIT_GENERATED_(9D)
  6
Continuous
 62
     7
100
AcDbCircle
 10
139.1539959219
 20
516.5276945217
 30
0.0
 40
26.30000000000001
100
AcDbArc
 50
157.5210487046
 51
161.290386763
  0
ARC
  5
11E
330
DD
100
AcDbEntity
  8
$DDT_AUDIT_GENERATED_(9D)
  6
Continuous
 62
     7
100
AcDbCircle
 10
139.1455185414
 20
516.5276945217
 30
0.0
 40
26.3
100
AcDbArc
 50
18.709613237
 51
22.4688512566
  0
ELLIPSE
  5
11F
330
DD
100
AcDbEntity
  8
$DDT_AUDIT_GENERATED_(B3)
  6
Continuous
 62
     7
100
AcDbEllipse
 10
139.1501567968
 20
520.8751380002
 30
0.0
 11
10.5
 21
0.0
 31
0.0
210
0.0
220
0.0
230
1.0
 40
0.1305261922
 41
0.0
 42
3.748417398953015
  0
ELLIPSE
  5
120
330
DD
100
AcDbEntity
  8
$DDT_AUDIT_GENERATED_(B3)
  6
Continuous
 62
     7
100
AcDbEllipse
 10
139.1501567968
 20
520.8751380002
 30
0.0
 11
10.5
 21
0.0
 31
0.0
210
0.0
220
0.0
230
1.0
 40
0.1305261922
 41
5.67636056181636
 42
6.283185307179586
  0
ELLIPSE
  5
121
330
DD
100
AcDbEntity
  8
$DDT_AUDIT_GENERATED_(B3)
  6
Continuous
 62
     7
100
AcDbEllipse
 10
139.1501567968
 20
520.8751380002
 30
0.0
 11
-10.05
 21
0.0
 31
0.0
210
0.0
220
0.0
230
1.0
 40
0.1305261922
 41
2.662249831263404
 42
6.283185307179586
  0
ELLIPSE
  5
122
330
DD
100
AcDbEntity
  8
$DDT_AUDIT_GENERATED_(B3)
  6
Continuous
 62
     7
100
AcDbEllipse
 10
139.1501567968
 20
520.8751380002
 30
0.0
 11
-10.05
 21
0.0
 31
0.0
210
0.0
220
0.0
230
1.0
 40
0.1305261922
 41
0.0
 42
0.4793428223263826
  0
ELLIPSE
  5
123
330
DD
100
AcDbEntity
  8
$DDT_AUDIT_GENERATED_(B3)
  6
Continuous
 62
     7
100
AcDbEllipse
 10
139.1501567968
 20
537.7297006436
 30
0.0
 11
-11.34999999999999
 21
0.0
 31
0.0
210
0.0
220
0.0
230
1.0
 40
0.1305261922
 41
3.528480045179708
 42
5.986314547756968
  0
ARC
  5
124
330
DD
100
AcDbEntity
  8
$DDT_AUDIT_GENERATED_(B3)
  6
Continuous
 62
     7
100
AcDbCircle
 10
144.2323675647
 20
526.5070786928
 30
0.0
 40
16.57573223073167
100
AcDbArc
 50
179.7806479282
 51
200.1115853306
  0
ARC
  5
125
330
DD
100
AcDbEntity
  8
$DDT_AUDIT_GENERATED_(B3)
  6
Continuous
 62
     7
100
AcDbCircle
 10
134.1369979748
 20
526.5024879383
 30
0.0
 40
16.50669923774036
100
AcDbArc
 50
339.8148802374
 51
0.2363481643
  0
LINE
  5
126
330
DD
100
AcDbEntity
  8
$DDT_AUDIT_GENERATED_(B3)
  6
Continuous
 62
     7
100
AcDbLine
 10
150.6501567968
 20
526.5705551169
 30
0.0
 11
150.6501567968
 21
537.5809839143
 31
0.0
  0
LINE
  5
127
330
DD
100
AcDbEntity
  8
$DDT_AUDIT_GENERATED_(B3)
  6
Continuous
 62
     7
100
AcDbLine
 10
127.6501567968
 20
537.5809839143
 30
0.0
 11
127.6501567968
 21
526.5705551169
 31
0.0
  0
SPLINE
  5
128
330
DD
100
AcDbEntity
  8
$DDT_AUDIT_GENERATED_(B3)
  6
Continuous
 62
     7
100
AcDbSpline
210
0.0
220
0.0
230
1.0
 70
     8
 71
     3
 72
    12
 73
     8
 74
     0
 42
0.0000000116871946
 43
0.0000000001
 40
0.0
 40
0.0
 40
0.0
 40
0.0
 40
0.2171443991636226
 40
0.4597473326059428
 40
0.6729116979352099
 40
0.8533398277597689
 40
1.0
 40
1.0
 40
1.0
 40
1.0
 10
128.2232068030162
 20
538.1449541697897
 30
0.0
 10
128.1454065244946
 20
538.1097987541986
 30
0.0
 10
128.008215068279
 20
538.0462951560669
 30
0.0
 10
127.8433492835366
 20
537.9355841294528
 30
0.0
 10
127.7300735202095
 20
537.820999318045
 30
0.0
 10
127.6609820425717
 20
537.6986612663443
 30
0.0
 10
127.6553244607026
 20
537.6214023604616
 30
0.0
 10
127.6528433353212
 20
537.5800691834305
 30
0.0
  0
SPLINE
  5
129
330
DD
100
AcDbEntity
  8
$DDT_AUDIT_GENERATED_(B3)
  6
Continuous
 62
     7
100
AcDbSpline
210
0.0
220
0.0
230
1.0
 70
     8
 71
     3
 72
    15
 73
    11
 74
     0
 42
0.0000000079846457
 43
0.0000000001
 40
0.0
 40
0.0
 40
0.0
 40
0.0
 40
0.0073189475361897
 40
0.1425636495867207
 40
0.2784105246938847
 40
0.4313754210851643
 40
0.608859476152007
 40
0.7952787845284043
 40
0.978134569032275
 40
1.0
 40
1.0
 40
1.0
 40
1.0
 10
150.6488922408152
 20
537.5818117395046
 30
0.0
 10
150.6493470629465
 20
537.5844555683557
 30
0.0
 10
150.6569346682084
 20
537.6287782717568
 30
0.0
 10
150.6247856562275
 20
537.7257278610332
 30
0.0
 10
150.5533930442895
 20
537.8419798384848
 30
0.0
 10
150.4347979683516
 20
537.9521266245702
 30
0.0
 10
150.2653526776621
 20
538.0607669285574
 30
0.0
 10
150.0354121523889
 20
538.166863729246
 30
0.0
 10
149.8377401004403
 20
538.2431978418587
 30
0.0
 10
149.7201071863933
 20
538.2779380210721
 30
0.0
 10
149.7054699011504
 20
538.2822525141627
 30
0.0
  0
ELLIPSE
  5
12A
330
DD
100
AcDbEntity
  8
$DDT_AUDIT_GENERATED_(BC)
  6
Continuous
 62
     7
100
AcDbEllipse
 10
139.1501567968
 20
520.9247102433
 30
0.0
 11
8.5
 21
0.0
 31
0.0
210
0.0
220
0.0
230
1.0
 40
0.1305261922
 41
3.366898544896313
 42
6.057879415873021
  0
ELLIPSE
  5
12B
330
DD
100
AcDbEntity
  8
$DDT_AUDIT_GENERATED_(BC)
  6
Continuous
 62
     7
100
AcDbEllipse
 10
139.1501567968
 20
520.4289878126
 30
0.0
 11
8.500000000000002
 21
0.0
 31
0.0
210
0.0
220
0.0
230
1.0
 40
0.1305261922
 41
0.0
 42
6.283185307179586
  0
ELLIPSE
  5
12C
330
DD
100
AcDbEntity
  8
$DDT_AUDIT_GENERATED_(BC)
  6
Continuous
 62
     7
100
AcDbEllipse
 10
139.1501567968
 20
520.4289878126
 30
0.0
 11
-9.000000000000004
 21
0.0
 31
0.0
210
0.0
220
0.0
230
1.0
 40
0.1305261922
 41
0.0
 42
6.283185307179586
  0
LINE
  5
12D
330
DD
100
AcDbEntity
  8
$DDT_AUDIT_GENERATED_(BC)
  6
Continuous
 62
     7
100
AcDbLine
 10
138.4501567968
 20
520.8594471471
 30
0.0
 11
137.4501567968
 21
520.8594471471
 31
0.0
  0
LINE
  5
12E
330
DD
100
AcDbEntity
  8
$DDT_AUDIT_GENERATED_(BC)
  6
Continuous
 62
     7
100
AcDbLine
 10
137.4501567968
 20
520.8594471471
 30
0.0
 11
137.4501567968
 21
520.9899733394
 31
0.0
  0
LINE
  5
12F
330
DD
100
AcDbEntity
  8
$DDT_AUDIT_GENERATED_(BC)
  6
Continuous
 62
     7
100
AcDbLine
 10
138.4501567968
 20
520.9899733394
 30
0.0
 11
138.4501567968
 21
520.8594471471
 31
0.0
  0
LINE
  5
130
330
DD
100
AcDbEntity
  8
$DDT_AUDIT_GENERATED_(BC)
  6
Continuous
 62
     7
100
AcDbLine
 10
137.2501567968
 20
520.8594471471
 30
0.0
 11
136.2501567968
 21
520.8594471471
 31
0.0
  0
LINE
  5
131
330
DD
100
AcDbEntity
  8
$DDT_AUDIT_GENERATED_(BC)
  6
Continuous
 62
     7
100
AcDbLine
 10
136.2501567968
 20
520.8594471471
 30
0.0
 11
136.2501567968
 21
520.9899733394
 31
0.0
  0
LINE
  5
132
330
DD
100
AcDbEntity
  8
$DDT_AUDIT_GENERATED_(BC)
  6
Continuous
 62
     7
100
AcDbLine
 10
137.2501567968
 20
520.9899733394
 30
0.0
 11
137.2501567968
 21
520.8594471471
 31
0.0
  0
LINE
  5
133
330
DD
100
AcDbEntity
  8
$DDT_AUDIT_GENERATED_(BC)
  6
Continuous
 62
     7
100
AcDbLine
 10
136.0501567968
 20
520.8594471471
 30
0.0
 11
135.0501567968
 21
520.8594471471
 31
0.0
  0
LINE
  5
134
330
DD
100
AcDbEntity
  8
$DDT_AUDIT_GENERATED_(BC)
  6
Continuous
 62
     7
100
AcDbLine
 10
135.0501567968
 20
520.8594471471
 30
0.0
 11
135.0501567968
 21
520.9899733394
 31
0.0
  0
LINE
  5
135
330
DD
100
AcDbEntity
  8
$DDT_AUDIT_GENERATED_(BC)
  6
Continuous
 62
     7
100
AcDbLine
 10
136.0501567968
 20
520.9899733394
 30
0.0
 11
136.0501567968
 21
520.8594471471
 31
0.0
  0
LINE
  5
136
330
DD
100
AcDbEntity
  8
$DDT_AUDIT_GENERATED_(BC)
  6
Continuous
 62
     7
100
AcDbLine
 10
134.8501567968
 20
520.8594471471
 30
0.0
 11
133.8501567968
 21
520.8594471471
 31
0.0
  0
LINE
  5
137
330
DD
100
AcDbEntity
  8
$DDT_AUDIT_GENERATED_(BC)
  6
Continuous
 62
     7
100
AcDbLine
 10
133.8501567968
 20
520.8594471471
 30
0.0
 11
133.8501567968
 21
520.9899733394
 31
0.0
  0
LINE
  5
138
330
DD
100
AcDbEntity
  8
$DDT_AUDIT_GENERATED_(BC)
  6
Continuous
 62
     7
100
AcDbLine
 10
134.8501567968
 20
520.9899733394
 30
0.0
 11
134.8501567968
 21
520.8594471471
 31
0.0
  0
LINE
  5
139
330
DD
100
AcDbEntity
  8
$DDT_AUDIT_GENERATED_(BC)
  6
Continuous
 62
     7
100
AcDbLine
 10
133.6501567968
 20
520.8594471471
 30
0.0
 11
132.6501567968
 21
520.8594471471
 31
0.0
  0
LINE
  5
13A
330
DD
100
AcDbEntity
  8
$DDT_AUDIT_GENERATED_(BC)
  6
Continuous
 62
     7
100
AcDbLine
 10
132.6501567968
 20
520.8594471471
 30
0.0
 11
132.6501567968
 21
520.9899733394
 31
0.0
  0
LINE
  5
13B
330
DD
100
AcDbEntity
  8
$DDT_AUDIT_GENERATED_(BC)
  6
Continuous
 62
     7
100
AcDbLine
 10
133.6501567968
 20
520.9899733394
 30
0.0
 11
133.6501567968
 21
520.8594471471
 31
0.0
  0
LINE
  5
13C
330
DD
100
AcDbEntity
  8
$DDT_AUDIT_GENERATED_(BC)
  6
Continuous
 62
     7
100
AcDbLine
 10
132.4501567968
 20
520.8594471471
 30
0.0
 11
131.4501567968
 21
520.8594471471
 31
0.0
  0
LINE
  5
13D
330
DD
100
AcDbEntity
  8
$DDT_AUDIT_GENERATED_(BC)
  6
Continuous
 62
     7
100
AcDbLine
 10
131.4501567968
 20
520.8594471471
 30
0.0
 11
131.4501567968
 21
520.8988821045
 31
0.0
  0
LINE
  5
13E
330
DD
100
AcDbEntity
  8
$DDT_AUDIT_GENERATED_(BC)
  6
Continuous
 62
     7
100
AcDbLine
 10
132.4501567968
 20
520.9899733394
 30
0.0
 11
132.4501567968
 21
520.8594471471
 31
0.0
  0
LINE
  5
13F
330
DD
100
AcDbEntity
  8
$DDT_AUDIT_GENERATED_(BC)
  6
Continuous
 62
     7
100
AcDbLine
 10
139.6501567968
 20
520.7028157165
 30
0.0
 11
138.6501567968
 21
520.7028157165
 31
0.0
  0
LINE
  5
140
330
DD
100
AcDbEntity
  8
$DDT_AUDIT_GENERATED_(BC)
  6
Continuous
 62
     7
100
AcDbLine
 10
138.6501567968
 20
520.7028157165
 30
0.0
 11
138.6501567968
 21
520.8333419087
 31
0.0
  0
LINE
  5
141
330
DD
100
AcDbEntity
  8
$DDT_AUDIT_GENERATED_(BC)
  6
Continuous
 62
     7
100
AcDbLine
 10
138.6501567968
 20
520.8333419087
 30
0.0
 11
139.6501567968
 21
520.8333419087
 31
0.0
  0
LINE
  5
142
330
DD
100
AcDbEntity
  8
$DDT_AUDIT_GENERATED_(BC)
  6
Continuous
 62
     7
100
AcDbLine
 10
138.4501567968
 20
520.7028157165
 30
0.0
 11
137.4501567968
 21
520.7028157165
 31
0.0
  0
LINE
  5
143
330
DD
100
AcDbEntity
  8
$DDT_AUDIT_GENERATED_(BC)
  6
Continuous
 62
     7
100
AcDbLine
 10
137.4501567968
 20
520.7028157165
 30
0.0
 11
137.4501567968
 21
520.8333419087
 31
0.0
  0
LINE
  5
144
330
DD
100
AcDbEntity
  8
$DDT_AUDIT_GENERATED_(BC)
  6
Continuous
 62
     7
100
AcDbLine
 10
137.4501567968
 20
520.8333419087
 30
0.0
 11
138.4501567968
 21
520.8333419087
 31
0.0
  0
LINE
  5
145
330
DD
100
AcDbEntity
  8
$DDT_AUDIT_GENERATED_(BC)
  6
Continuous
 62
     7
100
AcDbLine
 10
138.4501567968
 20
520.8333419087
 30
0.0
 11
138.4501567968
 21
520.7028157165
 31
0.0
  0
LINE
  5
146
330
DD
100
AcDbEntity
  8
$DDT_AUDIT_GENERATED_(BC)
  6
Continuous
 62
     7
100
AcDbLine
 10
137.2501567968
 20
520.7028157165
 30
0.0
 11
136.2501567968
 21
520.7028157165
 31
0.0
  0
LINE
  5
147
330
DD
100
AcDbEntity
  8
$DDT_AUDIT_GENERATED_(BC)
  6
Continuous
 62
     7
100
AcDbLine
 10
136.2501567968
 20
520.7028157165
 30
0.0
 11
136.2501567968
 21
520.8333419087
 31
0.0
  0
LINE
  5
148
330
DD
100
AcDbEntity
  8
$DDT_AUDIT_GENERATED_(BC)
  6
Continuous
 62
     7
100
AcDbLine
 10
136.2501567968
 20
520.8333419087
 30
0.0
 11
137.2501567968
 21
520.8333419087
 31
0.0
  0
LINE
  5
149
330
DD
100
AcDbEntity
  8
$DDT_AUDIT_GENERATED_(BC)
  6
Continuous
 62
     7
100
AcDbLine
 10
137.2501567968
 20
520.8333419087
 30
0.0
 11
137.2501567968
 21
520.7028157165
 31
0.0
  0
LINE
  5
14A
330
DD
100
AcDbEntity
  8
$DDT_AUDIT_GENERATED_(BC)
  6
Continuous
 62
     7
100
AcDbLine
 10
136.0501567968
 20
520.7028157165
 30
0.0
 11
135.0501567968
 21
520.7028157165
 31
0.0
  0
LINE
  5
14B
330
DD
100
AcDbEntity
  8
$DDT_AUDIT_GENERATED_(BC)
  6
Continuous
 62
     7
100
AcDbLine
 10
135.0501567968
 20
520.7028157165
 30
0.0
 11
135.0501567968
 21
520.8333419087
 31
0.0
  0
LINE
  5
14C
330
DD
100
AcDbEntity
  8
$DDT_AUDIT_GENERATED_(BC)
  6
Continuous
 62
     7
100
AcDbLine
 10
135.0501567968
 20
520.8333419087
 30
0.0
 11
136.0501567968
 21
520.8333419087
 31
0.0
  0
LINE
  5
14D
330
DD
100
AcDbEntity
  8
$DDT_AUDIT_GENERATED_(BC)
  6
Continuous
 62
     7
100
AcDbLine
 10
136.0501567968
 20
520.8333419087
 30
0.0
 11
136.0501567968
 21
520.7028157165
 31
0.0
  0
LINE
  5
14E
330
DD
100
AcDbEntity
  8
$DDT_AUDIT_GENERATED_(BC)
  6
Continuous
 62
     7
100
AcDbLine
 10
134.8501567968
 20
520.7028157165
 30
0.0
 11
133.8501567968
 21
520.7028157165
 31
0.0
  0
LINE
  5
14F
330
DD
100
AcDbEntity
  8
$DDT_AUDIT_GENERATED_(BC)
  6
Continuous
 62
     7
100
AcDbLine
 10
133.8501567968
 20
520.7028157165
 30
0.0
 11
133.8501567968
 21
520.8333419087
 31
0.0
  0
LINE
  5
150
330
DD
100
AcDbEntity
  8
$DDT_AUDIT_GENERATED_(BC)
  6
Continuous
 62
     7
100
AcDbLine
 10
133.8501567968
 20
520.8333419087
 30
0.0
 11
134.8501567968
 21
520.8333419087
 31
0.0
  0
LINE
  5
151
330
DD
100
AcDbEntity
  8
$DDT_AUDIT_GENERATED_(BC)
  6
Continuous
 62
     7
100
AcDbLine
 10
134.8501567968
 20
520.8333419087
 30
0.0
 11
134.8501567968
 21
520.7028157165
 31
0.0
  0
LINE
  5
152
330
DD
100
AcDbEntity
  8
$DDT_AUDIT_GENERATED_(BC)
  6
Continuous
 62
     7
100
AcDbLine
 10
133.6501567968
 20
520.7028157165
 30
0.0
 11
132.6501567968
 21
520.7028157165
 31
0.0
  0
LINE
  5
153
330
DD
100
AcDbEntity
  8
$DDT_AUDIT_GENERATED_(BC)
  6
Continuous
 62
     7
100
AcDbLine
 10
132.6501567968
 20
520.7028157165
 30
0.0
 11
132.6501567968
 21
520.8333419087
 31
0.0
  0
LINE
  5
154
330
DD
100
AcDbEntity
  8
$DDT_AUDIT_GENERATED_(BC)
  6
Continuous
 62
     7
100
AcDbLine
 10
132.6501567968
 20
520.8333419087
 30
0.0
 11
133.6501567968
 21
520.8333419087
 31
0.0
  0
LINE
  5
155
330
DD
100
AcDbEntity
  8
$DDT_AUDIT_GENERATED_(BC)
  6
Continuous
 62
     7
100
AcDbLine
 10
133.6501567968
 20
520.8333419087
 30
0.0
 11
133.6501567968
 21
520.7028157165
 31
0.0
  0
LINE
  5
156
330
DD
100
AcDbEntity
  8
$DDT_AUDIT_GENERATED_(BC)
  6
Continuous
 62
     7
100
AcDbLine
 10
132.4501567968
 20
520.7028157165
 30
0.0
 11
131.4501567968
 21
520.7028157165
 31
0.0
  0
LINE
  5
157
330
DD
100
AcDbEntity
  8
$DDT_AUDIT_GENERATED_(BC)
  6
Continuous
 62
     7
100
AcDbLine
 10
131.4501567968
 20
520.7028157165
 30
0.0
 11
131.4501567968
 21
520.8333419087
 31
0.0
  0
LINE
  5
158
330
DD
100
AcDbEntity
  8
$DDT_AUDIT_GENERATED_(BC)
  6
Continuous
 62
     7
100
AcDbLine
 10
131.4501567968
 20
520.8333419087
 30
0.0
 11
132.4501567968
 21
520.8333419087
 31
0.0
  0
LINE
  5
159
330
DD
100
AcDbEntity
  8
$DDT_AUDIT_GENERATED_(BC)
  6
Continuous
 62
     7
100
AcDbLine
 10
132.4501567968
 20
520.8333419087
 30
0.0
 11
132.4501567968
 21
520.7028157165
 31
0.0
  0
LINE
  5
15A
330
DD
100
AcDbEntity
  8
$DDT_AUDIT_GENERATED_(BC)
  6
Continuous
 62
     7
100
AcDbLine
 10
139.6501567968
 20
520.5461842858
 30
0.0
 11
138.6501567968
 21
520.5461842858
 31
0.0
  0
LINE
  5
15B
330
DD
100
AcDbEntity
  8
$DDT_AUDIT_GENERATED_(BC)
  6
Continuous
 62
     7
100
AcDbLine
 10
138.6501567968
 20
520.5461842858
 30
0.0
 11
138.6501567968
 21
520.676710478
 31
0.0
  0
LINE
  5
15C
330
DD
100
AcDbEntity
  8
$DDT_AUDIT_GENERATED_(BC)
  6
Continuous
 62
     7
100
AcDbLine
 10
138.6501567968
 20
520.676710478
 30
0.0
 11
139.6501567968
 21
520.676710478
 31
0.0
  0
LINE
  5
15D
330
DD
100
AcDbEntity
  8
$DDT_AUDIT_GENERATED_(BC)
  6
Continuous
 62
     7
100
AcDbLine
 10
138.4501567968
 20
520.5461842858
 30
0.0
 11
137.4501567968
 21
520.5461842858
 31
0.0
  0
LINE
  5
15E
330
DD
100
AcDbEntity
  8
$DDT_AUDIT_GENERATED_(BC)
  6
Continuous
 62
     7
100
AcDbLine
 10
137.4501567968
 20
520.5461842858
 30
0.0
 11
137.4501567968
 21
520.676710478
 31
0.0
  0
LINE
  5
15F
330
DD
100
AcDbEntity
  8
$DDT_AUDIT_GENERATED_(BC)
  6
Continuous
 62
     7
100
AcDbLine
 10
137.4501567968
 20
520.676710478
 30
0.0
 11
138.4501567968
 21
520.676710478
 31
0.0
  0
LINE
  5
160
330
DD
100
AcDbEntity
  8
$DDT_AUDIT_GENERATED_(BC)
  6
Continuous
 62
     7
100
AcDbLine
 10
138.4501567968
 20
520.676710478
 30
0.0
 11
138.4501567968
 21
520.5461842858
 31
0.0
  0
LINE
  5
161
330
DD
100
AcDbEntity
  8
$DDT_AUDIT_GENERATED_(BC)
  6
Continuous
 62
     7
100
AcDbLine
 10
137.2501567968
 20
520.5461842858
 30
0.0
 11
136.2501567968
 21
520.5461842858
 31
0.0
  0
LINE
  5
162
330
DD
100
AcDbEntity
  8
$DDT_AUDIT_GENERATED_(BC)
  6
Continuous
 62
     7
100
AcDbLine
 10
136.2501567968
 20
520.5461842858
 30
0.0
 11
136.2501567968
 21
520.676710478
 31
0.0
  0
LINE
  5
163
330
DD
100
AcDbEntity
  8
$DDT_AUDIT_GENERATED_(BC)
  6
Continuous
 62
     7
100
AcDbLine
 10
136.2501567968
 20
520.676710478
 30
0.0
 11
137.2501567968
 21
520.676710478
 31
0.0
  0
LINE
  5
164
330
DD
100
AcDbEntity
  8
$DDT_AUDIT_GENERATED_(BC)
  6
Continuous
 62
     7
100
AcDbLine
 10
137.2501567968
 20
520.676710478
 30
0.0
 11
137.2501567968
 21
520.5461842858
 31
0.0
  0
LINE
  5
165
330
DD
100
AcDbEntity
  8
$DDT_AUDIT_GENERATED_(BC)
  6
Continuous
 62
     7
100
AcDbLine
 10
136.0501567968
 20
520.5461842858
 30
0.0
 11
135.0501567968
 21
520.5461842858
 31
0.0
  0
LINE
  5
166
330
DD
100
AcDbEntity
  8
$DDT_AUDIT_GENERATED_(BC)
  6
Continuous
 62
     7
100
AcDbLine
 10
135.0501567968
 20
520.5461842858
 30
0.0
 11
135.0501567968
 21
520.676710478
 31
0.0
  0
LINE
  5
167
330
DD
100
AcDbEntity
  8
$DDT_AUDIT_GENERATED_(BC)
  6
Continuous
 62
     7
100
AcDbLine
 10
135.0501567968
 20
520.676710478
 30
0.0
 11
136.0501567968
 21
520.676710478
 31
0.0
  0
LINE
  5
168
330
DD
100
AcDbEntity
  8
$DDT_AUDIT_GENERATED_(BC)
  6
Continuous
 62
     7
100
AcDbLine
 10
136.0501567968
 20
520.676710478
 30
0.0
 11
136.0501567968
 21
520.5461842858
 31
0.0
  0
LINE
  5
169
330
DD
100
AcDbEntity
  8
$DDT_AUDIT_GENERATED_(BC)
  6
Continuous
 62
     7
100
AcDbLine
 10
134.8501567968
 20
520.5461842858
 30
0.0
 11
133.8501567968
 21
520.5461842858
 31
0.0
  0
LINE
  5
16A
330
DD
100
AcDbEntity
  8
$DDT_AUDIT_GENERATED_(BC)
  6
Continuous
 62
     7
100
AcDbLine
 10
133.8501567968
 20
520.5461842858
 30
0.0
 11
133.8501567968
 21
520.676710478
 31
0.0
  0
LINE
  5
16B
330
DD
100
AcDbEntity
  8
$DDT_AUDIT_GENERATED_(BC)
  6
Continuous
 62
     7
100
AcDbLine
 10
133.8501567968
 20
520.676710478
 30
0.0
 11
134.8501567968
 21
520.676710478
 31
0.0
  0
LINE
  5
16C
330
DD
100
AcDbEntity
  8
$DDT_AUDIT_GENERATED_(BC)
  6
Continuous
 62
     7
100
AcDbLine
 10
134.8501567968
 20
520.676710478
 30
0.0
 11
134.8501567968
 21
520.5461842858
 31
0.0
  0
LINE
  5
16D
330
DD
100
AcDbEntity
  8
$DDT_AUDIT_GENERATED_(BC)
  6
Continuous
 62
     7
100
AcDbLine
 10
133.6501567968
 20
520.5461842858
 30
0.0
 11
132.6501567968
 21
520.5461842858
 31
0.0
  0
LINE
  5
16E
330
DD
100
AcDbEntity
  8
$DDT_AUDIT_GENERATED_(BC)
  6
Continuous
 62
     7
100
AcDbLine
 10
132.6501567968
 20
520.5461842858
 30
0.0
 11
132.6501567968
 21
520.676710478
 31
0.0
  0
LINE
  5
16F
330
DD
100
AcDbEntity
  8
$DDT_AUDIT_GENERATED_(BC)
  6
Continuous
 62
     7
100
AcDbLine
 10
132.6501567968
 20
520.676710478
 30
0.0
 11
133.6501567968
 21
520.676710478
 31
0.0
  0
LINE
  5
170
330
DD
100
AcDbEntity
  8
$DDT_AUDIT_GENERATED_(BC)
  6
Continuous
 62
     7
100
AcDbLine
 10
133.6501567968
 20
520.676710478
 30
0.0
 11
133.6501567968
 21
520.5461842858
 31
0.0
  0
LINE
  5
171
330
DD
100
AcDbEntity
  8
$DDT_AUDIT_GENERATED_(BC)
  6
Continuous
 62
     7
100
AcDbLine
 10
139.6501567968
 20
520.3895528552
 30
0.0
 11
138.6501567968
 21
520.3895528552
 31
0.0
  0
LINE
  5
172
330
DD
100
AcDbEntity
  8
$DDT_AUDIT_GENERATED_(BC)
  6
Continuous
 62
     7
100
AcDbLine
 10
138.6501567968
 20
520.3895528552
 30
0.0
 11
138.6501567968
 21
520.5200790474
 31
0.0
  0
LINE
  5
173
330
DD
100
AcDbEntity
  8
$DDT_AUDIT_GENERATED_(BC)
  6
Continuous
 62
     7
100
AcDbLine
 10
138.6501567968
 20
520.5200790474
 30
0.0
 11
139.6501567968
 21
520.5200790474
 31
0.0
  0
LINE
  5
174
330
DD
100
AcDbEntity
  8
$DDT_AUDIT_GENERATED_(BC)
  6
Continuous
 62
     7
100
AcDbLine
 10
138.4501567968
 20
520.3895528552
 30
0.0
 11
137.4501567968
 21
520.3895528552
 31
0.0
  0
LINE
  5
175
330
DD
100
AcDbEntity
  8
$DDT_AUDIT_GENERATED_(BC)
  6
Continuous
 62
     7
100
AcDbLine
 10
137.4501567968
 20
520.3895528552
 30
0.0
 11
137.4501567968
 21
520.5200790474
 31
0.0
  0
LINE
  5
176
330
DD
100
AcDbEntity
  8
$DDT_AUDIT_GENERATED_(BC)
  6
Continuous
 62
     7
100
AcDbLine
 10
137.4501567968
 20
520.5200790474
 30
0.0
 11
138.4501567968
 21
520.5200790474
 31
0.0
  0
LINE
  5
177
330
DD
100
AcDbEntity
  8
$DDT_AUDIT_GENERATED_(BC)
  6
Continuous
 62
     7
100
AcDbLine
 10
138.4501567968
 20
520.5200790474
 30
0.0
 11
138.4501567968
 21
520.3895528552
 31
0.0
  0
LINE
  5
178
330
DD
100
AcDbEntity
  8
$DDT_AUDIT_GENERATED_(BC)
  6
Continuous
 62
     7
100
AcDbLine
 10
137.2501567968
 20
520.3895528552
 30
0.0
 11
136.2501567968
 21
520.3895528552
 31
0.0
  0
LINE
  5
179
330
DD
100
AcDbEntity
  8
$DDT_AUDIT_GENERATED_(BC)
  6
Continuous
 62
     7
100
AcDbLine
 10
136.2501567968
 20
520.3895528552
 30
0.0
 11
136.2501567968
 21
520.5200790474
 31
0.0
  0
LINE
  5
17A
330
DD
100
AcDbEntity
  8
$DDT_AUDIT_GENERATED_(BC)
  6
Continuous
 62
     7
100
AcDbLine
 10
136.2501567968
 20
520.5200790474
 30
0.0
 11
137.2501567968
 21
520.5200790474
 31
0.0
  0
LINE
  5
17B
330
DD
100
AcDbEntity
  8
$DDT_AUDIT_GENERATED_(BC)
  6
Continuous
 62
     7
100
AcDbLine
 10
137.2501567968
 20
520.5200790474
 30
0.0
 11
137.2501567968
 21
520.3895528552
 31
0.0
  0
LINE
  5
17C
330
DD
100
AcDbEntity
  8
$DDT_AUDIT_GENERATED_(BC)
  6
Continuous
 62
     7
100
AcDbLine
 10
136.0501567968
 20
520.3895528552
 30
0.0
 11
135.0501567968
 21
520.3895528552
 31
0.0
  0
LINE
  5
17D
330
DD
100
AcDbEntity
  8
$DDT_AUDIT_GENERATED_(BC)
  6
Continuous
 62
     7
100
AcDbLine
 10
135.0501567968
 20
520.3895528552
 30
0.0
 11
135.0501567968
 21
520.5200790474
 31
0.0
  0
LINE
  5
17E
330
DD
100
AcDbEntity
  8
$DDT_AUDIT_GENERATED_(BC)
  6
Continuous
 62
     7
100
AcDbLine
 10
135.0501567968
 20
520.5200790474
 30
0.0
 11
136.0501567968
 21
520.5200790474
 31
0.0
  0
LINE
  5
17F
330
DD
100
AcDbEntity
  8
$DDT_AUDIT_GENERATED_(BC)
  6
Continuous
 62
     7
100
AcDbLine
 10
136.0501567968
 20
520.5200790474
 30
0.0
 11
136.0501567968
 21
520.3895528552
 31
0.0
  0
LINE
  5
180
330
DD
100
AcDbEntity
  8
$DDT_AUDIT_GENERATED_(BC)
  6
Continuous
 62
     7
100
AcDbLine
 10
134.8501567968
 20
520.3895528552
 30
0.0
 11
133.8501567968
 21
520.3895528552
 31
0.0
  0
LINE
  5
181
330
DD
100
AcDbEntity
  8
$DDT_AUDIT_GENERATED_(BC)
  6
Continuous
 62
     7
100
AcDbLine
 10
133.8501567968
 20
520.3895528552
 30
0.0
 11
133.8501567968
 21
520.5200790474
 31
0.0
  0
LINE
  5
182
330
DD
100
AcDbEntity
  8
$DDT_AUDIT_GENERATED_(BC)
  6
Continuous
 62
     7
100
AcDbLine
 10
133.8501567968
 20
520.5200790474
 30
0.0
 11
134.8501567968
 21
520.5200790474
 31
0.0
  0
LINE
  5
183
330
DD
100
AcDbEntity
  8
$DDT_AUDIT_GENERATED_(BC)
  6
Continuous
 62
     7
100
AcDbLine
 10
134.8501567968
 20
520.5200790474
 30
0.0
 11
134.8501567968
 21
520.3895528552
 31
0.0
  0
LINE
  5
184
330
DD
100
AcDbEntity
  8
$DDT_AUDIT_GENERATED_(BC)
  6
Continuous
 62
     7
100
AcDbLine
 10
133.6501567968
 20
520.3895528552
 30
0.0
 11
132.6501567968
 21
520.3895528552
 31
0.0
  0
LINE
  5
185
330
DD
100
AcDbEntity
  8
$DDT_AUDIT_GENERATED_(BC)
  6
Continuous
 62
     7
100
AcDbLine
 10
132.6501567968
 20
520.3895528552
 30
0.0
 11
132.6501567968
 21
520.5200790474
 31
0.0
  0
LINE
  5
186
330
DD
100
AcDbEntity
  8
$DDT_AUDIT_GENERATED_(BC)
  6
Continuous
 62
     7
100
AcDbLine
 10
132.6501567968
 20
520.5200790474
 30
0.0
 11
133.6501567968
 21
520.5200790474
 31
0.0
  0
LINE
  5
187
330
DD
100
AcDbEntity
  8
$DDT_AUDIT_GENERATED_(BC)
  6
Continuous
 62
     7
100
AcDbLine
 10
133.6501567968
 20
520.5200790474
 30
0.0
 11
133.6501567968
 21
520.3895528552
 31
0.0
  0
LINE
  5
188
330
DD
100
AcDbEntity
  8
$DDT_AUDIT_GENERATED_(BC)
  6
Continuous
 62
     7
100
AcDbLine
 10
139.6501567968
 20
520.2329214245
 30
0.0
 11
138.6501567968
 21
520.2329214245
 31
0.0
  0
LINE
  5
189
330
DD
100
AcDbEntity
  8
$DDT_AUDIT_GENERATED_(BC)
  6
Continuous
 62
     7
100
AcDbLine
 10
138.6501567968
 20
520.2329214245
 30
0.0
 11
138.6501567968
 21
520.3634476167
 31
0.0
  0
LINE
  5
18A
330
DD
100
AcDbEntity
  8
$DDT_AUDIT_GENERATED_(BC)
  6
Continuous
 62
     7
100
AcDbLine
 10
138.6501567968
 20
520.3634476167
 30
0.0
 11
139.6501567968
 21
520.3634476167
 31
0.0
  0
LINE
  5
18B
330
DD
100
AcDbEntity
  8
$DDT_AUDIT_GENERATED_(BC)
  6
Continuous
 62
     7
100
AcDbLine
 10
138.4501567968
 20
520.2329214245
 30
0.0
 11
137.4501567968
 21
520.2329214245
 31
0.0
  0
LINE
  5
18C
330
DD
100
AcDbEntity
  8
$DDT_AUDIT_GENERATED_(BC)
  6
Continuous
 62
     7
100
AcDbLine
 10
137.4501567968
 20
520.2329214245
 30
0.0
 11
137.4501567968
 21
520.3634476167
 31
0.0
  0
LINE
  5
18D
330
DD
100
AcDbEntity
  8
$DDT_AUDIT_GENERATED_(BC)
  6
Continuous
 62
     7
100
AcDbLine
 10
137.4501567968
 20
520.3634476167
 30
0.0
 11
138.4501567968
 21
520.3634476167
 31
0.0
  0
LINE
  5
18E
330
DD
100
AcDbEntity
  8
$DDT_AUDIT_GENERATED_(BC)
  6
Continuous
 62
     7
100
AcDbLine
 10
138.4501567968
 20
520.3634476167
 30
0.0
 11
138.4501567968
 21
520.2329214245
 31
0.0
  0
LINE
  5
18F
330
DD
100
AcDbEntity
  8
$DDT_AUDIT_GENERATED_(BC)
  6
Continuous
 62
     7
100
AcDbLine
 10
137.2501567968
 20
520.2329214245
 30
0.0
 11
136.2501567968
 21
520.2329214245
 31
0.0
  0
LINE
  5
190
330
DD
100
AcDbEntity
  8
$DDT_AUDIT_GENERATED_(BC)
  6
Continuous
 62
     7
100
AcDbLine
 10
136.2501567968
 20
520.2329214245
 30
0.0
 11
136.2501567968
 21
520.3634476167
 31
0.0
  0
LINE
  5
191
330
DD
100
AcDbEntity
  8
$DDT_AUDIT_GENERATED_(BC)
  6
Continuous
 62
     7
100
AcDbLine
 10
136.2501567968
 20
520.3634476167
 30
0.0
 11
137.2501567968
 21
520.3634476167
 31
0.0
  0
LINE
  5
192
330
DD
100
AcDbEntity
  8
$DDT_AUDIT_GENERATED_(BC)
  6
Continuous
 62
     7
100
AcDbLine
 10
137.2501567968
 20
520.3634476167
 30
0.0
 11
137.2501567968
 21
520.2329214245
 31
0.0
  0
LINE
  5
193
330
DD
100
AcDbEntity
  8
$DDT_AUDIT_GENERATED_(BC)
  6
Continuous
 62
     7
100
AcDbLine
 10
136.0501567968
 20
520.2329214245
 30
0.0
 11
135.0501567968
 21
520.2329214245
 31
0.0
  0
LINE
  5
194
330
DD
100
AcDbEntity
  8
$DDT_AUDIT_GENERATED_(BC)
  6
Continuous
 62
     7
100
AcDbLine
 10
135.0501567968
 20
520.2329214245
 30
0.0
 11
135.0501567968
 21
520.3634476167
 31
0.0
  0
LINE
  5
195
330
DD
100
AcDbEntity
  8
$DDT_AUDIT_GENERATED_(BC)
  6
Continuous
 62
     7
100
AcDbLine
 10
135.0501567968
 20
520.3634476167
 30
0.0
 11
136.0501567968
 21
520.3634476167
 31
0.0
  0
LINE
  5
196
330
DD
100
AcDbEntity
  8
$DDT_AUDIT_GENERATED_(BC)
  6
Continuous
 62
     7
100
AcDbLine
 10
136.0501567968
 20
520.3634476167
 30
0.0
 11
136.0501567968
 21
520.2329214245
 31
0.0
  0
LINE
  5
197
330
DD
100
AcDbEntity
  8
$DDT_AUDIT_GENERATED_(BC)
  6
Continuous
 62
     7
100
AcDbLine
 10
134.8501567968
 20
520.2329214245
 30
0.0
 11
133.8501567968
 21
520.2329214245
 31
0.0
  0
LINE
  5
198
330
DD
100
AcDbEntity
  8
$DDT_AUDIT_GENERATED_(BC)
  6
Continuous
 62
     7
100
AcDbLine
 10
133.8501567968
 20
520.2329214245
 30
0.0
 11
133.8501567968
 21
520.3634476167
 31
0.0
  0
LINE
  5
199
330
DD
100
AcDbEntity
  8
$DDT_AUDIT_GENERATED_(BC)
  6
Continuous
 62
     7
100
AcDbLine
 10
133.8501567968
 20
520.3634476167
 30
0.0
 11
134.8501567968
 21
520.3634476167
 31
0.0
  0
LINE
  5
19A
330
DD
100
AcDbEntity
  8
$DDT_AUDIT_GENERATED_(BC)
  6
Continuous
 62
     7
100
AcDbLine
 10
134.8501567968
 20
520.3634476167
 30
0.0
 11
134.8501567968
 21
520.2329214245
 31
0.0
  0
LINE
  5
19B
330
DD
100
AcDbEntity
  8
$DDT_AUDIT_GENERATED_(BC)
  6
Continuous
 62
     7
100
AcDbLine
 10
139.6501567968
 20
520.0762899938
 30
0.0
 11
138.6501567968
 21
520.0762899938
 31
0.0
  0
LINE
  5
19C
330
DD
100
AcDbEntity
  8
$DDT_AUDIT_GENERATED_(BC)
  6
Continuous
 62
     7
100
AcDbLine
 10
138.6501567968
 20
520.0762899938
 30
0.0
 11
138.6501567968
 21
520.2068161861
 31
0.0
  0
LINE
  5
19D
330
DD
100
AcDbEntity
  8
$DDT_AUDIT_GENERATED_(BC)
  6
Continuous
 62
     7
100
AcDbLine
 10
138.6501567968
 20
520.2068161861
 30
0.0
 11
139.6501567968
 21
520.2068161861
 31
0.0
  0
LINE
  5
19E
330
DD
100
AcDbEntity
  8
$DDT_AUDIT_GENERATED_(BC)
  6
Continuous
 62
     7
100
AcDbLine
 10
138.4501567968
 20
520.0762899938
 30
0.0
 11
137.4501567968
 21
520.0762899938
 31
0.0
  0
LINE
  5
19F
330
DD
100
AcDbEntity
  8
$DDT_AUDIT_GENERATED_(BC)
  6
Continuous
 62
     7
100
AcDbLine
 10
137.4501567968
 20
520.0762899938
 30
0.0
 11
137.4501567968
 21
520.2068161861
 31
0.0
  0
LINE
  5
1A0
330
DD
100
AcDbEntity
  8
$DDT_AUDIT_GENERATED_(BC)
  6
Continuous
 62
     7
100
AcDbLine
 10
137.4501567968
 20
520.2068161861
 30
0.0
 11
138.4501567968
 21
520.2068161861
 31
0.0
  0
LINE
  5
1A1
330
DD
100
AcDbEntity
  8
$DDT_AUDIT_GENERATED_(BC)
  6
Continuous
 62
     7
100
AcDbLine
 10
138.4501567968
 20
520.2068161861
 30
0.0
 11
138.4501567968
 21
520.0762899938
 31
0.0
  0
LINE
  5
1A2
330
DD
100
AcDbEntity
  8
$DDT_AUDIT_GENERATED_(BC)
  6
Continuous
 62
     7
100
AcDbLine
 10
137.2501567968
 20
520.0762899938
 30
0.0
 11
136.2501567968
 21
520.0762899938
 31
0.0
  0
LINE
  5
1A3
330
DD
100
AcDbEntity
  8
$DDT_AUDIT_GENERATED_(BC)
  6
Continuous
 62
     7
100
AcDbLine
 10
136.2501567968
 20
520.0762899938
 30
0.0
 11
136.2501567968
 21
520.2068161861
 31
0.0
  0
LINE
  5
1A4
330
DD
100
AcDbEntity
  8
$DDT_AUDIT_GENERATED_(BC)
  6
Continuous
 62
     7
100
AcDbLine
 10
136.2501567968
 20
520.2068161861
 30
0.0
 11
137.2501567968
 21
520.2068161861
 31
0.0
  0
LINE
  5
1A5
330
DD
100
AcDbEntity
  8
$DDT_AUDIT_GENERATED_(BC)
  6
Continuous
 62
     7
100
AcDbLine
 10
137.2501567968
 20
520.2068161861
 30
0.0
 11
137.2501567968
 21
520.0762899938
 31
0.0
  0
LINE
  5
1A6
330
DD
100
AcDbEntity
  8
$DDT_AUDIT_GENERATED_(BC)
  6
Continuous
 62
     7
100
AcDbLine
 10
136.0501567968
 20
520.0762899938
 30
0.0
 11
135.0501567968
 21
520.0762899938
 31
0.0
  0
LINE
  5
1A7
330
DD
100
AcDbEntity
  8
$DDT_AUDIT_GENERATED_(BC)
  6
Continuous
 62
     7
100
AcDbLine
 10
135.0501567968
 20
520.0762899938
 30
0.0
 11
135.0501567968
 21
520.2068161861
 31
0.0
  0
LINE
  5
1A8
330
DD
100
AcDbEntity
  8
$DDT_AUDIT_GENERATED_(BC)
  6
Continuous
 62
     7
100
AcDbLine
 10
135.0501567968
 20
520.2068161861
 30
0.0
 11
136.0501567968
 21
520.2068161861
 31
0.0
  0
LINE
  5
1A9
330
DD
100
AcDbEntity
  8
$DDT_AUDIT_GENERATED_(BC)
  6
Continuous
 62
     7
100
AcDbLine
 10
136.0501567968
 20
520.2068161861
 30
0.0
 11
136.0501567968
 21
520.0762899938
 31
0.0
  0
LINE
  5
1AA
330
DD
100
AcDbEntity
  8
$DDT_AUDIT_GENERATED_(BC)
  6
Continuous
 62
     7
100
AcDbLine
 10
139.6501567968
 20
519.9196585632
 30
0.0
 11
138.6501567968
 21
519.9196585632
 31
0.0
  0
LINE
  5
1AB
330
DD
100
AcDbEntity
  8
$DDT_AUDIT_GENERATED_(BC)
  6
Continuous
 62
     7
100
AcDbLine
 10
138.6501567968
 20
519.9196585632
 30
0.0
 11
138.6501567968
 21
520.0501847554
 31
0.0
  0
LINE
  5
1AC
330
DD
100
AcDbEntity
  8
$DDT_AUDIT_GENERATED_(BC)
  6
Continuous
 62
     7
100
AcDbLine
 10
138.6501567968
 20
520.0501847554
 30
0.0
 11
139.6501567968
 21
520.0501847554
 31
0.0
  0
LINE
  5
1AD
330
DD
100
AcDbEntity
  8
$DDT_AUDIT_GENERATED_(BC)
  6
Continuous
 62
     7
100
AcDbLine
 10
138.4501567968
 20
519.9196585632
 30
0.0
 11
137.4501567968
 21
519.9196585632
 31
0.0
  0
LINE
  5
1AE
330
DD
100
AcDbEntity
  8
$DDT_AUDIT_GENERATED_(BC)
  6
Continuous
 62
     7
100
AcDbLine
 10
137.4501567968
 20
519.9196585632
 30
0.0
 11
137.4501567968
 21
520.0501847554
 31
0.0
  0
LINE
  5
1AF
330
DD
100
AcDbEntity
  8
$DDT_AUDIT_GENERATED_(BC)
  6
Continuous
 62
     7
100
AcDbLine
 10
137.4501567968
 20
520.0501847554
 30
0.0
 11
138.4501567968
 21
520.0501847554
 31
0.0
  0
LINE
  5
1B0
330
DD
100
AcDbEntity
  8
$DDT_AUDIT_GENERATED_(BC)
  6
Continuous
 62
     7
100
AcDbLine
 10
138.4501567968
 20
520.0501847554
 30
0.0
 11
138.4501567968
 21
519.9196585632
 31
0.0
  0
LINE
  5
1B1
330
DD
100
AcDbEntity
  8
$DDT_AUDIT_GENERATED_(BC)
  6
Continuous
 62
     7
100
AcDbLine
 10
137.2501567968
 20
519.9196585632
 30
0.0
 11
136.2501567968
 21
519.9196585632
 31
0.0
  0
LINE
  5
1B2
330
DD
100
AcDbEntity
  8
$DDT_AUDIT_GENERATED_(BC)
  6
Continuous
 62
     7
100
AcDbLine
 10
136.2501567968
 20
519.9196585632
 30
0.0
 11
136.2501567968
 21
520.0501847554
 31
0.0
  0
LINE
  5
1B3
330
DD
100
AcDbEntity
  8
$DDT_AUDIT_GENERATED_(BC)
  6
Continuous
 62
     7
100
AcDbLine
 10
136.2501567968
 20
520.0501847554
 30
0.0
 11
137.2501567968
 21
520.0501847554
 31
0.0
  0
LINE
  5
1B4
330
DD
100
AcDbEntity
  8
$DDT_AUDIT_GENERATED_(BC)
  6
Continuous
 62
     7
100
AcDbLine
 10
137.2501567968
 20
520.0501847554
 30
0.0
 11
137.2501567968
 21
519.9196585632
 31
0.0
  0
ARC
  5
1B5
330
DD
100
AcDbEntity
  8
$DDT_AUDIT_GENERATED_(BC)
  6
Continuous
 62
     7
100
AcDbCircle
 10
139.1501567968
 20
582.9393665903
 30
0.0
 40
63.09149922450474
100
AcDbArc
 50
269.5459263135
 51
270.4540736865
  0
LINE
  5
1B6
330
DD
100
AcDbEntity
  8
$DDT_AUDIT_GENERATED_(BC)
  6
Continuous
 62
     7
100
AcDbLine
 10
138.6501567968
 20
519.8498486464
 30
0.0
 11
138.6501567968
 21
519.8935533247
 31
0.0
  0
LINE
  5
1B7
330
DD
100
AcDbEntity
  8
$DDT_AUDIT_GENERATED_(BC)
  6
Continuous
 62
     7
100
AcDbLine
 10
138.6501567968
 20
519.8935533247
 30
0.0
 11
139.6501567968
 21
519.8935533247
 31
0.0
  0
ELLIPSE
  5
1B8
330
DD
100
AcDbEntity
  8
$DDT_AUDIT_GENERATED_(BC)
  6
Continuous
 62
     7
100
AcDbEllipse
 10
139.1501567968
 20
520.9247102432
 30
0.0
 11
-8.249999999956119
 21
1.512678871051776E-12
 31
0.0
210
0.0
220
0.0
230
1.0
 40
0.1305261922
 41
1.363248876312164
 42
1.485845702910199
  0
LINE
  5
1B9
330
DD
100
AcDbEntity
  8
$DDT_AUDIT_GENERATED_(BC)
  6
Continuous
 62
     7
100
AcDbLine
 10
137.4501567968
 20
519.8709789952
 30
0.0
 11
137.4501567968
 21
519.8935533247
 31
0.0
  0
LINE
  5
1BA
330
DD
100
AcDbEntity
  8
$DDT_AUDIT_GENERATED_(BC)
  6
Continuous
 62
     7
100
AcDbLine
 10
137.4501567968
 20
519.8935533247
 30
0.0
 11
138.4501567968
 21
519.8935533247
 31
0.0
  0
LINE
  5
1BB
330
DD
100
AcDbEntity
  8
$DDT_AUDIT_GENERATED_(BC)
  6
Continuous
 62
     7
100
AcDbLine
 10
138.4501567968
 20
519.8935533247
 30
0.0
 11
138.4501567968
 21
519.8517523916
 31
0.0
  0
ELLIPSE
  5
1BC
330
DD
100
AcDbEntity
  8
$DDT_AUDIT_GENERATED_(BC)
  6
Continuous
 62
     7
100
AcDbEllipse
 10
139.1501567964
 20
520.9247102431
 30
0.0
 11
-8.249999999117723
 21
5.270783809407931E-11
 31
0.0
210
0.0
220
0.0
230
1.0
 40
0.1305261922
 41
1.278468933663546
 42
1.338407254341704
  0
LINE
  5
1BD
330
DD
100
AcDbEntity
  8
$DDT_AUDIT_GENERATED_(BC)
  6
Continuous
 62
     7
100
AcDbLine
 10
136.7726581112
 20
519.8935533247
 30
0.0
 11
137.2501567968
 21
519.8935533247
 31
0.0
  0
LINE
  5
1BE
330
DD
100
AcDbEntity
  8
$DDT_AUDIT_GENERATED_(BC)
  6
Continuous
 62
     7
100
AcDbLine
 10
137.2501567968
 20
519.8935533247
 30
0.0
 11
137.2501567968
 21
519.8768157636
 31
0.0
  0
ELLIPSE
  5
1BF
330
DD
100
AcDbEntity
  8
$DDT_AUDIT_GENERATED_(BC)
  6
Continuous
 62
     7
100
AcDbEllipse
 10
139.1501567969
 20
520.9247102433
 30
0.0
 11
-8.250000000070212
 21
-6.286637876939949E-12
 31
0.0
210
0.0
220
0.0
230
1.0
 40
0.1305261922
 41
1.050693123528108
 42
1.185582205129305
  0
LINE
  5
1C0
330
DD
100
AcDbEntity
  8
$DDT_AUDIT_GENERATED_(BC)
  6
Continuous
 62
     7
100
AcDbLine
 10
135.0501567968
 20
519.9902621206
 30
0.0
 11
135.0501567968
 21
520.0501847554
 31
0.0
  0
LINE
  5
1C1
330
DD
100
AcDbEntity
  8
$DDT_AUDIT_GENERATED_(BC)
  6
Continuous
 62
     7
100
AcDbLine
 10
135.0501567968
 20
520.0501847554
 30
0.0
 11
136.0501567968
 21
520.0501847554
 31
0.0
  0
LINE
  5
1C2
330
DD
100
AcDbEntity
  8
$DDT_AUDIT_GENERATED_(BC)
  6
Continuous
 62
     7
100
AcDbLine
 10
136.0501567968
 20
520.0501847554
 30
0.0
 11
136.0501567968
 21
519.9267822301
 31
0.0
  0
ELLIPSE
  5
1C3
330
DD
100
AcDbEntity
  8
$DDT_AUDIT_GENERATED_(BC)
  6
Continuous
 62
     7
100
AcDbEllipse
 10
139.1501567696
 20
520.9247102389
 30
0.0
 11
-8.24999996976333
 21
2.811542665348554E-9
 31
0.0
210
0.0
220
0.0
230
1.0
 40
0.1305261921
 41
0.8731388752056796
 42
0.9073568939266473
  0
LINE
  5
1C4
330
DD
100
AcDbEntity
  8
$DDT_AUDIT_GENERATED_(BC)
  6
Continuous
 62
     7
100
AcDbLine
 10
133.8501567968
 20
520.0994739412
 30
0.0
 11
133.8501567968
 21
520.2068161861
 31
0.0
  0
LINE
  5
1C5
330
DD
100
AcDbEntity
  8
$DDT_AUDIT_GENERATED_(BC)
  6
Continuous
 62
     7
100
AcDbLine
 10
133.8501567968
 20
520.2068161861
 30
0.0
 11
134.8501567968
 21
520.2068161861
 31
0.0
  0
LINE
  5
1C6
330
DD
100
AcDbEntity
  8
$DDT_AUDIT_GENERATED_(BC)
  6
Continuous
 62
     7
100
AcDbLine
 10
134.8501567968
 20
520.2068161861
 30
0.0
 11
134.8501567968
 21
520.0762899938
 31
0.0
  0
LINE
  5
1C7
330
DD
100
AcDbEntity
  8
$DDT_AUDIT_GENERATED_(BC)
  6
Continuous
 62
     7
100
AcDbLine
 10
134.8501567968
 20
520.0762899938
 30
0.0
 11
134.0695564386
 21
520.0762899938
 31
0.0
  0
LINE
  5
1C8
330
DD
100
AcDbEntity
  8
$DDT_AUDIT_GENERATED_(BC)
  6
Continuous
 62
     7
100
AcDbLine
 10
134.0695564386
 20
520.0762899938
 30
0.0
 11
134.0695564386
 21
520.2068161861
 31
0.0
  0
ELLIPSE
  5
1C9
330
DD
100
AcDbEntity
  8
$DDT_AUDIT_GENERATED_(BC)
  6
Continuous
 62
     7
100
AcDbEllipse
 10
139.1501567971
 20
520.9247102433
 30
0.0
 11
-8.250000000371553
 21
-3.486100297322992E-11
 31
0.0
210
0.0
220
0.0
230
1.0
 40
0.1305261922
 41
0.9477783669571147
 42
1.022525692694387
  0
LINE
  5
1CA
330
DD
100
AcDbEntity
  8
$DDT_AUDIT_GENERATED_(BC)
  6
Continuous
 62
     7
100
AcDbLine
 10
134.3363745001
 20
520.0501847554
 30
0.0
 11
134.8501567968
 21
520.0501847554
 31
0.0
  0
LINE
  5
1CB
330
DD
100
AcDbEntity
  8
$DDT_AUDIT_GENERATED_(BC)
  6
Continuous
 62
     7
100
AcDbLine
 10
134.8501567968
 20
520.0501847554
 30
0.0
 11
134.8501567968
 21
520.0057048091
 31
0.0
  0
ELLIPSE
  5
1CC
330
DD
100
AcDbEntity
  8
$DDT_AUDIT_GENERATED_(BC)
  6
Continuous
 62
     7
100
AcDbEllipse
 10
139.1501567632
 20
520.9247102397
 30
0.0
 11
-8.249999965262957
 21
2.826322509363877E-9
 31
0.0
210
0.0
220
0.0
230
1.0
 40
0.1305261923
 41
0.6634394355184551
 42
0.6976574542393664
  0
LINE
  5
1CD
330
DD
100
AcDbEntity
  8
$DDT_AUDIT_GENERATED_(BC)
  6
Continuous
 62
     7
100
AcDbLine
 10
132.6501567968
 20
520.2615588243
 30
0.0
 11
132.6501567968
 21
520.3634476167
 31
0.0
  0
LINE
  5
1CE
330
DD
100
AcDbEntity
  8
$DDT_AUDIT_GENERATED_(BC)
  6
Continuous
 62
     7
100
AcDbLine
 10
132.6501567968
 20
520.3634476167
 30
0.0
 11
133.6501567968
 21
520.3634476167
 31
0.0
  0
LINE
  5
1CF
330
DD
100
AcDbEntity
  8
$DDT_AUDIT_GENERATED_(BC)
  6
Continuous
 62
     7
100
AcDbLine
 10
133.6501567968
 20
520.3634476167
 30
0.0
 11
133.6501567968
 21
520.2329214245
 31
0.0
  0
LINE
  5
1D0
330
DD
100
AcDbEntity
  8
$DDT_AUDIT_GENERATED_(BC)
  6
Continuous
 62
     7
100
AcDbLine
 10
133.6501567968
 20
520.2329214245
 30
0.0
 11
132.8277759162
 21
520.2329214245
 31
0.0
  0
LINE
  5
1D1
330
DD
100
AcDbEntity
  8
$DDT_AUDIT_GENERATED_(BC)
  6
Continuous
 62
     7
100
AcDbLine
 10
132.8277759162
 20
520.2329214245
 30
0.0
 11
132.8277759162
 21
520.3634476167
 31
0.0
  0
ELLIPSE
  5
1D2
330
DD
100
AcDbEntity
  8
$DDT_AUDIT_GENERATED_(BC)
  6
Continuous
 62
     7
100
AcDbEllipse
 10
139.1501567974
 20
520.9247102433
 30
0.0
 11
-8.250000000569527
 21
-4.940492459581947E-11
 31
0.0
210
0.0
220
0.0
230
1.0
 40
0.1305261922
 41
0.7297276562057312
 42
0.8410686705415653
  0
LINE
  5
1D3
330
DD
100
AcDbEntity
  8
$DDT_AUDIT_GENERATED_(BC)
  6
Continuous
 62
     7
100
AcDbLine
 10
133.0009698587
 20
520.2068161861
 30
0.0
 11
133.6501567968
 21
520.2068161861
 31
0.0
  0
LINE
  5
1D4
330
DD
100
AcDbEntity
  8
$DDT_AUDIT_GENERATED_(BC)
  6
Continuous
 62
     7
100
AcDbLine
 10
133.6501567968
 20
520.2068161861
 30
0.0
 11
133.6501567968
 21
520.122080287
 31
0.0
  0
LINE
  5
1D5
330
DD
100
AcDbEntity
  8
$DDT_AUDIT_GENERATED_(BC)
  6
Continuous
 62
     7
100
AcDbLine
 10
132.4501567968
 20
520.5461842858
 30
0.0
 11
131.4501567968
 21
520.5461842858
 31
0.0
  0
LINE
  5
1D6
330
DD
100
AcDbEntity
  8
$DDT_AUDIT_GENERATED_(BC)
  6
Continuous
 62
     7
100
AcDbLine
 10
131.4501567968
 20
520.5461842858
 30
0.0
 11
131.4501567968
 21
520.676710478
 31
0.0
  0
LINE
  5
1D7
330
DD
100
AcDbEntity
  8
$DDT_AUDIT_GENERATED_(BC)
  6
Continuous
 62
     7
100
AcDbLine
 10
131.4501567968
 20
520.676710478
 30
0.0
 11
132.4501567968
 21
520.676710478
 31
0.0
  0
LINE
  5
1D8
330
DD
100
AcDbEntity
  8
$DDT_AUDIT_GENERATED_(BC)
  6
Continuous
 62
     7
100
AcDbLine
 10
132.4501567968
 20
520.676710478
 30
0.0
 11
132.4501567968
 21
520.5461842858
 31
0.0
  0
ELLIPSE
  5
1D9
330
DD
100
AcDbEntity
  8
$DDT_AUDIT_GENERATED_(BC)
  6
Continuous
 62
     7
100
AcDbEllipse
 10
139.1501567969
 20
520.9247102433
 30
0.0
 11
-8.250000000048249
 21
-4.121702978920894E-12
 31
0.0
210
0.0
220
0.0
230
1.0
 40
0.1305261922
 41
0.3852141216610644
 42
0.5201032032628063
  0
LINE
  5
1DA
330
DD
100
AcDbEntity
  8
$DDT_AUDIT_GENERATED_(BC)
  6
Continuous
 62
     7
100
AcDbLine
 10
131.5047333292
 20
520.5200790474
 30
0.0
 11
132.4501567968
 21
520.5200790474
 31
0.0
  0
LINE
  5
1DB
330
DD
100
AcDbEntity
  8
$DDT_AUDIT_GENERATED_(BC)
  6
Continuous
 62
     7
100
AcDbLine
 10
132.4501567968
 20
520.5200790474
 30
0.0
 11
132.4501567968
 21
520.3895528552
 31
0.0
  0
LINE
  5
1DC
330
DD
100
AcDbEntity
  8
$DDT_AUDIT_GENERATED_(BC)
  6
Continuous
 62
     7
100
AcDbLine
 10
132.4501567968
 20
520.3895528552
 30
0.0
 11
131.9910716597
 21
520.3895528552
 31
0.0
  0
LINE
  5
1DD
330
DD
100
AcDbEntity
  8
$DDT_AUDIT_GENERATED_(BC)
  6
Continuous
 62
     7
100
AcDbLine
 10
131.9910716597
 20
520.3895528552
 30
0.0
 11
131.9910716597
 21
520.5200790474
 31
0.0
  0
ELLIPSE
  5
1DE
330
DD
100
AcDbEntity
  8
$DDT_AUDIT_GENERATED_(BC)
  6
Continuous
 62
     7
100
AcDbEllipse
 10
139.1501567959
 20
520.9247102432
 30
0.0
 11
-8.249999999049063
 21
6.408762409648716E-11
 31
0.0
210
0.0
220
0.0
230
1.0
 40
0.1305261922
 41
0.5482706341132402
 42
0.6230179598581992
  0
LINE
  5
1DF
330
DD
100
AcDbEntity
  8
$DDT_AUDIT_GENERATED_(BC)
  6
Continuous
 62
     7
100
AcDbLine
 10
132.1093826917
 20
520.3634476167
 30
0.0
 11
132.4501567968
 21
520.3634476167
 31
0.0
  0
LINE
  5
1E0
330
DD
100
AcDbEntity
  8
$DDT_AUDIT_GENERATED_(BC)
  6
Continuous
 62
     7
100
AcDbLine
 10
132.4501567968
 20
520.3634476167
 30
0.0
 11
132.4501567968
 21
520.2963855699
 31
0.0
  0
ELLIPSE
  5
1E1
330
DD
100
AcDbEntity
  8
$DDT_AUDIT_GENERATED_(BC)
  6
Continuous
 62
     7
100
AcDbEllipse
 10
139.1501567971
 20
520.9247102433
 30
0.0
 11
-8.250000000258879
 21
-5.301314942585122E-12
 31
0.0
210
0.0
220
0.0
230
1.0
 40
0.1305261922
 41
0.1640860757341367
 42
0.2075474504797401
  0
LINE
  5
1E2
330
DD
100
AcDbEntity
  8
$DDT_AUDIT_GENERATED_(BC)
  6
Continuous
 62
     7
100
AcDbLine
 10
131.2347820272
 20
520.8333419087
 30
0.0
 11
131.2501567968
 21
520.8333419087
 31
0.0
  0
LINE
  5
1E3
330
DD
100
AcDbEntity
  8
$DDT_AUDIT_GENERATED_(BC)
  6
Continuous
 62
     7
100
AcDbLine
 10
131.2501567968
 20
520.8333419087
 30
0.0
 11
131.2501567968
 21
520.7028157165
 31
0.0
  0
LINE
  5
1E4
330
DD
100
AcDbEntity
  8
$DDT_AUDIT_GENERATED_(BC)
  6
Continuous
 62
     7
100
AcDbLine
 10
131.2501567968
 20
520.7028157165
 30
0.0
 11
131.077208141
 21
520.7028157165
 31
0.0
  0
LINE
  5
1E5
330
DD
100
AcDbEntity
  8
$DDT_AUDIT_GENERATED_(BC)
  6
Continuous
 62
     7
100
AcDbLine
 10
131.077208141
 20
520.7028157165
 30
0.0
 11
131.077208141
 21
520.7762340972
 31
0.0
  0
ELLIPSE
  5
1E6
330
DD
100
AcDbEntity
  8
$DDT_AUDIT_GENERATED_(BC)
  6
Continuous
 62
     7
100
AcDbEllipse
 10
139.1501567952
 20
520.9247102432
 30
0.0
 11
-8.249999998383187
 21
6.436517985264345E-11
 31
0.0
210
0.0
220
0.0
230
1.0
 40
0.1305261922
 41
0.2323890725046695
 42
0.292327393182898
  0
LINE
  5
1E7
330
DD
100
AcDbEntity
  8
$DDT_AUDIT_GENERATED_(BC)
  6
Continuous
 62
     7
100
AcDbLine
 10
131.1219253602
 20
520.676710478
 30
0.0
 11
131.2501567968
 21
520.676710478
 31
0.0
  0
LINE
  5
1E8
330
DD
100
AcDbEntity
  8
$DDT_AUDIT_GENERATED_(BC)
  6
Continuous
 62
     7
100
AcDbLine
 10
131.2501567968
 20
520.676710478
 30
0.0
 11
131.2501567968
 21
520.6143843928
 31
0.0
  0
LINE
  5
1E9
330
DD
100
AcDbEntity
  8
$DDT_AUDIT_GENERATED_(BC)
  6
Continuous
 62
     7
100
AcDbLine
 10
138.6501567968
 20
520.8594471471
 30
0.0
 11
138.6501567968
 21
520.9899733394
 31
0.0
  0
LINE
  5
1EA
330
DD
100
AcDbEntity
  8
$DDT_AUDIT_GENERATED_(BC)
  6
Continuous
 62
     7
100
AcDbLine
 10
139.6501567968
 20
520.8594471471
 30
0.0
 11
138.6501567968
 21
520.8594471471
 31
0.0
  0
LINE
  5
1EB
330
DD
100
AcDbEntity
  8
$DDT_AUDIT_GENERATED_(BC)
  6
Continuous
 62
     7
100
AcDbLine
 10
138.6501567968
 20
521.0160785778
 30
0.0
 11
138.6501567968
 21
521.14660477
 31
0.0
  0
LINE
  5
1EC
330
DD
100
AcDbEntity
  8
$DDT_AUDIT_GENERATED_(BC)
  6
Continuous
 62
     7
100
AcDbLine
 10
138.6501567968
 20
521.14660477
 30
0.0
 11
139.6501567968
 21
521.14660477
 31
0.0
  0
LINE
  5
1ED
330
DD
100
AcDbEntity
  8
$DDT_AUDIT_GENERATED_(BC)
  6
Continuous
 62
     7
100
AcDbLine
 10
139.6501567968
 20
521.0160785778
 30
0.0
 11
138.6501567968
 21
521.0160785778
 31
0.0
  0
LINE
  5
1EE
330
DD
100
AcDbEntity
  8
$DDT_AUDIT_GENERATED_(BC)
  6
Continuous
 62
     7
100
AcDbLine
 10
138.6501567968
 20
521.1727100085
 30
0.0
 11
138.6501567968
 21
521.3032362007
 31
0.0
  0
LINE
  5
1EF
330
DD
100
AcDbEntity
  8
$DDT_AUDIT_GENERATED_(BC)
  6
Continuous
 62
     7
100
AcDbLine
 10
138.6501567968
 20
521.3032362007
 30
0.0
 11
139.6501567968
 21
521.3032362007
 31
0.0
  0
LINE
  5
1F0
330
DD
100
AcDbEntity
  8
$DDT_AUDIT_GENERATED_(BC)
  6
Continuous
 62
     7
100
AcDbLine
 10
139.6501567968
 20
521.1727100085
 30
0.0
 11
138.6501567968
 21
521.1727100085
 31
0.0
  0
LINE
  5
1F1
330
DD
100
AcDbEntity
  8
$DDT_AUDIT_GENERATED_(BC)
  6
Continuous
 62
     7
100
AcDbLine
 10
138.6501567968
 20
521.3293414391
 30
0.0
 11
138.6501567968
 21
521.4598676313
 31
0.0
  0
LINE
  5
1F2
330
DD
100
AcDbEntity
  8
$DDT_AUDIT_GENERATED_(BC)
  6
Continuous
 62
     7
100
AcDbLine
 10
138.6501567968
 20
521.4598676313
 30
0.0
 11
139.6501567968
 21
521.4598676313
 31
0.0
  0
LINE
  5
1F3
330
DD
100
AcDbEntity
  8
$DDT_AUDIT_GENERATED_(BC)
  6
Continuous
 62
     7
100
AcDbLine
 10
139.6501567968
 20
521.3293414391
 30
0.0
 11
138.6501567968
 21
521.3293414391
 31
0.0
  0
LINE
  5
1F4
330
DD
100
AcDbEntity
  8
$DDT_AUDIT_GENERATED_(BC)
  6
Continuous
 62
     7
100
AcDbLine
 10
138.6501567968
 20
521.4859728698
 30
0.0
 11
138.6501567968
 21
521.5365392802
 31
0.0
  0
LINE
  5
1F5
330
DD
100
AcDbEntity
  8
$DDT_AUDIT_GENERATED_(BC)
  6
Continuous
 62
     7
100
AcDbLine
 10
139.6501567968
 20
521.4859728698
 30
0.0
 11
138.6501567968
 21
521.4859728698
 31
0.0
  0
LINE
  5
1F6
330
DD
100
AcDbEntity
  8
$DDT_AUDIT_GENERATED_(BC)
  6
Continuous
 62
     7
100
AcDbLine
 10
137.4501567968
 20
520.9899733394
 30
0.0
 11
138.4501567968
 21
520.9899733394
 31
0.0
  0
LINE
  5
1F7
330
DD
100
AcDbEntity
  8
$DDT_AUDIT_GENERATED_(BC)
  6
Continuous
 62
     7
100
AcDbLine
 10
137.4501567968
 20
521.0160785778
 30
0.0
 11
137.4501567968
 21
521.14660477
 31
0.0
  0
LINE
  5
1F8
330
DD
100
AcDbEntity
  8
$DDT_AUDIT_GENERATED_(BC)
  6
Continuous
 62
     7
100
AcDbLine
 10
137.4501567968
 20
521.14660477
 30
0.0
 11
138.4501567968
 21
521.14660477
 31
0.0
  0
LINE
  5
1F9
330
DD
100
AcDbEntity
  8
$DDT_AUDIT_GENERATED_(BC)
  6
Continuous
 62
     7
100
AcDbLine
 10
138.4501567968
 20
521.14660477
 30
0.0
 11
138.4501567968
 21
521.0160785778
 31
0.0
  0
LINE
  5
1FA
330
DD
100
AcDbEntity
  8
$DDT_AUDIT_GENERATED_(BC)
  6
Continuous
 62
     7
100
AcDbLine
 10
138.4501567968
 20
521.0160785778
 30
0.0
 11
137.4501567968
 21
521.0160785778
 31
0.0
  0
LINE
  5
1FB
330
DD
100
AcDbEntity
  8
$DDT_AUDIT_GENERATED_(BC)
  6
Continuous
 62
     7
100
AcDbLine
 10
137.4501567968
 20
521.1727100085
 30
0.0
 11
137.4501567968
 21
521.3032362007
 31
0.0
  0
LINE
  5
1FC
330
DD
100
AcDbEntity
  8
$DDT_AUDIT_GENERATED_(BC)
  6
Continuous
 62
     7
100
AcDbLine
 10
137.4501567968
 20
521.3032362007
 30
0.0
 11
138.4501567968
 21
521.3032362007
 31
0.0
  0
LINE
  5
1FD
330
DD
100
AcDbEntity
  8
$DDT_AUDIT_GENERATED_(BC)
  6
Continuous
 62
     7
100
AcDbLine
 10
138.4501567968
 20
521.3032362007
 30
0.0
 11
138.4501567968
 21
521.1727100085
 31
0.0
  0
LINE
  5
1FE
330
DD
100
AcDbEntity
  8
$DDT_AUDIT_GENERATED_(BC)
  6
Continuous
 62
     7
100
AcDbLine
 10
138.4501567968
 20
521.1727100085
 30
0.0
 11
137.4501567968
 21
521.1727100085
 31
0.0
  0
LINE
  5
1FF
330
DD
100
AcDbEntity
  8
$DDT_AUDIT_GENERATED_(BC)
  6
Continuous
 62
     7
100
AcDbLine
 10
137.4501567968
 20
521.3293414391
 30
0.0
 11
137.4501567968
 21
521.4598676313
 31
0.0
  0
LINE
  5
200
330
DD
100
AcDbEntity
  8
$DDT_AUDIT_GENERATED_(BC)
  6
Continuous
 62
     7
100
AcDbLine
 10
137.4501567968
 20
521.4598676313
 30
0.0
 11
138.4501567968
 21
521.4598676313
 31
0.0
  0
LINE
  5
201
330
DD
100
AcDbEntity
  8
$DDT_AUDIT_GENERATED_(BC)
  6
Continuous
 62
     7
100
AcDbLine
 10
138.4501567968
 20
521.4598676313
 30
0.0
 11
138.4501567968
 21
521.3293414391
 31
0.0
  0
LINE
  5
202
330
DD
100
AcDbEntity
  8
$DDT_AUDIT_GENERATED_(BC)
  6
Continuous
 62
     7
100
AcDbLine
 10
138.4501567968
 20
521.3293414391
 30
0.0
 11
137.4501567968
 21
521.3293414391
 31
0.0
  0
LINE
  5
203
330
DD
100
AcDbEntity
  8
$DDT_AUDIT_GENERATED_(BC)
  6
Continuous
 62
     7
100
AcDbLine
 10
137.4501567968
 20
521.4859728698
 30
0.0
 11
137.4501567968
 21
521.5160445472
 31
0.0
  0
LINE
  5
204
330
DD
100
AcDbEntity
  8
$DDT_AUDIT_GENERATED_(BC)
  6
Continuous
 62
     7
100
AcDbLine
 10
138.4501567968
 20
521.5346918203
 30
0.0
 11
138.4501567968
 21
521.4859728698
 31
0.0
  0
LINE
  5
205
330
DD
100
AcDbEntity
  8
$DDT_AUDIT_GENERATED_(BC)
  6
Continuous
 62
     7
100
AcDbLine
 10
138.4501567968
 20
521.4859728698
 30
0.0
 11
137.4501567968
 21
521.4859728698
 31
0.0
  0
LINE
  5
206
330
DD
100
AcDbEntity
  8
$DDT_AUDIT_GENERATED_(BC)
  6
Continuous
 62
     7
100
AcDbLine
 10
136.2501567968
 20
520.9899733394
 30
0.0
 11
137.2501567968
 21
520.9899733394
 31
0.0
  0
LINE
  5
207
330
DD
100
AcDbEntity
  8
$DDT_AUDIT_GENERATED_(BC)
  6
Continuous
 62
     7
100
AcDbLine
 10
136.2501567968
 20
521.0160785778
 30
0.0
 11
136.2501567968
 21
521.14660477
 31
0.0
  0
LINE
  5
208
330
DD
100
AcDbEntity
  8
$DDT_AUDIT_GENERATED_(BC)
  6
Continuous
 62
     7
100
AcDbLine
 10
136.2501567968
 20
521.14660477
 30
0.0
 11
137.2501567968
 21
521.14660477
 31
0.0
  0
LINE
  5
209
330
DD
100
AcDbEntity
  8
$DDT_AUDIT_GENERATED_(BC)
  6
Continuous
 62
     7
100
AcDbLine
 10
137.2501567968
 20
521.14660477
 30
0.0
 11
137.2501567968
 21
521.0160785778
 31
0.0
  0
LINE
  5
20A
330
DD
100
AcDbEntity
  8
$DDT_AUDIT_GENERATED_(BC)
  6
Continuous
 62
     7
100
AcDbLine
 10
137.2501567968
 20
521.0160785778
 30
0.0
 11
136.2501567968
 21
521.0160785778
 31
0.0
  0
LINE
  5
20B
330
DD
100
AcDbEntity
  8
$DDT_AUDIT_GENERATED_(BC)
  6
Continuous
 62
     7
100
AcDbLine
 10
136.2501567968
 20
521.1727100085
 30
0.0
 11
136.2501567968
 21
521.3032362007
 31
0.0
  0
LINE
  5
20C
330
DD
100
AcDbEntity
  8
$DDT_AUDIT_GENERATED_(BC)
  6
Continuous
 62
     7
100
AcDbLine
 10
136.2501567968
 20
521.3032362007
 30
0.0
 11
137.2501567968
 21
521.3032362007
 31
0.0
  0
LINE
  5
20D
330
DD
100
AcDbEntity
  8
$DDT_AUDIT_GENERATED_(BC)
  6
Continuous
 62
     7
100
AcDbLine
 10
137.2501567968
 20
521.3032362007
 30
0.0
 11
137.2501567968
 21
521.1727100085
 31
0.0
  0
LINE
  5
20E
330
DD
100
AcDbEntity
  8
$DDT_AUDIT_GENERATED_(BC)
  6
Continuous
 62
     7
100
AcDbLine
 10
137.2501567968
 20
521.1727100085
 30
0.0
 11
136.2501567968
 21
521.1727100085
 31
0.0
  0
LINE
  5
20F
330
DD
100
AcDbEntity
  8
$DDT_AUDIT_GENERATED_(BC)
  6
Continuous
 62
     7
100
AcDbLine
 10
136.2501567968
 20
521.3293414391
 30
0.0
 11
136.2501567968
 21
521.4598676313
 31
0.0
  0
LINE
  5
210
330
DD
100
AcDbEntity
  8
$DDT_AUDIT_GENERATED_(BC)
  6
Continuous
 62
     7
100
AcDbLine
 10
136.2501567968
 20
521.4598676313
 30
0.0
 11
137.2501567968
 21
521.4598676313
 31
0.0
  0
LINE
  5
211
330
DD
100
AcDbEntity
  8
$DDT_AUDIT_GENERATED_(BC)
  6
Continuous
 62
     7
100
AcDbLine
 10
137.2501567968
 20
521.4598676313
 30
0.0
 11
137.2501567968
 21
521.3293414391
 31
0.0
  0
LINE
  5
212
330
DD
100
AcDbEntity
  8
$DDT_AUDIT_GENERATED_(BC)
  6
Continuous
 62
     7
100
AcDbLine
 10
137.2501567968
 20
521.3293414391
 30
0.0
 11
136.2501567968
 21
521.3293414391
 31
0.0
  0
LINE
  5
213
330
DD
100
AcDbEntity
  8
$DDT_AUDIT_GENERATED_(BC)
  6
Continuous
 62
     7
100
AcDbLine
 10
137.2501567968
 20
521.5103876654
 30
0.0
 11
137.2501567968
 21
521.4859728698
 31
0.0
  0
LINE
  5
214
330
DD
100
AcDbEntity
  8
$DDT_AUDIT_GENERATED_(BC)
  6
Continuous
 62
     7
100
AcDbLine
 10
137.2501567968
 20
521.4859728698
 30
0.0
 11
136.5666732613
 21
521.4859728698
 31
0.0
  0
LINE
  5
215
330
DD
100
AcDbEntity
  8
$DDT_AUDIT_GENERATED_(BC)
  6
Continuous
 62
     7
100
AcDbLine
 10
135.0501567968
 20
520.9899733394
 30
0.0
 11
136.0501567968
 21
520.9899733394
 31
0.0
  0
LINE
  5
216
330
DD
100
AcDbEntity
  8
$DDT_AUDIT_GENERATED_(BC)
  6
Continuous
 62
     7
100
AcDbLine
 10
135.0501567968
 20
521.0160785778
 30
0.0
 11
135.0501567968
 21
521.14660477
 31
0.0
  0
LINE
  5
217
330
DD
100
AcDbEntity
  8
$DDT_AUDIT_GENERATED_(BC)
  6
Continuous
 62
     7
100
AcDbLine
 10
135.0501567968
 20
521.14660477
 30
0.0
 11
136.0501567968
 21
521.14660477
 31
0.0
  0
LINE
  5
218
330
DD
100
AcDbEntity
  8
$DDT_AUDIT_GENERATED_(BC)
  6
Continuous
 62
     7
100
AcDbLine
 10
136.0501567968
 20
521.14660477
 30
0.0
 11
136.0501567968
 21
521.0160785778
 31
0.0
  0
LINE
  5
219
330
DD
100
AcDbEntity
  8
$DDT_AUDIT_GENERATED_(BC)
  6
Continuous
 62
     7
100
AcDbLine
 10
136.0501567968
 20
521.0160785778
 30
0.0
 11
135.0501567968
 21
521.0160785778
 31
0.0
  0
LINE
  5
21A
330
DD
100
AcDbEntity
  8
$DDT_AUDIT_GENERATED_(BC)
  6
Continuous
 62
     7
100
AcDbLine
 10
135.0501567968
 20
521.1727100085
 30
0.0
 11
135.0501567968
 21
521.3032362007
 31
0.0
  0
LINE
  5
21B
330
DD
100
AcDbEntity
  8
$DDT_AUDIT_GENERATED_(BC)
  6
Continuous
 62
     7
100
AcDbLine
 10
135.0501567968
 20
521.3032362007
 30
0.0
 11
136.0501567968
 21
521.3032362007
 31
0.0
  0
LINE
  5
21C
330
DD
100
AcDbEntity
  8
$DDT_AUDIT_GENERATED_(BC)
  6
Continuous
 62
     7
100
AcDbLine
 10
136.0501567968
 20
521.3032362007
 30
0.0
 11
136.0501567968
 21
521.1727100085
 31
0.0
  0
LINE
  5
21D
330
DD
100
AcDbEntity
  8
$DDT_AUDIT_GENERATED_(BC)
  6
Continuous
 62
     7
100
AcDbLine
 10
136.0501567968
 20
521.1727100085
 30
0.0
 11
135.0501567968
 21
521.1727100085
 31
0.0
  0
LINE
  5
21E
330
DD
100
AcDbEntity
  8
$DDT_AUDIT_GENERATED_(BC)
  6
Continuous
 62
     7
100
AcDbLine
 10
135.0501567968
 20
521.3293414391
 30
0.0
 11
135.0501567968
 21
521.4008602812
 31
0.0
  0
LINE
  5
21F
330
DD
100
AcDbEntity
  8
$DDT_AUDIT_GENERATED_(BC)
  6
Continuous
 62
     7
100
AcDbLine
 10
136.0079381537
 20
521.4598676313
 30
0.0
 11
136.0501567968
 21
521.4598676313
 31
0.0
  0
LINE
  5
220
330
DD
100
AcDbEntity
  8
$DDT_AUDIT_GENERATED_(BC)
  6
Continuous
 62
     7
100
AcDbLine
 10
136.0501567968
 20
521.4598676313
 30
0.0
 11
136.0501567968
 21
521.3293414391
 31
0.0
  0
LINE
  5
221
330
DD
100
AcDbEntity
  8
$DDT_AUDIT_GENERATED_(BC)
  6
Continuous
 62
     7
100
AcDbLine
 10
136.0501567968
 20
521.3293414391
 30
0.0
 11
135.0501567968
 21
521.3293414391
 31
0.0
  0
LINE
  5
222
330
DD
100
AcDbEntity
  8
$DDT_AUDIT_GENERATED_(BC)
  6
Continuous
 62
     7
100
AcDbLine
 10
133.8501567968
 20
520.9899733394
 30
0.0
 11
134.8501567968
 21
520.9899733394
 31
0.0
  0
LINE
  5
223
330
DD
100
AcDbEntity
  8
$DDT_AUDIT_GENERATED_(BC)
  6
Continuous
 62
     7
100
AcDbLine
 10
133.8501567968
 20
521.0160785778
 30
0.0
 11
133.8501567968
 21
521.14660477
 31
0.0
  0
LINE
  5
224
330
DD
100
AcDbEntity
  8
$DDT_AUDIT_GENERATED_(BC)
  6
Continuous
 62
     7
100
AcDbLine
 10
133.8501567968
 20
521.14660477
 30
0.0
 11
134.8501567968
 21
521.14660477
 31
0.0
  0
LINE
  5
225
330
DD
100
AcDbEntity
  8
$DDT_AUDIT_GENERATED_(BC)
  6
Continuous
 62
     7
100
AcDbLine
 10
134.8501567968
 20
521.14660477
 30
0.0
 11
134.8501567968
 21
521.0160785778
 31
0.0
  0
LINE
  5
226
330
DD
100
AcDbEntity
  8
$DDT_AUDIT_GENERATED_(BC)
  6
Continuous
 62
     7
100
AcDbLine
 10
134.8501567968
 20
521.0160785778
 30
0.0
 11
133.8501567968
 21
521.0160785778
 31
0.0
  0
LINE
  5
227
330
DD
100
AcDbEntity
  8
$DDT_AUDIT_GENERATED_(BC)
  6
Continuous
 62
     7
100
AcDbLine
 10
133.8501567968
 20
521.1727100085
 30
0.0
 11
133.8501567968
 21
521.296373399
 31
0.0
  0
LINE
  5
228
330
DD
100
AcDbEntity
  8
$DDT_AUDIT_GENERATED_(BC)
  6
Continuous
 62
     7
100
AcDbLine
 10
133.9167599137
 20
521.3032362007
 30
0.0
 11
134.8501567968
 21
521.3032362007
 31
0.0
  0
LINE
  5
229
330
DD
100
AcDbEntity
  8
$DDT_AUDIT_GENERATED_(BC)
  6
Continuous
 62
     7
100
AcDbLine
 10
134.8501567968
 20
521.3032362007
 30
0.0
 11
134.8501567968
 21
521.1727100085
 31
0.0
  0
LINE
  5
22A
330
DD
100
AcDbEntity
  8
$DDT_AUDIT_GENERATED_(BC)
  6
Continuous
 62
     7
100
AcDbLine
 10
134.8501567968
 20
521.1727100085
 30
0.0
 11
133.8501567968
 21
521.1727100085
 31
0.0
  0
LINE
  5
22B
330
DD
100
AcDbEntity
  8
$DDT_AUDIT_GENERATED_(BC)
  6
Continuous
 62
     7
100
AcDbLine
 10
134.8501567968
 20
521.3860216622
 30
0.0
 11
134.8501567968
 21
521.3293414391
 31
0.0
  0
LINE
  5
22C
330
DD
100
AcDbEntity
  8
$DDT_AUDIT_GENERATED_(BC)
  6
Continuous
 62
     7
100
AcDbLine
 10
134.8501567968
 20
521.3293414391
 30
0.0
 11
134.1833376825
 21
521.3293414391
 31
0.0
  0
LINE
  5
22D
330
DD
100
AcDbEntity
  8
$DDT_AUDIT_GENERATED_(BC)
  6
Continuous
 62
     7
100
AcDbLine
 10
132.6501567968
 20
520.9899733394
 30
0.0
 11
133.6501567968
 21
520.9899733394
 31
0.0
  0
LINE
  5
22E
330
DD
100
AcDbEntity
  8
$DDT_AUDIT_GENERATED_(BC)
  6
Continuous
 62
     7
100
AcDbLine
 10
132.6501567968
 20
521.0160785778
 30
0.0
 11
132.6501567968
 21
521.1439092108
 31
0.0
  0
LINE
  5
22F
330
DD
100
AcDbEntity
  8
$DDT_AUDIT_GENERATED_(BC)
  6
Continuous
 62
     7
100
AcDbLine
 10
132.6676150213
 20
521.14660477
 30
0.0
 11
133.6501567968
 21
521.14660477
 31
0.0
  0
LINE
  5
230
330
DD
100
AcDbEntity
  8
$DDT_AUDIT_GENERATED_(BC)
  6
Continuous
 62
     7
100
AcDbLine
 10
133.6501567968
 20
521.14660477
 30
0.0
 11
133.6501567968
 21
521.0160785778
 31
0.0
  0
LINE
  5
231
330
DD
100
AcDbEntity
  8
$DDT_AUDIT_GENERATED_(BC)
  6
Continuous
 62
     7
100
AcDbLine
 10
133.6501567968
 20
521.0160785778
 30
0.0
 11
132.6501567968
 21
521.0160785778
 31
0.0
  0
LINE
  5
232
330
DD
100
AcDbEntity
  8
$DDT_AUDIT_GENERATED_(BC)
  6
Continuous
 62
     7
100
AcDbLine
 10
133.6501567968
 20
521.2748942187
 30
0.0
 11
133.6501567968
 21
521.1727100085
 31
0.0
  0
LINE
  5
233
330
DD
100
AcDbEntity
  8
$DDT_AUDIT_GENERATED_(BC)
  6
Continuous
 62
     7
100
AcDbLine
 10
133.6501567968
 20
521.1727100085
 30
0.0
 11
132.842685271
 21
521.1727100085
 31
0.0
  0
LINE
  5
234
330
DD
100
AcDbEntity
  8
$DDT_AUDIT_GENERATED_(BC)
  6
Continuous
 62
     7
100
AcDbLine
 10
131.8167910752
 20
520.9899733394
 30
0.0
 11
132.4501567968
 21
520.9899733394
 31
0.0
  0
LINE
  5
235
330
DD
100
AcDbEntity
  8
$DDT_AUDIT_GENERATED_(BC)
  6
Continuous
 62
     7
100
AcDbLine
 10
132.4501567968
 20
521.1117283902
 30
0.0
 11
132.4501567968
 21
521.0160785778
 31
0.0
  0
LINE
  5
236
330
DD
100
AcDbEntity
  8
$DDT_AUDIT_GENERATED_(BC)
  6
Continuous
 62
     7
100
AcDbLine
 10
132.4501567968
 20
521.0160785778
 30
0.0
 11
131.9377298832
 21
521.0160785778
 31
0.0
  0
LINE
  5
237
330
DD
100
AcDbEntity
  8
$DDT_AUDIT_GENERATED_(BC)
  6
Continuous
 62
     7
100
AcDbLine
 10
138.6501567968
 20
520.9899733394
 30
0.0
 11
139.6501567968
 21
520.9899733394
 31
0.0
  0
LINE
  5
238
330
DD
100
AcDbEntity
  8
$DDT_AUDIT_GENERATED_(BC)
  6
Continuous
 62
     7
100
AcDbLine
 10
139.8501567968
 20
520.9899733394
 30
0.0
 11
140.8501567968
 21
520.9899733394
 31
0.0
  0
LINE
  5
239
330
DD
100
AcDbEntity
  8
$DDT_AUDIT_GENERATED_(BC)
  6
Continuous
 62
     7
100
AcDbLine
 10
140.8501567968
 20
520.9899733394
 30
0.0
 11
140.8501567968
 21
520.8594471471
 31
0.0
  0
LINE
  5
23A
330
DD
100
AcDbEntity
  8
$DDT_AUDIT_GENERATED_(BC)
  6
Continuous
 62
     7
100
AcDbLine
 10
139.8501567968
 20
520.8594471471
 30
0.0
 11
139.8501567968
 21
520.9899733394
 31
0.0
  0
LINE
  5
23B
330
DD
100
AcDbEntity
  8
$DDT_AUDIT_GENERATED_(BC)
  6
Continuous
 62
     7
100
AcDbLine
 10
141.0501567968
 20
520.9899733394
 30
0.0
 11
142.0501567968
 21
520.9899733394
 31
0.0
  0
LINE
  5
23C
330
DD
100
AcDbEntity
  8
$DDT_AUDIT_GENERATED_(BC)
  6
Continuous
 62
     7
100
AcDbLine
 10
142.0501567968
 20
520.9899733394
 30
0.0
 11
142.0501567968
 21
520.8594471471
 31
0.0
  0
LINE
  5
23D
330
DD
100
AcDbEntity
  8
$DDT_AUDIT_GENERATED_(BC)
  6
Continuous
 62
     7
100
AcDbLine
 10
141.0501567968
 20
520.8594471471
 30
0.0
 11
141.0501567968
 21
520.9899733394
 31
0.0
  0
LINE
  5
23E
330
DD
100
AcDbEntity
  8
$DDT_AUDIT_GENERATED_(BC)
  6
Continuous
 62
     7
100
AcDbLine
 10
142.2501567968
 20
520.9899733394
 30
0.0
 11
143.2501567968
 21
520.9899733394
 31
0.0
  0
LINE
  5
23F
330
DD
100
AcDbEntity
  8
$DDT_AUDIT_GENERATED_(BC)
  6
Continuous
 62
     7
100
AcDbLine
 10
143.2501567968
 20
520.9899733394
 30
0.0
 11
143.2501567968
 21
520.8594471471
 31
0.0
  0
LINE
  5
240
330
DD
100
AcDbEntity
  8
$DDT_AUDIT_GENERATED_(BC)
  6
Continuous
 62
     7
100
AcDbLine
 10
142.2501567968
 20
520.8594471471
 30
0.0
 11
142.2501567968
 21
520.9899733394
 31
0.0
  0
LINE
  5
241
330
DD
100
AcDbEntity
  8
$DDT_AUDIT_GENERATED_(BC)
  6
Continuous
 62
     7
100
AcDbLine
 10
143.4501567968
 20
520.9899733394
 30
0.0
 11
144.4501567968
 21
520.9899733394
 31
0.0
  0
LINE
  5
242
330
DD
100
AcDbEntity
  8
$DDT_AUDIT_GENERATED_(BC)
  6
Continuous
 62
     7
100
AcDbLine
 10
144.4501567968
 20
520.9899733394
 30
0.0
 11
144.4501567968
 21
520.8594471471
 31
0.0
  0
LINE
  5
243
330
DD
100
AcDbEntity
  8
$DDT_AUDIT_GENERATED_(BC)
  6
Continuous
 62
     7
100
AcDbLine
 10
143.4501567968
 20
520.8594471471
 30
0.0
 11
143.4501567968
 21
520.9899733394
 31
0.0
  0
LINE
  5
244
330
DD
100
AcDbEntity
  8
$DDT_AUDIT_GENERATED_(BC)
  6
Continuous
 62
     7
100
AcDbLine
 10
144.6501567968
 20
520.9899733394
 30
0.0
 11
145.6501567968
 21
520.9899733394
 31
0.0
  0
LINE
  5
245
330
DD
100
AcDbEntity
  8
$DDT_AUDIT_GENERATED_(BC)
  6
Continuous
 62
     7
100
AcDbLine
 10
145.6501567968
 20
520.9899733394
 30
0.0
 11
145.6501567968
 21
520.8594471471
 31
0.0
  0
LINE
  5
246
330
DD
100
AcDbEntity
  8
$DDT_AUDIT_GENERATED_(BC)
  6
Continuous
 62
     7
100
AcDbLine
 10
144.6501567968
 20
520.8594471471
 30
0.0
 11
144.6501567968
 21
520.9899733394
 31
0.0
  0
LINE
  5
247
330
DD
100
AcDbEntity
  8
$DDT_AUDIT_GENERATED_(BC)
  6
Continuous
 62
     7
100
AcDbLine
 10
145.8501567968
 20
520.9899733394
 30
0.0
 11
146.4835225185
 21
520.9899733394
 31
0.0
  0
LINE
  5
248
330
DD
100
AcDbEntity
  8
$DDT_AUDIT_GENERATED_(BC)
  6
Continuous
 62
     7
100
AcDbLine
 10
146.8501567968
 20
520.8988821045
 30
0.0
 11
146.8501567968
 21
520.8594471471
 31
0.0
  0
LINE
  5
249
330
DD
100
AcDbEntity
  8
$DDT_AUDIT_GENERATED_(BC)
  6
Continuous
 62
     7
100
AcDbLine
 10
145.8501567968
 20
520.8594471471
 30
0.0
 11
145.8501567968
 21
520.9899733394
 31
0.0
  0
LINE
  5
24A
330
DD
100
AcDbEntity
  8
$DDT_AUDIT_GENERATED_(BC)
  6
Continuous
 62
     7
100
AcDbLine
 10
139.6501567968
 20
521.14660477
 30
0.0
 11
139.6501567968
 21
521.0160785778
 31
0.0
  0
LINE
  5
24B
330
DD
100
AcDbEntity
  8
$DDT_AUDIT_GENERATED_(BC)
  6
Continuous
 62
     7
100
AcDbLine
 10
139.8501567968
 20
521.14660477
 30
0.0
 11
140.8501567968
 21
521.14660477
 31
0.0
  0
LINE
  5
24C
330
DD
100
AcDbEntity
  8
$DDT_AUDIT_GENERATED_(BC)
  6
Continuous
 62
     7
100
AcDbLine
 10
140.8501567968
 20
521.14660477
 30
0.0
 11
140.8501567968
 21
521.0160785778
 31
0.0
  0
LINE
  5
24D
330
DD
100
AcDbEntity
  8
$DDT_AUDIT_GENERATED_(BC)
  6
Continuous
 62
     7
100
AcDbLine
 10
140.8501567968
 20
521.0160785778
 30
0.0
 11
139.8501567968
 21
521.0160785778
 31
0.0
  0
LINE
  5
24E
330
DD
100
AcDbEntity
  8
$DDT_AUDIT_GENERATED_(BC)
  6
Continuous
 62
     7
100
AcDbLine
 10
139.8501567968
 20
521.0160785778
 30
0.0
 11
139.8501567968
 21
521.14660477
 31
0.0
  0
LINE
  5
24F
330
DD
100
AcDbEntity
  8
$DDT_AUDIT_GENERATED_(BC)
  6
Continuous
 62
     7
100
AcDbLine
 10
141.0501567968
 20
521.14660477
 30
0.0
 11
142.0501567968
 21
521.14660477
 31
0.0
  0
LINE
  5
250
330
DD
100
AcDbEntity
  8
$DDT_AUDIT_GENERATED_(BC)
  6
Continuous
 62
     7
100
AcDbLine
 10
142.0501567968
 20
521.14660477
 30
0.0
 11
142.0501567968
 21
521.0160785778
 31
0.0
  0
LINE
  5
251
330
DD
100
AcDbEntity
  8
$DDT_AUDIT_GENERATED_(BC)
  6
Continuous
 62
     7
100
AcDbLine
 10
142.0501567968
 20
521.0160785778
 30
0.0
 11
141.0501567968
 21
521.0160785778
 31
0.0
  0
LINE
  5
252
330
DD
100
AcDbEntity
  8
$DDT_AUDIT_GENERATED_(BC)
  6
Continuous
 62
     7
100
AcDbLine
 10
141.0501567968
 20
521.0160785778
 30
0.0
 11
141.0501567968
 21
521.14660477
 31
0.0
  0
LINE
  5
253
330
DD
100
AcDbEntity
  8
$DDT_AUDIT_GENERATED_(BC)
  6
Continuous
 62
     7
100
AcDbLine
 10
142.2501567968
 20
521.14660477
 30
0.0
 11
143.2501567968
 21
521.14660477
 31
0.0
  0
LINE
  5
254
330
DD
100
AcDbEntity
  8
$DDT_AUDIT_GENERATED_(BC)
  6
Continuous
 62
     7
100
AcDbLine
 10
143.2501567968
 20
521.14660477
 30
0.0
 11
143.2501567968
 21
521.0160785778
 31
0.0
  0
LINE
  5
255
330
DD
100
AcDbEntity
  8
$DDT_AUDIT_GENERATED_(BC)
  6
Continuous
 62
     7
100
AcDbLine
 10
143.2501567968
 20
521.0160785778
 30
0.0
 11
142.2501567968
 21
521.0160785778
 31
0.0
  0
LINE
  5
256
330
DD
100
AcDbEntity
  8
$DDT_AUDIT_GENERATED_(BC)
  6
Continuous
 62
     7
100
AcDbLine
 10
142.2501567968
 20
521.0160785778
 30
0.0
 11
142.2501567968
 21
521.14660477
 31
0.0
  0
LINE
  5
257
330
DD
100
AcDbEntity
  8
$DDT_AUDIT_GENERATED_(BC)
  6
Continuous
 62
     7
100
AcDbLine
 10
143.4501567968
 20
521.14660477
 30
0.0
 11
144.4501567968
 21
521.14660477
 31
0.0
  0
LINE
  5
258
330
DD
100
AcDbEntity
  8
$DDT_AUDIT_GENERATED_(BC)
  6
Continuous
 62
     7
100
AcDbLine
 10
144.4501567968
 20
521.14660477
 30
0.0
 11
144.4501567968
 21
521.0160785778
 31
0.0
  0
LINE
  5
259
330
DD
100
AcDbEntity
  8
$DDT_AUDIT_GENERATED_(BC)
  6
Continuous
 62
     7
100
AcDbLine
 10
144.4501567968
 20
521.0160785778
 30
0.0
 11
143.4501567968
 21
521.0160785778
 31
0.0
  0
LINE
  5
25A
330
DD
100
AcDbEntity
  8
$DDT_AUDIT_GENERATED_(BC)
  6
Continuous
 62
     7
100
AcDbLine
 10
143.4501567968
 20
521.0160785778
 30
0.0
 11
143.4501567968
 21
521.14660477
 31
0.0
  0
LINE
  5
25B
330
DD
100
AcDbEntity
  8
$DDT_AUDIT_GENERATED_(BC)
  6
Continuous
 62
     7
100
AcDbLine
 10
144.6501567968
 20
521.14660477
 30
0.0
 11
145.6326985724
 21
521.14660477
 31
0.0
  0
LINE
  5
25C
330
DD
100
AcDbEntity
  8
$DDT_AUDIT_GENERATED_(BC)
  6
Continuous
 62
     7
100
AcDbLine
 10
145.6501567968
 20
521.1439092108
 30
0.0
 11
145.6501567968
 21
521.0160785778
 31
0.0
  0
LINE
  5
25D
330
DD
100
AcDbEntity
  8
$DDT_AUDIT_GENERATED_(BC)
  6
Continuous
 62
     7
100
AcDbLine
 10
145.6501567968
 20
521.0160785778
 30
0.0
 11
144.6501567968
 21
521.0160785778
 31
0.0
  0
LINE
  5
25E
330
DD
100
AcDbEntity
  8
$DDT_AUDIT_GENERATED_(BC)
  6
Continuous
 62
     7
100
AcDbLine
 10
144.6501567968
 20
521.0160785778
 30
0.0
 11
144.6501567968
 21
521.14660477
 31
0.0
  0
LINE
  5
25F
330
DD
100
AcDbEntity
  8
$DDT_AUDIT_GENERATED_(BC)
  6
Continuous
 62
     7
100
AcDbLine
 10
146.3625837105
 20
521.0160785778
 30
0.0
 11
145.8501567968
 21
521.0160785778
 31
0.0
  0
LINE
  5
260
330
DD
100
AcDbEntity
  8
$DDT_AUDIT_GENERATED_(BC)
  6
Continuous
 62
     7
100
AcDbLine
 10
145.8501567968
 20
521.0160785778
 30
0.0
 11
145.8501567968
 21
521.1117283902
 31
0.0
  0
LINE
  5
261
330
DD
100
AcDbEntity
  8
$DDT_AUDIT_GENERATED_(BC)
  6
Continuous
 62
     7
100
AcDbLine
 10
139.6501567968
 20
521.3032362007
 30
0.0
 11
139.6501567968
 21
521.1727100085
 31
0.0
  0
LINE
  5
262
330
DD
100
AcDbEntity
  8
$DDT_AUDIT_GENERATED_(BC)
  6
Continuous
 62
     7
100
AcDbLine
 10
139.8501567968
 20
521.3032362007
 30
0.0
 11
140.8501567968
 21
521.3032362007
 31
0.0
  0
LINE
  5
263
330
DD
100
AcDbEntity
  8
$DDT_AUDIT_GENERATED_(BC)
  6
Continuous
 62
     7
100
AcDbLine
 10
140.8501567968
 20
521.3032362007
 30
0.0
 11
140.8501567968
 21
521.1727100085
 31
0.0
  0
LINE
  5
264
330
DD
100
AcDbEntity
  8
$DDT_AUDIT_GENERATED_(BC)
  6
Continuous
 62
     7
100
AcDbLine
 10
140.8501567968
 20
521.1727100085
 30
0.0
 11
139.8501567968
 21
521.1727100085
 31
0.0
  0
LINE
  5
265
330
DD
100
AcDbEntity
  8
$DDT_AUDIT_GENERATED_(BC)
  6
Continuous
 62
     7
100
AcDbLine
 10
139.8501567968
 20
521.1727100085
 30
0.0
 11
139.8501567968
 21
521.3032362007
 31
0.0
  0
LINE
  5
266
330
DD
100
AcDbEntity
  8
$DDT_AUDIT_GENERATED_(BC)
  6
Continuous
 62
     7
100
AcDbLine
 10
141.0501567968
 20
521.3032362007
 30
0.0
 11
142.0501567968
 21
521.3032362007
 31
0.0
  0
LINE
  5
267
330
DD
100
AcDbEntity
  8
$DDT_AUDIT_GENERATED_(BC)
  6
Continuous
 62
     7
100
AcDbLine
 10
142.0501567968
 20
521.3032362007
 30
0.0
 11
142.0501567968
 21
521.1727100085
 31
0.0
  0
LINE
  5
268
330
DD
100
AcDbEntity
  8
$DDT_AUDIT_GENERATED_(BC)
  6
Continuous
 62
     7
100
AcDbLine
 10
142.0501567968
 20
521.1727100085
 30
0.0
 11
141.0501567968
 21
521.1727100085
 31
0.0
  0
LINE
  5
269
330
DD
100
AcDbEntity
  8
$DDT_AUDIT_GENERATED_(BC)
  6
Continuous
 62
     7
100
AcDbLine
 10
141.0501567968
 20
521.1727100085
 30
0.0
 11
141.0501567968
 21
521.3032362007
 31
0.0
  0
LINE
  5
26A
330
DD
100
AcDbEntity
  8
$DDT_AUDIT_GENERATED_(BC)
  6
Continuous
 62
     7
100
AcDbLine
 10
142.2501567968
 20
521.3032362007
 30
0.0
 11
143.2501567968
 21
521.3032362007
 31
0.0
  0
LINE
  5
26B
330
DD
100
AcDbEntity
  8
$DDT_AUDIT_GENERATED_(BC)
  6
Continuous
 62
     7
100
AcDbLine
 10
143.2501567968
 20
521.3032362007
 30
0.0
 11
143.2501567968
 21
521.1727100085
 31
0.0
  0
LINE
  5
26C
330
DD
100
AcDbEntity
  8
$DDT_AUDIT_GENERATED_(BC)
  6
Continuous
 62
     7
100
AcDbLine
 10
143.2501567968
 20
521.1727100085
 30
0.0
 11
142.2501567968
 21
521.1727100085
 31
0.0
  0
LINE
  5
26D
330
DD
100
AcDbEntity
  8
$DDT_AUDIT_GENERATED_(BC)
  6
Continuous
 62
     7
100
AcDbLine
 10
142.2501567968
 20
521.1727100085
 30
0.0
 11
142.2501567968
 21
521.3032362007
 31
0.0
  0
LINE
  5
26E
330
DD
100
AcDbEntity
  8
$DDT_AUDIT_GENERATED_(BC)
  6
Continuous
 62
     7
100
AcDbLine
 10
143.4501567968
 20
521.3032362007
 30
0.0
 11
144.38355368
 21
521.3032362007
 31
0.0
  0
LINE
  5
26F
330
DD
100
AcDbEntity
  8
$DDT_AUDIT_GENERATED_(BC)
  6
Continuous
 62
     7
100
AcDbLine
 10
144.4501567968
 20
521.296373399
 30
0.0
 11
144.4501567968
 21
521.1727100085
 31
0.0
  0
LINE
  5
270
330
DD
100
AcDbEntity
  8
$DDT_AUDIT_GENERATED_(BC)
  6
Continuous
 62
     7
100
AcDbLine
 10
144.4501567968
 20
521.1727100085
 30
0.0
 11
143.4501567968
 21
521.1727100085
 31
0.0
  0
LINE
  5
271
330
DD
100
AcDbEntity
  8
$DDT_AUDIT_GENERATED_(BC)
  6
Continuous
 62
     7
100
AcDbLine
 10
143.4501567968
 20
521.1727100085
 30
0.0
 11
143.4501567968
 21
521.3032362007
 31
0.0
  0
LINE
  5
272
330
DD
100
AcDbEntity
  8
$DDT_AUDIT_GENERATED_(BC)
  6
Continuous
 62
     7
100
AcDbLine
 10
145.4576283227
 20
521.1727100085
 30
0.0
 11
144.6501567968
 21
521.1727100085
 31
0.0
  0
LINE
  5
273
330
DD
100
AcDbEntity
  8
$DDT_AUDIT_GENERATED_(BC)
  6
Continuous
 62
     7
100
AcDbLine
 10
144.6501567968
 20
521.1727100085
 30
0.0
 11
144.6501567968
 21
521.2748942187
 31
0.0
  0
LINE
  5
274
330
DD
100
AcDbEntity
  8
$DDT_AUDIT_GENERATED_(BC)
  6
Continuous
 62
     7
100
AcDbLine
 10
139.6501567968
 20
521.4598676313
 30
0.0
 11
139.6501567968
 21
521.3293414391
 31
0.0
  0
LINE
  5
275
330
DD
100
AcDbEntity
  8
$DDT_AUDIT_GENERATED_(BC)
  6
Continuous
 62
     7
100
AcDbLine
 10
139.8501567968
 20
521.4598676313
 30
0.0
 11
140.8501567968
 21
521.4598676313
 31
0.0
  0
LINE
  5
276
330
DD
100
AcDbEntity
  8
$DDT_AUDIT_GENERATED_(BC)
  6
Continuous
 62
     7
100
AcDbLine
 10
140.8501567968
 20
521.4598676313
 30
0.0
 11
140.8501567968
 21
521.3293414391
 31
0.0
  0
LINE
  5
277
330
DD
100
AcDbEntity
  8
$DDT_AUDIT_GENERATED_(BC)
  6
Continuous
 62
     7
100
AcDbLine
 10
140.8501567968
 20
521.3293414391
 30
0.0
 11
139.8501567968
 21
521.3293414391
 31
0.0
  0
LINE
  5
278
330
DD
100
AcDbEntity
  8
$DDT_AUDIT_GENERATED_(BC)
  6
Continuous
 62
     7
100
AcDbLine
 10
139.8501567968
 20
521.3293414391
 30
0.0
 11
139.8501567968
 21
521.4598676313
 31
0.0
  0
LINE
  5
279
330
DD
100
AcDbEntity
  8
$DDT_AUDIT_GENERATED_(BC)
  6
Continuous
 62
     7
100
AcDbLine
 10
141.0501567968
 20
521.4598676313
 30
0.0
 11
142.0501567968
 21
521.4598676313
 31
0.0
  0
LINE
  5
27A
330
DD
100
AcDbEntity
  8
$DDT_AUDIT_GENERATED_(BC)
  6
Continuous
 62
     7
100
AcDbLine
 10
142.0501567968
 20
521.4598676313
 30
0.0
 11
142.0501567968
 21
521.3293414391
 31
0.0
  0
LINE
  5
27B
330
DD
100
AcDbEntity
  8
$DDT_AUDIT_GENERATED_(BC)
  6
Continuous
 62
     7
100
AcDbLine
 10
142.0501567968
 20
521.3293414391
 30
0.0
 11
141.0501567968
 21
521.3293414391
 31
0.0
  0
LINE
  5
27C
330
DD
100
AcDbEntity
  8
$DDT_AUDIT_GENERATED_(BC)
  6
Continuous
 62
     7
100
AcDbLine
 10
141.0501567968
 20
521.3293414391
 30
0.0
 11
141.0501567968
 21
521.4598676313
 31
0.0
  0
LINE
  5
27D
330
DD
100
AcDbEntity
  8
$DDT_AUDIT_GENERATED_(BC)
  6
Continuous
 62
     7
100
AcDbLine
 10
142.2501567968
 20
521.4598676313
 30
0.0
 11
142.2923754399
 21
521.4598676313
 31
0.0
  0
LINE
  5
27E
330
DD
100
AcDbEntity
  8
$DDT_AUDIT_GENERATED_(BC)
  6
Continuous
 62
     7
100
AcDbLine
 10
143.2501567968
 20
521.4008602812
 30
0.0
 11
143.2501567968
 21
521.3293414391
 31
0.0
  0
LINE
  5
27F
330
DD
100
AcDbEntity
  8
$DDT_AUDIT_GENERATED_(BC)
  6
Continuous
 62
     7
100
AcDbLine
 10
143.2501567968
 20
521.3293414391
 30
0.0
 11
142.2501567968
 21
521.3293414391
 31
0.0
  0
LINE
  5
280
330
DD
100
AcDbEntity
  8
$DDT_AUDIT_GENERATED_(BC)
  6
Continuous
 62
     7
100
AcDbLine
 10
142.2501567968
 20
521.3293414391
 30
0.0
 11
142.2501567968
 21
521.4598676313
 31
0.0
  0
LINE
  5
281
330
DD
100
AcDbEntity
  8
$DDT_AUDIT_GENERATED_(BC)
  6
Continuous
 62
     7
100
AcDbLine
 10
144.1169759111
 20
521.3293414391
 30
0.0
 11
143.4501567968
 21
521.3293414391
 31
0.0
  0
LINE
  5
282
330
DD
100
AcDbEntity
  8
$DDT_AUDIT_GENERATED_(BC)
  6
Continuous
 62
     7
100
AcDbLine
 10
143.4501567968
 20
521.3293414391
 30
0.0
 11
143.4501567968
 21
521.3860216622
 31
0.0
  0
LINE
  5
283
330
DD
100
AcDbEntity
  8
$DDT_AUDIT_GENERATED_(BC)
  6
Continuous
 62
     7
100
AcDbLine
 10
139.6501567968
 20
521.5365392802
 30
0.0
 11
139.6501567968
 21
521.4859728698
 31
0.0
  0
LINE
  5
284
330
DD
100
AcDbEntity
  8
$DDT_AUDIT_GENERATED_(BC)
  6
Continuous
 62
     7
100
AcDbLine
 10
140.8501567968
 20
521.5160445472
 30
0.0
 11
140.8501567968
 21
521.4859728698
 31
0.0
  0
LINE
  5
285
330
DD
100
AcDbEntity
  8
$DDT_AUDIT_GENERATED_(BC)
  6
Continuous
 62
     7
100
AcDbLine
 10
140.8501567968
 20
521.4859728698
 30
0.0
 11
139.8501567968
 21
521.4859728698
 31
0.0
  0
LINE
  5
286
330
DD
100
AcDbEntity
  8
$DDT_AUDIT_GENERATED_(BC)
  6
Continuous
 62
     7
100
AcDbLine
 10
139.8501567968
 20
521.4859728698
 30
0.0
 11
139.8501567968
 21
521.5346918203
 31
0.0
  0
LINE
  5
287
330
DD
100
AcDbEntity
  8
$DDT_AUDIT_GENERATED_(BC)
  6
Continuous
 62
     7
100
AcDbLine
 10
141.7336403324
 20
521.4859728698
 30
0.0
 11
141.0501567968
 21
521.4859728698
 31
0.0
  0
LINE
  5
288
330
DD
100
AcDbEntity
  8
$DDT_AUDIT_GENERATED_(BC)
  6
Continuous
 62
     7
100
AcDbLine
 10
141.0501567968
 20
521.4859728698
 30
0.0
 11
141.0501567968
 21
521.5103876654
 31
0.0
  0
LINE
  5
289
330
DD
100
AcDbEntity
  8
$DDT_AUDIT_GENERATED_(BC)
  6
Continuous
 62
     7
100
AcDbLine
 10
139.6501567968
 20
520.9899733394
 30
0.0
 11
139.6501567968
 21
520.8594471471
 31
0.0
  0
LINE
  5
28A
330
DD
100
AcDbEntity
  8
$DDT_AUDIT_GENERATED_(BC)
  6
Continuous
 62
     7
100
AcDbLine
 10
139.6501567968
 20
520.8333419087
 30
0.0
 11
139.6501567968
 21
520.7028157165
 31
0.0
  0
LINE
  5
28B
330
DD
100
AcDbEntity
  8
$DDT_AUDIT_GENERATED_(BC)
  6
Continuous
 62
     7
100
AcDbLine
 10
139.6501567968
 20
520.676710478
 30
0.0
 11
139.6501567968
 21
520.5461842858
 31
0.0
  0
LINE
  5
28C
330
DD
100
AcDbEntity
  8
$DDT_AUDIT_GENERATED_(BC)
  6
Continuous
 62
     7
100
AcDbLine
 10
139.6501567968
 20
520.5200790474
 30
0.0
 11
139.6501567968
 21
520.3895528552
 31
0.0
  0
LINE
  5
28D
330
DD
100
AcDbEntity
  8
$DDT_AUDIT_GENERATED_(BC)
  6
Continuous
 62
     7
100
AcDbLine
 10
139.6501567968
 20
520.3634476167
 30
0.0
 11
139.6501567968
 21
520.2329214245
 31
0.0
  0
LINE
  5
28E
330
DD
100
AcDbEntity
  8
$DDT_AUDIT_GENERATED_(BC)
  6
Continuous
 62
     7
100
AcDbLine
 10
139.6501567968
 20
520.2068161861
 30
0.0
 11
139.6501567968
 21
520.0762899938
 31
0.0
  0
LINE
  5
28F
330
DD
100
AcDbEntity
  8
$DDT_AUDIT_GENERATED_(BC)
  6
Continuous
 62
     7
100
AcDbLine
 10
139.6501567968
 20
520.0501847554
 30
0.0
 11
139.6501567968
 21
519.9196585632
 31
0.0
  0
LINE
  5
290
330
DD
100
AcDbEntity
  8
$DDT_AUDIT_GENERATED_(BC)
  6
Continuous
 62
     7
100
AcDbLine
 10
140.8501567968
 20
520.8594471471
 30
0.0
 11
139.8501567968
 21
520.8594471471
 31
0.0
  0
LINE
  5
291
330
DD
100
AcDbEntity
  8
$DDT_AUDIT_GENERATED_(BC)
  6
Continuous
 62
     7
100
AcDbLine
 10
140.8501567968
 20
520.8333419087
 30
0.0
 11
140.8501567968
 21
520.7028157165
 31
0.0
  0
LINE
  5
292
330
DD
100
AcDbEntity
  8
$DDT_AUDIT_GENERATED_(BC)
  6
Continuous
 62
     7
100
AcDbLine
 10
140.8501567968
 20
520.7028157165
 30
0.0
 11
139.8501567968
 21
520.7028157165
 31
0.0
  0
LINE
  5
293
330
DD
100
AcDbEntity
  8
$DDT_AUDIT_GENERATED_(BC)
  6
Continuous
 62
     7
100
AcDbLine
 10
139.8501567968
 20
520.7028157165
 30
0.0
 11
139.8501567968
 21
520.8333419087
 31
0.0
  0
LINE
  5
294
330
DD
100
AcDbEntity
  8
$DDT_AUDIT_GENERATED_(BC)
  6
Continuous
 62
     7
100
AcDbLine
 10
139.8501567968
 20
520.8333419087
 30
0.0
 11
140.8501567968
 21
520.8333419087
 31
0.0
  0
LINE
  5
295
330
DD
100
AcDbEntity
  8
$DDT_AUDIT_GENERATED_(BC)
  6
Continuous
 62
     7
100
AcDbLine
 10
140.8501567968
 20
520.676710478
 30
0.0
 11
140.8501567968
 21
520.5461842858
 31
0.0
  0
LINE
  5
296
330
DD
100
AcDbEntity
  8
$DDT_AUDIT_GENERATED_(BC)
  6
Continuous
 62
     7
100
AcDbLine
 10
140.8501567968
 20
520.5461842858
 30
0.0
 11
139.8501567968
 21
520.5461842858
 31
0.0
  0
LINE
  5
297
330
DD
100
AcDbEntity
  8
$DDT_AUDIT_GENERATED_(BC)
  6
Continuous
 62
     7
100
AcDbLine
 10
139.8501567968
 20
520.5461842858
 30
0.0
 11
139.8501567968
 21
520.676710478
 31
0.0
  0
LINE
  5
298
330
DD
100
AcDbEntity
  8
$DDT_AUDIT_GENERATED_(BC)
  6
Continuous
 62
     7
100
AcDbLine
 10
139.8501567968
 20
520.676710478
 30
0.0
 11
140.8501567968
 21
520.676710478
 31
0.0
  0
LINE
  5
299
330
DD
100
AcDbEntity
  8
$DDT_AUDIT_GENERATED_(BC)
  6
Continuous
 62
     7
100
AcDbLine
 10
140.8501567968
 20
520.5200790474
 30
0.0
 11
140.8501567968
 21
520.3895528552
 31
0.0
  0
LINE
  5
29A
330
DD
100
AcDbEntity
  8
$DDT_AUDIT_GENERATED_(BC)
  6
Continuous
 62
     7
100
AcDbLine
 10
140.8501567968
 20
520.3895528552
 30
0.0
 11
139.8501567968
 21
520.3895528552
 31
0.0
  0
LINE
  5
29B
330
DD
100
AcDbEntity
  8
$DDT_AUDIT_GENERATED_(BC)
  6
Continuous
 62
     7
100
AcDbLine
 10
139.8501567968
 20
520.3895528552
 30
0.0
 11
139.8501567968
 21
520.5200790474
 31
0.0
  0
LINE
  5
29C
330
DD
100
AcDbEntity
  8
$DDT_AUDIT_GENERATED_(BC)
  6
Continuous
 62
     7
100
AcDbLine
 10
139.8501567968
 20
520.5200790474
 30
0.0
 11
140.8501567968
 21
520.5200790474
 31
0.0
  0
LINE
  5
29D
330
DD
100
AcDbEntity
  8
$DDT_AUDIT_GENERATED_(BC)
  6
Continuous
 62
     7
100
AcDbLine
 10
140.8501567968
 20
520.3634476167
 30
0.0
 11
140.8501567968
 21
520.2329214245
 31
0.0
  0
LINE
  5
29E
330
DD
100
AcDbEntity
  8
$DDT_AUDIT_GENERATED_(BC)
  6
Continuous
 62
     7
100
AcDbLine
 10
140.8501567968
 20
520.2329214245
 30
0.0
 11
139.8501567968
 21
520.2329214245
 31
0.0
  0
LINE
  5
29F
330
DD
100
AcDbEntity
  8
$DDT_AUDIT_GENERATED_(BC)
  6
Continuous
 62
     7
100
AcDbLine
 10
139.8501567968
 20
520.2329214245
 30
0.0
 11
139.8501567968
 21
520.3634476167
 31
0.0
  0
LINE
  5
2A0
330
DD
100
AcDbEntity
  8
$DDT_AUDIT_GENERATED_(BC)
  6
Continuous
 62
     7
100
AcDbLine
 10
139.8501567968
 20
520.3634476167
 30
0.0
 11
140.8501567968
 21
520.3634476167
 31
0.0
  0
LINE
  5
2A1
330
DD
100
AcDbEntity
  8
$DDT_AUDIT_GENERATED_(BC)
  6
Continuous
 62
     7
100
AcDbLine
 10
140.8501567968
 20
520.2068161861
 30
0.0
 11
140.8501567968
 21
520.0762899938
 31
0.0
  0
LINE
  5
2A2
330
DD
100
AcDbEntity
  8
$DDT_AUDIT_GENERATED_(BC)
  6
Continuous
 62
     7
100
AcDbLine
 10
140.8501567968
 20
520.0762899938
 30
0.0
 11
139.8501567968
 21
520.0762899938
 31
0.0
  0
LINE
  5
2A3
330
DD
100
AcDbEntity
  8
$DDT_AUDIT_GENERATED_(BC)
  6
Continuous
 62
     7
100
AcDbLine
 10
139.8501567968
 20
520.0762899938
 30
0.0
 11
139.8501567968
 21
520.2068161861
 31
0.0
  0
LINE
  5
2A4
330
DD
100
AcDbEntity
  8
$DDT_AUDIT_GENERATED_(BC)
  6
Continuous
 62
     7
100
AcDbLine
 10
139.8501567968
 20
520.2068161861
 30
0.0
 11
140.8501567968
 21
520.2068161861
 31
0.0
  0
LINE
  5
2A5
330
DD
100
AcDbEntity
  8
$DDT_AUDIT_GENERATED_(BC)
  6
Continuous
 62
     7
100
AcDbLine
 10
140.8501567968
 20
520.0501847554
 30
0.0
 11
140.8501567968
 21
519.9196585632
 31
0.0
  0
LINE
  5
2A6
330
DD
100
AcDbEntity
  8
$DDT_AUDIT_GENERATED_(BC)
  6
Continuous
 62
     7
100
AcDbLine
 10
140.8501567968
 20
519.9196585632
 30
0.0
 11
139.8501567968
 21
519.9196585632
 31
0.0
  0
LINE
  5
2A7
330
DD
100
AcDbEntity
  8
$DDT_AUDIT_GENERATED_(BC)
  6
Continuous
 62
     7
100
AcDbLine
 10
139.8501567968
 20
519.9196585632
 30
0.0
 11
139.8501567968
 21
520.0501847554
 31
0.0
  0
LINE
  5
2A8
330
DD
100
AcDbEntity
  8
$DDT_AUDIT_GENERATED_(BC)
  6
Continuous
 62
     7
100
AcDbLine
 10
139.8501567968
 20
520.0501847554
 30
0.0
 11
140.8501567968
 21
520.0501847554
 31
0.0
  0
LINE
  5
2A9
330
DD
100
AcDbEntity
  8
$DDT_AUDIT_GENERATED_(BC)
  6
Continuous
 62
     7
100
AcDbLine
 10
142.0501567968
 20
520.8594471471
 30
0.0
 11
141.0501567968
 21
520.8594471471
 31
0.0
  0
LINE
  5
2AA
330
DD
100
AcDbEntity
  8
$DDT_AUDIT_GENERATED_(BC)
  6
Continuous
 62
     7
100
AcDbLine
 10
142.0501567968
 20
520.8333419087
 30
0.0
 11
142.0501567968
 21
520.7028157165
 31
0.0
  0
LINE
  5
2AB
330
DD
100
AcDbEntity
  8
$DDT_AUDIT_GENERATED_(BC)
  6
Continuous
 62
     7
100
AcDbLine
 10
142.0501567968
 20
520.7028157165
 30
0.0
 11
141.0501567968
 21
520.7028157165
 31
0.0
  0
LINE
  5
2AC
330
DD
100
AcDbEntity
  8
$DDT_AUDIT_GENERATED_(BC)
  6
Continuous
 62
     7
100
AcDbLine
 10
141.0501567968
 20
520.7028157165
 30
0.0
 11
141.0501567968
 21
520.8333419087
 31
0.0
  0
LINE
  5
2AD
330
DD
100
AcDbEntity
  8
$DDT_AUDIT_GENERATED_(BC)
  6
Continuous
 62
     7
100
AcDbLine
 10
141.0501567968
 20
520.8333419087
 30
0.0
 11
142.0501567968
 21
520.8333419087
 31
0.0
  0
LINE
  5
2AE
330
DD
100
AcDbEntity
  8
$DDT_AUDIT_GENERATED_(BC)
  6
Continuous
 62
     7
100
AcDbLine
 10
142.0501567968
 20
520.676710478
 30
0.0
 11
142.0501567968
 21
520.5461842858
 31
0.0
  0
LINE
  5
2AF
330
DD
100
AcDbEntity
  8
$DDT_AUDIT_GENERATED_(BC)
  6
Continuous
 62
     7
100
AcDbLine
 10
142.0501567968
 20
520.5461842858
 30
0.0
 11
141.0501567968
 21
520.5461842858
 31
0.0
  0
LINE
  5
2B0
330
DD
100
AcDbEntity
  8
$DDT_AUDIT_GENERATED_(BC)
  6
Continuous
 62
     7
100
AcDbLine
 10
141.0501567968
 20
520.5461842858
 30
0.0
 11
141.0501567968
 21
520.676710478
 31
0.0
  0
LINE
  5
2B1
330
DD
100
AcDbEntity
  8
$DDT_AUDIT_GENERATED_(BC)
  6
Continuous
 62
     7
100
AcDbLine
 10
141.0501567968
 20
520.676710478
 30
0.0
 11
142.0501567968
 21
520.676710478
 31
0.0
  0
LINE
  5
2B2
330
DD
100
AcDbEntity
  8
$DDT_AUDIT_GENERATED_(BC)
  6
Continuous
 62
     7
100
AcDbLine
 10
142.0501567968
 20
520.5200790474
 30
0.0
 11
142.0501567968
 21
520.3895528552
 31
0.0
  0
LINE
  5
2B3
330
DD
100
AcDbEntity
  8
$DDT_AUDIT_GENERATED_(BC)
  6
Continuous
 62
     7
100
AcDbLine
 10
142.0501567968
 20
520.3895528552
 30
0.0
 11
141.0501567968
 21
520.3895528552
 31
0.0
  0
LINE
  5
2B4
330
DD
100
AcDbEntity
  8
$DDT_AUDIT_GENERATED_(BC)
  6
Continuous
 62
     7
100
AcDbLine
 10
141.0501567968
 20
520.3895528552
 30
0.0
 11
141.0501567968
 21
520.5200790474
 31
0.0
  0
LINE
  5
2B5
330
DD
100
AcDbEntity
  8
$DDT_AUDIT_GENERATED_(BC)
  6
Continuous
 62
     7
100
AcDbLine
 10
141.0501567968
 20
520.5200790474
 30
0.0
 11
142.0501567968
 21
520.5200790474
 31
0.0
  0
LINE
  5
2B6
330
DD
100
AcDbEntity
  8
$DDT_AUDIT_GENERATED_(BC)
  6
Continuous
 62
     7
100
AcDbLine
 10
142.0501567968
 20
520.3634476167
 30
0.0
 11
142.0501567968
 21
520.2329214245
 31
0.0
  0
LINE
  5
2B7
330
DD
100
AcDbEntity
  8
$DDT_AUDIT_GENERATED_(BC)
  6
Continuous
 62
     7
100
AcDbLine
 10
142.0501567968
 20
520.2329214245
 30
0.0
 11
141.0501567968
 21
520.2329214245
 31
0.0
  0
LINE
  5
2B8
330
DD
100
AcDbEntity
  8
$DDT_AUDIT_GENERATED_(BC)
  6
Continuous
 62
     7
100
AcDbLine
 10
141.0501567968
 20
520.2329214245
 30
0.0
 11
141.0501567968
 21
520.3634476167
 31
0.0
  0
LINE
  5
2B9
330
DD
100
AcDbEntity
  8
$DDT_AUDIT_GENERATED_(BC)
  6
Continuous
 62
     7
100
AcDbLine
 10
141.0501567968
 20
520.3634476167
 30
0.0
 11
142.0501567968
 21
520.3634476167
 31
0.0
  0
LINE
  5
2BA
330
DD
100
AcDbEntity
  8
$DDT_AUDIT_GENERATED_(BC)
  6
Continuous
 62
     7
100
AcDbLine
 10
142.0501567968
 20
520.2068161861
 30
0.0
 11
142.0501567968
 21
520.0762899938
 31
0.0
  0
LINE
  5
2BB
330
DD
100
AcDbEntity
  8
$DDT_AUDIT_GENERATED_(BC)
  6
Continuous
 62
     7
100
AcDbLine
 10
142.0501567968
 20
520.0762899938
 30
0.0
 11
141.0501567968
 21
520.0762899938
 31
0.0
  0
LINE
  5
2BC
330
DD
100
AcDbEntity
  8
$DDT_AUDIT_GENERATED_(BC)
  6
Continuous
 62
     7
100
AcDbLine
 10
141.0501567968
 20
520.0762899938
 30
0.0
 11
141.0501567968
 21
520.2068161861
 31
0.0
  0
LINE
  5
2BD
330
DD
100
AcDbEntity
  8
$DDT_AUDIT_GENERATED_(BC)
  6
Continuous
 62
     7
100
AcDbLine
 10
141.0501567968
 20
520.2068161861
 30
0.0
 11
142.0501567968
 21
520.2068161861
 31
0.0
  0
LINE
  5
2BE
330
DD
100
AcDbEntity
  8
$DDT_AUDIT_GENERATED_(BC)
  6
Continuous
 62
     7
100
AcDbLine
 10
143.2501567968
 20
520.8594471471
 30
0.0
 11
142.2501567968
 21
520.8594471471
 31
0.0
  0
LINE
  5
2BF
330
DD
100
AcDbEntity
  8
$DDT_AUDIT_GENERATED_(BC)
  6
Continuous
 62
     7
100
AcDbLine
 10
143.2501567968
 20
520.8333419087
 30
0.0
 11
143.2501567968
 21
520.7028157165
 31
0.0
  0
LINE
  5
2C0
330
DD
100
AcDbEntity
  8
$DDT_AUDIT_GENERATED_(BC)
  6
Continuous
 62
     7
100
AcDbLine
 10
143.2501567968
 20
520.7028157165
 30
0.0
 11
142.2501567968
 21
520.7028157165
 31
0.0
  0
LINE
  5
2C1
330
DD
100
AcDbEntity
  8
$DDT_AUDIT_GENERATED_(BC)
  6
Continuous
 62
     7
100
AcDbLine
 10
142.2501567968
 20
520.7028157165
 30
0.0
 11
142.2501567968
 21
520.8333419087
 31
0.0
  0
LINE
  5
2C2
330
DD
100
AcDbEntity
  8
$DDT_AUDIT_GENERATED_(BC)
  6
Continuous
 62
     7
100
AcDbLine
 10
142.2501567968
 20
520.8333419087
 30
0.0
 11
143.2501567968
 21
520.8333419087
 31
0.0
  0
LINE
  5
2C3
330
DD
100
AcDbEntity
  8
$DDT_AUDIT_GENERATED_(BC)
  6
Continuous
 62
     7
100
AcDbLine
 10
143.2501567968
 20
520.676710478
 30
0.0
 11
143.2501567968
 21
520.5461842858
 31
0.0
  0
LINE
  5
2C4
330
DD
100
AcDbEntity
  8
$DDT_AUDIT_GENERATED_(BC)
  6
Continuous
 62
     7
100
AcDbLine
 10
143.2501567968
 20
520.5461842858
 30
0.0
 11
142.2501567968
 21
520.5461842858
 31
0.0
  0
LINE
  5
2C5
330
DD
100
AcDbEntity
  8
$DDT_AUDIT_GENERATED_(BC)
  6
Continuous
 62
     7
100
AcDbLine
 10
142.2501567968
 20
520.5461842858
 30
0.0
 11
142.2501567968
 21
520.676710478
 31
0.0
  0
LINE
  5
2C6
330
DD
100
AcDbEntity
  8
$DDT_AUDIT_GENERATED_(BC)
  6
Continuous
 62
     7
100
AcDbLine
 10
142.2501567968
 20
520.676710478
 30
0.0
 11
143.2501567968
 21
520.676710478
 31
0.0
  0
LINE
  5
2C7
330
DD
100
AcDbEntity
  8
$DDT_AUDIT_GENERATED_(BC)
  6
Continuous
 62
     7
100
AcDbLine
 10
143.2501567968
 20
520.5200790474
 30
0.0
 11
143.2501567968
 21
520.3895528552
 31
0.0
  0
LINE
  5
2C8
330
DD
100
AcDbEntity
  8
$DDT_AUDIT_GENERATED_(BC)
  6
Continuous
 62
     7
100
AcDbLine
 10
143.2501567968
 20
520.3895528552
 30
0.0
 11
142.2501567968
 21
520.3895528552
 31
0.0
  0
LINE
  5
2C9
330
DD
100
AcDbEntity
  8
$DDT_AUDIT_GENERATED_(BC)
  6
Continuous
 62
     7
100
AcDbLine
 10
142.2501567968
 20
520.3895528552
 30
0.0
 11
142.2501567968
 21
520.5200790474
 31
0.0
  0
LINE
  5
2CA
330
DD
100
AcDbEntity
  8
$DDT_AUDIT_GENERATED_(BC)
  6
Continuous
 62
     7
100
AcDbLine
 10
142.2501567968
 20
520.5200790474
 30
0.0
 11
143.2501567968
 21
520.5200790474
 31
0.0
  0
LINE
  5
2CB
330
DD
100
AcDbEntity
  8
$DDT_AUDIT_GENERATED_(BC)
  6
Continuous
 62
     7
100
AcDbLine
 10
143.2501567968
 20
520.3634476167
 30
0.0
 11
143.2501567968
 21
520.2329214245
 31
0.0
  0
LINE
  5
2CC
330
DD
100
AcDbEntity
  8
$DDT_AUDIT_GENERATED_(BC)
  6
Continuous
 62
     7
100
AcDbLine
 10
143.2501567968
 20
520.2329214245
 30
0.0
 11
142.2501567968
 21
520.2329214245
 31
0.0
  0
LINE
  5
2CD
330
DD
100
AcDbEntity
  8
$DDT_AUDIT_GENERATED_(BC)
  6
Continuous
 62
     7
100
AcDbLine
 10
142.2501567968
 20
520.2329214245
 30
0.0
 11
142.2501567968
 21
520.3634476167
 31
0.0
  0
LINE
  5
2CE
330
DD
100
AcDbEntity
  8
$DDT_AUDIT_GENERATED_(BC)
  6
Continuous
 62
     7
100
AcDbLine
 10
142.2501567968
 20
520.3634476167
 30
0.0
 11
143.2501567968
 21
520.3634476167
 31
0.0
  0
LINE
  5
2CF
330
DD
100
AcDbEntity
  8
$DDT_AUDIT_GENERATED_(BC)
  6
Continuous
 62
     7
100
AcDbLine
 10
143.2501567968
 20
520.2068161861
 30
0.0
 11
143.2501567968
 21
520.0762899938
 31
0.0
  0
LINE
  5
2D0
330
DD
100
AcDbEntity
  8
$DDT_AUDIT_GENERATED_(BC)
  6
Continuous
 62
     7
100
AcDbLine
 10
143.2501567968
 20
520.0762899938
 30
0.0
 11
142.2501567968
 21
520.0762899938
 31
0.0
  0
LINE
  5
2D1
330
DD
100
AcDbEntity
  8
$DDT_AUDIT_GENERATED_(BC)
  6
Continuous
 62
     7
100
AcDbLine
 10
142.2501567968
 20
520.0762899938
 30
0.0
 11
142.2501567968
 21
520.2068161861
 31
0.0
  0
LINE
  5
2D2
330
DD
100
AcDbEntity
  8
$DDT_AUDIT_GENERATED_(BC)
  6
Continuous
 62
     7
100
AcDbLine
 10
142.2501567968
 20
520.2068161861
 30
0.0
 11
143.2501567968
 21
520.2068161861
 31
0.0
  0
LINE
  5
2D3
330
DD
100
AcDbEntity
  8
$DDT_AUDIT_GENERATED_(BC)
  6
Continuous
 62
     7
100
AcDbLine
 10
144.4501567968
 20
520.8594471471
 30
0.0
 11
143.4501567968
 21
520.8594471471
 31
0.0
  0
LINE
  5
2D4
330
DD
100
AcDbEntity
  8
$DDT_AUDIT_GENERATED_(BC)
  6
Continuous
 62
     7
100
AcDbLine
 10
144.4501567968
 20
520.8333419087
 30
0.0
 11
144.4501567968
 21
520.7028157165
 31
0.0
  0
LINE
  5
2D5
330
DD
100
AcDbEntity
  8
$DDT_AUDIT_GENERATED_(BC)
  6
Continuous
 62
     7
100
AcDbLine
 10
144.4501567968
 20
520.7028157165
 30
0.0
 11
143.4501567968
 21
520.7028157165
 31
0.0
  0
LINE
  5
2D6
330
DD
100
AcDbEntity
  8
$DDT_AUDIT_GENERATED_(BC)
  6
Continuous
 62
     7
100
AcDbLine
 10
143.4501567968
 20
520.7028157165
 30
0.0
 11
143.4501567968
 21
520.8333419087
 31
0.0
  0
LINE
  5
2D7
330
DD
100
AcDbEntity
  8
$DDT_AUDIT_GENERATED_(BC)
  6
Continuous
 62
     7
100
AcDbLine
 10
143.4501567968
 20
520.8333419087
 30
0.0
 11
144.4501567968
 21
520.8333419087
 31
0.0
  0
LINE
  5
2D8
330
DD
100
AcDbEntity
  8
$DDT_AUDIT_GENERATED_(BC)
  6
Continuous
 62
     7
100
AcDbLine
 10
144.4501567968
 20
520.676710478
 30
0.0
 11
144.4501567968
 21
520.5461842858
 31
0.0
  0
LINE
  5
2D9
330
DD
100
AcDbEntity
  8
$DDT_AUDIT_GENERATED_(BC)
  6
Continuous
 62
     7
100
AcDbLine
 10
144.4501567968
 20
520.5461842858
 30
0.0
 11
143.4501567968
 21
520.5461842858
 31
0.0
  0
LINE
  5
2DA
330
DD
100
AcDbEntity
  8
$DDT_AUDIT_GENERATED_(BC)
  6
Continuous
 62
     7
100
AcDbLine
 10
143.4501567968
 20
520.5461842858
 30
0.0
 11
143.4501567968
 21
520.676710478
 31
0.0
  0
LINE
  5
2DB
330
DD
100
AcDbEntity
  8
$DDT_AUDIT_GENERATED_(BC)
  6
Continuous
 62
     7
100
AcDbLine
 10
143.4501567968
 20
520.676710478
 30
0.0
 11
144.4501567968
 21
520.676710478
 31
0.0
  0
LINE
  5
2DC
330
DD
100
AcDbEntity
  8
$DDT_AUDIT_GENERATED_(BC)
  6
Continuous
 62
     7
100
AcDbLine
 10
144.4501567968
 20
520.5200790474
 30
0.0
 11
144.4501567968
 21
520.3895528552
 31
0.0
  0
LINE
  5
2DD
330
DD
100
AcDbEntity
  8
$DDT_AUDIT_GENERATED_(BC)
  6
Continuous
 62
     7
100
AcDbLine
 10
144.4501567968
 20
520.3895528552
 30
0.0
 11
143.4501567968
 21
520.3895528552
 31
0.0
  0
LINE
  5
2DE
330
DD
100
AcDbEntity
  8
$DDT_AUDIT_GENERATED_(BC)
  6
Continuous
 62
     7
100
AcDbLine
 10
143.4501567968
 20
520.3895528552
 30
0.0
 11
143.4501567968
 21
520.5200790474
 31
0.0
  0
LINE
  5
2DF
330
DD
100
AcDbEntity
  8
$DDT_AUDIT_GENERATED_(BC)
  6
Continuous
 62
     7
100
AcDbLine
 10
143.4501567968
 20
520.5200790474
 30
0.0
 11
144.4501567968
 21
520.5200790474
 31
0.0
  0
LINE
  5
2E0
330
DD
100
AcDbEntity
  8
$DDT_AUDIT_GENERATED_(BC)
  6
Continuous
 62
     7
100
AcDbLine
 10
144.4501567968
 20
520.3634476167
 30
0.0
 11
144.4501567968
 21
520.2329214245
 31
0.0
  0
LINE
  5
2E1
330
DD
100
AcDbEntity
  8
$DDT_AUDIT_GENERATED_(BC)
  6
Continuous
 62
     7
100
AcDbLine
 10
144.4501567968
 20
520.2329214245
 30
0.0
 11
143.4501567968
 21
520.2329214245
 31
0.0
  0
LINE
  5
2E2
330
DD
100
AcDbEntity
  8
$DDT_AUDIT_GENERATED_(BC)
  6
Continuous
 62
     7
100
AcDbLine
 10
143.4501567968
 20
520.2329214245
 30
0.0
 11
143.4501567968
 21
520.3634476167
 31
0.0
  0
LINE
  5
2E3
330
DD
100
AcDbEntity
  8
$DDT_AUDIT_GENERATED_(BC)
  6
Continuous
 62
     7
100
AcDbLine
 10
143.4501567968
 20
520.3634476167
 30
0.0
 11
144.4501567968
 21
520.3634476167
 31
0.0
  0
LINE
  5
2E4
330
DD
100
AcDbEntity
  8
$DDT_AUDIT_GENERATED_(BC)
  6
Continuous
 62
     7
100
AcDbLine
 10
145.6501567968
 20
520.8594471471
 30
0.0
 11
144.6501567968
 21
520.8594471471
 31
0.0
  0
LINE
  5
2E5
330
DD
100
AcDbEntity
  8
$DDT_AUDIT_GENERATED_(BC)
  6
Continuous
 62
     7
100
AcDbLine
 10
145.6501567968
 20
520.8333419087
 30
0.0
 11
145.6501567968
 21
520.7028157165
 31
0.0
  0
LINE
  5
2E6
330
DD
100
AcDbEntity
  8
$DDT_AUDIT_GENERATED_(BC)
  6
Continuous
 62
     7
100
AcDbLine
 10
145.6501567968
 20
520.7028157165
 30
0.0
 11
144.6501567968
 21
520.7028157165
 31
0.0
  0
LINE
  5
2E7
330
DD
100
AcDbEntity
  8
$DDT_AUDIT_GENERATED_(BC)
  6
Continuous
 62
     7
100
AcDbLine
 10
144.6501567968
 20
520.7028157165
 30
0.0
 11
144.6501567968
 21
520.8333419087
 31
0.0
  0
LINE
  5
2E8
330
DD
100
AcDbEntity
  8
$DDT_AUDIT_GENERATED_(BC)
  6
Continuous
 62
     7
100
AcDbLine
 10
144.6501567968
 20
520.8333419087
 30
0.0
 11
145.6501567968
 21
520.8333419087
 31
0.0
  0
LINE
  5
2E9
330
DD
100
AcDbEntity
  8
$DDT_AUDIT_GENERATED_(BC)
  6
Continuous
 62
     7
100
AcDbLine
 10
145.6501567968
 20
520.676710478
 30
0.0
 11
145.6501567968
 21
520.5461842858
 31
0.0
  0
LINE
  5
2EA
330
DD
100
AcDbEntity
  8
$DDT_AUDIT_GENERATED_(BC)
  6
Continuous
 62
     7
100
AcDbLine
 10
145.6501567968
 20
520.5461842858
 30
0.0
 11
144.6501567968
 21
520.5461842858
 31
0.0
  0
LINE
  5
2EB
330
DD
100
AcDbEntity
  8
$DDT_AUDIT_GENERATED_(BC)
  6
Continuous
 62
     7
100
AcDbLine
 10
144.6501567968
 20
520.5461842858
 30
0.0
 11
144.6501567968
 21
520.676710478
 31
0.0
  0
LINE
  5
2EC
330
DD
100
AcDbEntity
  8
$DDT_AUDIT_GENERATED_(BC)
  6
Continuous
 62
     7
100
AcDbLine
 10
144.6501567968
 20
520.676710478
 30
0.0
 11
145.6501567968
 21
520.676710478
 31
0.0
  0
LINE
  5
2ED
330
DD
100
AcDbEntity
  8
$DDT_AUDIT_GENERATED_(BC)
  6
Continuous
 62
     7
100
AcDbLine
 10
145.6501567968
 20
520.5200790474
 30
0.0
 11
145.6501567968
 21
520.3895528552
 31
0.0
  0
LINE
  5
2EE
330
DD
100
AcDbEntity
  8
$DDT_AUDIT_GENERATED_(BC)
  6
Continuous
 62
     7
100
AcDbLine
 10
145.6501567968
 20
520.3895528552
 30
0.0
 11
144.6501567968
 21
520.3895528552
 31
0.0
  0
LINE
  5
2EF
330
DD
100
AcDbEntity
  8
$DDT_AUDIT_GENERATED_(BC)
  6
Continuous
 62
     7
100
AcDbLine
 10
144.6501567968
 20
520.3895528552
 30
0.0
 11
144.6501567968
 21
520.5200790474
 31
0.0
  0
LINE
  5
2F0
330
DD
100
AcDbEntity
  8
$DDT_AUDIT_GENERATED_(BC)
  6
Continuous
 62
     7
100
AcDbLine
 10
144.6501567968
 20
520.5200790474
 30
0.0
 11
145.6501567968
 21
520.5200790474
 31
0.0
  0
LINE
  5
2F1
330
DD
100
AcDbEntity
  8
$DDT_AUDIT_GENERATED_(BC)
  6
Continuous
 62
     7
100
AcDbLine
 10
146.8501567968
 20
520.8594471471
 30
0.0
 11
145.8501567968
 21
520.8594471471
 31
0.0
  0
LINE
  5
2F2
330
DD
100
AcDbEntity
  8
$DDT_AUDIT_GENERATED_(BC)
  6
Continuous
 62
     7
100
AcDbLine
 10
146.8501567968
 20
520.8333419087
 30
0.0
 11
146.8501567968
 21
520.7028157165
 31
0.0
  0
LINE
  5
2F3
330
DD
100
AcDbEntity
  8
$DDT_AUDIT_GENERATED_(BC)
  6
Continuous
 62
     7
100
AcDbLine
 10
146.8501567968
 20
520.7028157165
 30
0.0
 11
145.8501567968
 21
520.7028157165
 31
0.0
  0
LINE
  5
2F4
330
DD
100
AcDbEntity
  8
$DDT_AUDIT_GENERATED_(BC)
  6
Continuous
 62
     7
100
AcDbLine
 10
145.8501567968
 20
520.7028157165
 30
0.0
 11
145.8501567968
 21
520.8333419087
 31
0.0
  0
LINE
  5
2F5
330
DD
100
AcDbEntity
  8
$DDT_AUDIT_GENERATED_(BC)
  6
Continuous
 62
     7
100
AcDbLine
 10
145.8501567968
 20
520.8333419087
 30
0.0
 11
146.8501567968
 21
520.8333419087
 31
0.0
  0
LINE
  5
2F6
330
DD
100
AcDbEntity
  8
$DDT_AUDIT_GENERATED_(BC)
  6
Continuous
 62
     7
100
AcDbLine
 10
146.8501567968
 20
520.676710478
 30
0.0
 11
146.8501567968
 21
520.5461842858
 31
0.0
  0
LINE
  5
2F7
330
DD
100
AcDbEntity
  8
$DDT_AUDIT_GENERATED_(BC)
  6
Continuous
 62
     7
100
AcDbLine
 10
146.8501567968
 20
520.5461842858
 30
0.0
 11
145.8501567968
 21
520.5461842858
 31
0.0
  0
LINE
  5
2F8
330
DD
100
AcDbEntity
  8
$DDT_AUDIT_GENERATED_(BC)
  6
Continuous
 62
     7
100
AcDbLine
 10
145.8501567968
 20
520.5461842858
 30
0.0
 11
145.8501567968
 21
520.676710478
 31
0.0
  0
LINE
  5
2F9
330
DD
100
AcDbEntity
  8
$DDT_AUDIT_GENERATED_(BC)
  6
Continuous
 62
     7
100
AcDbLine
 10
145.8501567968
 20
520.676710478
 30
0.0
 11
146.8501567968
 21
520.676710478
 31
0.0
  0
ELLIPSE
  5
2FA
330
DD
100
AcDbEntity
  8
$DDT_AUDIT_GENERATED_(BC)
  6
Continuous
 62
     7
100
AcDbEllipse
 10
139.150156797
 20
520.9247102433
 30
0.0
 11
8.249999999782451
 21
3.941291737419306E-12
 31
0.0
210
0.0
220
0.0
230
1.0
 40
0.1305261922
 41
-0.2075474504859205
 42
-0.1640860757389939
  0
LINE
  5
2FB
330
DD
100
AcDbEntity
  8
$DDT_AUDIT_GENERATED_(BC)
  6
Continuous
 62
     7
100
AcDbLine
 10
147.2231054527
 20
520.7028157165
 30
0.0
 11
147.2231054527
 21
520.7762340972
 31
0.0
  0
LINE
  5
2FC
330
DD
100
AcDbEntity
  8
$DDT_AUDIT_GENERATED_(BC)
  6
Continuous
 62
     7
100
AcDbLine
 10
147.2231054527
 20
520.7028157165
 30
0.0
 11
147.0501567968
 21
520.7028157165
 31
0.0
  0
LINE
  5
2FD
330
DD
100
AcDbEntity
  8
$DDT_AUDIT_GENERATED_(BC)
  6
Continuous
 62
     7
100
AcDbLine
 10
147.0501567968
 20
520.7028157165
 30
0.0
 11
147.0501567968
 21
520.8333419087
 31
0.0
  0
LINE
  5
2FE
330
DD
100
AcDbEntity
  8
$DDT_AUDIT_GENERATED_(BC)
  6
Continuous
 62
     7
100
AcDbLine
 10
147.0501567968
 20
520.8333419087
 30
0.0
 11
147.0655315664
 21
520.8333419087
 31
0.0
  0
ELLIPSE
  5
2FF
330
DD
100
AcDbEntity
  8
$DDT_AUDIT_GENERATED_(BC)
  6
Continuous
 62
     7
100
AcDbEllipse
 10
139.1501567985
 20
520.9247102432
 30
0.0
 11
8.249999998343066
 21
5.055678098386807E-11
 31
0.0
210
0.0
220
0.0
230
1.0
 40
0.1305261922
 41
-0.2923273931833998
 42
-0.2323890725050406
  0
LINE
  5
300
330
DD
100
AcDbEntity
  8
$DDT_AUDIT_GENERATED_(BC)
  6
Continuous
 62
     7
100
AcDbLine
 10
147.0501567968
 20
520.6143843928
 30
0.0
 11
147.0501567968
 21
520.676710478
 31
0.0
  0
LINE
  5
301
330
DD
100
AcDbEntity
  8
$DDT_AUDIT_GENERATED_(BC)
  6
Continuous
 62
     7
100
AcDbLine
 10
147.0501567968
 20
520.676710478
 30
0.0
 11
147.1783882335
 21
520.676710478
 31
0.0
  0
ELLIPSE
  5
302
330
DD
100
AcDbEntity
  8
$DDT_AUDIT_GENERATED_(BC)
  6
Continuous
 62
     7
100
AcDbEllipse
 10
139.1501567968
 20
520.9247102433
 30
0.0
 11
8.250000000065212
 21
-2.331468351712829E-12
 31
0.0
210
0.0
220
0.0
230
1.0
 40
0.1305261922
 41
-0.5201032032623205
 42
-0.3852141216607263
  0
LINE
  5
303
330
DD
100
AcDbEntity
  8
$DDT_AUDIT_GENERATED_(BC)
  6
Continuous
 62
     7
100
AcDbLine
 10
146.3092419339
 20
520.3895528552
 30
0.0
 11
146.3092419339
 21
520.5200790474
 31
0.0
  0
LINE
  5
304
330
DD
100
AcDbEntity
  8
$DDT_AUDIT_GENERATED_(BC)
  6
Continuous
 62
     7
100
AcDbLine
 10
146.3092419339
 20
520.3895528552
 30
0.0
 11
145.8501567968
 21
520.3895528552
 31
0.0
  0
LINE
  5
305
330
DD
100
AcDbEntity
  8
$DDT_AUDIT_GENERATED_(BC)
  6
Continuous
 62
     7
100
AcDbLine
 10
145.8501567968
 20
520.3895528552
 30
0.0
 11
145.8501567968
 21
520.5200790474
 31
0.0
  0
LINE
  5
306
330
DD
100
AcDbEntity
  8
$DDT_AUDIT_GENERATED_(BC)
  6
Continuous
 62
     7
100
AcDbLine
 10
145.8501567968
 20
520.5200790474
 30
0.0
 11
146.7955802645
 21
520.5200790474
 31
0.0
  0
ELLIPSE
  5
307
330
DD
100
AcDbEntity
  8
$DDT_AUDIT_GENERATED_(BC)
  6
Continuous
 62
     7
100
AcDbEllipse
 10
139.1501568312
 20
520.9247102397
 30
0.0
 11
8.249999964515142
 21
2.851316405205750E-9
 31
0.0
210
0.0
220
0.0
230
1.0
 40
0.1305261923
 41
-0.6976574542732585
 42
-0.6634394355505515
  0
LINE
  5
308
330
DD
100
AcDbEntity
  8
$DDT_AUDIT_GENERATED_(BC)
  6
Continuous
 62
     7
100
AcDbLine
 10
145.4725376775
 20
520.2329214245
 30
0.0
 11
145.4725376775
 21
520.3634476167
 31
0.0
  0
LINE
  5
309
330
DD
100
AcDbEntity
  8
$DDT_AUDIT_GENERATED_(BC)
  6
Continuous
 62
     7
100
AcDbLine
 10
145.4725376775
 20
520.2329214245
 30
0.0
 11
144.6501567968
 21
520.2329214245
 31
0.0
  0
LINE
  5
30A
330
DD
100
AcDbEntity
  8
$DDT_AUDIT_GENERATED_(BC)
  6
Continuous
 62
     7
100
AcDbLine
 10
144.6501567968
 20
520.2329214245
 30
0.0
 11
144.6501567968
 21
520.3634476167
 31
0.0
  0
LINE
  5
30B
330
DD
100
AcDbEntity
  8
$DDT_AUDIT_GENERATED_(BC)
  6
Continuous
 62
     7
100
AcDbLine
 10
144.6501567968
 20
520.3634476167
 30
0.0
 11
145.6501567968
 21
520.3634476167
 31
0.0
  0
LINE
  5
30C
330
DD
100
AcDbEntity
  8
$DDT_AUDIT_GENERATED_(BC)
  6
Continuous
 62
     7
100
AcDbLine
 10
145.6501567968
 20
520.3634476167
 30
0.0
 11
145.6501567968
 21
520.2615588243
 31
0.0
  0
ELLIPSE
  5
30D
330
DD
100
AcDbEntity
  8
$DDT_AUDIT_GENERATED_(BC)
  6
Continuous
 62
     7
100
AcDbEllipse
 10
139.1501567988
 20
520.9247102431
 30
0.0
 11
8.249999998015277
 21
1.427746809667951E-10
 31
0.0
210
0.0
220
0.0
230
1.0
 40
0.1305261922
 41
-0.6230179598960541
 42
-0.5482706341455259
  0
LINE
  5
30E
330
DD
100
AcDbEntity
  8
$DDT_AUDIT_GENERATED_(BC)
  6
Continuous
 62
     7
100
AcDbLine
 10
145.8501567968
 20
520.2963855699
 30
0.0
 11
145.8501567968
 21
520.3634476167
 31
0.0
  0
LINE
  5
30F
330
DD
100
AcDbEntity
  8
$DDT_AUDIT_GENERATED_(BC)
  6
Continuous
 62
     7
100
AcDbLine
 10
145.8501567968
 20
520.3634476167
 30
0.0
 11
146.190930902
 21
520.3634476167
 31
0.0
  0
ELLIPSE
  5
310
330
DD
100
AcDbEntity
  8
$DDT_AUDIT_GENERATED_(BC)
  6
Continuous
 62
     7
100
AcDbEllipse
 10
139.1501567871
 20
520.9247102448
 30
0.0
 11
8.250000010770098
 21
-1.002448124509669E-9
 31
0.0
210
0.0
220
0.0
230
1.0
 40
0.1305261922
 41
-0.9073568920674093
 42
-0.8731388734683598
  0
LINE
  5
311
330
DD
100
AcDbEntity
  8
$DDT_AUDIT_GENERATED_(BC)
  6
Continuous
 62
     7
100
AcDbLine
 10
144.2307571551
 20
520.0762899938
 30
0.0
 11
144.2307571551
 21
520.2068161861
 31
0.0
  0
LINE
  5
312
330
DD
100
AcDbEntity
  8
$DDT_AUDIT_GENERATED_(BC)
  6
Continuous
 62
     7
100
AcDbLine
 10
144.2307571551
 20
520.0762899938
 30
0.0
 11
143.4501567968
 21
520.0762899938
 31
0.0
  0
LINE
  5
313
330
DD
100
AcDbEntity
  8
$DDT_AUDIT_GENERATED_(BC)
  6
Continuous
 62
     7
100
AcDbLine
 10
143.4501567968
 20
520.0762899938
 30
0.0
 11
143.4501567968
 21
520.2068161861
 31
0.0
  0
LINE
  5
314
330
DD
100
AcDbEntity
  8
$DDT_AUDIT_GENERATED_(BC)
  6
Continuous
 62
     7
100
AcDbLine
 10
143.4501567968
 20
520.2068161861
 30
0.0
 11
144.4501567968
 21
520.2068161861
 31
0.0
  0
LINE
  5
315
330
DD
100
AcDbEntity
  8
$DDT_AUDIT_GENERATED_(BC)
  6
Continuous
 62
     7
100
AcDbLine
 10
144.4501567968
 20
520.2068161861
 30
0.0
 11
144.4501567968
 21
520.0994739412
 31
0.0
  0
ELLIPSE
  5
316
330
DD
100
AcDbEntity
  8
$DDT_AUDIT_GENERATED_(BC)
  6
Continuous
 62
     7
100
AcDbEllipse
 10
139.1501567968
 20
520.9247102433
 30
0.0
 11
8.250000000017417
 21
-4.163336342344337E-13
 31
0.0
210
0.0
220
0.0
230
1.0
 40
0.1305261922
 41
-0.841068670567191
 42
-0.7297276562263963
  0
LINE
  5
317
330
DD
100
AcDbEntity
  8
$DDT_AUDIT_GENERATED_(BC)
  6
Continuous
 62
     7
100
AcDbLine
 10
144.6501567968
 20
520.122080287
 30
0.0
 11
144.6501567968
 21
520.2068161861
 31
0.0
  0
LINE
  5
318
330
DD
100
AcDbEntity
  8
$DDT_AUDIT_GENERATED_(BC)
  6
Continuous
 62
     7
100
AcDbLine
 10
144.6501567968
 20
520.2068161861
 30
0.0
 11
145.299343735
 21
520.2068161861
 31
0.0
  0
LINE
  5
319
330
DD
100
AcDbEntity
  8
$DDT_AUDIT_GENERATED_(BC)
  6
Continuous
 62
     7
100
AcDbLine
 10
142.0501567968
 20
520.0501847554
 30
0.0
 11
142.0501567968
 21
519.9196585632
 31
0.0
  0
LINE
  5
31A
330
DD
100
AcDbEntity
  8
$DDT_AUDIT_GENERATED_(BC)
  6
Continuous
 62
     7
100
AcDbLine
 10
142.0501567968
 20
519.9196585632
 30
0.0
 11
141.0501567968
 21
519.9196585632
 31
0.0
  0
LINE
  5
31B
330
DD
100
AcDbEntity
  8
$DDT_AUDIT_GENERATED_(BC)
  6
Continuous
 62
     7
100
AcDbLine
 10
141.0501567968
 20
519.9196585632
 30
0.0
 11
141.0501567968
 21
520.0501847554
 31
0.0
  0
LINE
  5
31C
330
DD
100
AcDbEntity
  8
$DDT_AUDIT_GENERATED_(BC)
  6
Continuous
 62
     7
100
AcDbLine
 10
141.0501567968
 20
520.0501847554
 30
0.0
 11
142.0501567968
 21
520.0501847554
 31
0.0
  0
ELLIPSE
  5
31D
330
DD
100
AcDbEntity
  8
$DDT_AUDIT_GENERATED_(BC)
  6
Continuous
 62
     7
100
AcDbEllipse
 10
139.1501567968
 20
520.9247102433
 30
0.0
 11
8.250000000067168
 21
-5.842548667089886E-12
 31
0.0
210
0.0
220
0.0
230
1.0
 40
0.1305261922
 41
-1.185582205129482
 42
-1.050693123528233
  0
LINE
  5
31E
330
DD
100
AcDbEntity
  8
$DDT_AUDIT_GENERATED_(BC)
  6
Continuous
 62
     7
100
AcDbLine
 10
142.2501567968
 20
519.9267822301
 30
0.0
 11
142.2501567968
 21
520.0501847554
 31
0.0
  0
LINE
  5
31F
330
DD
100
AcDbEntity
  8
$DDT_AUDIT_GENERATED_(BC)
  6
Continuous
 62
     7
100
AcDbLine
 10
142.2501567968
 20
520.0501847554
 30
0.0
 11
143.2501567968
 21
520.0501847554
 31
0.0
  0
LINE
  5
320
330
DD
100
AcDbEntity
  8
$DDT_AUDIT_GENERATED_(BC)
  6
Continuous
 62
     7
100
AcDbLine
 10
143.2501567968
 20
520.0501847554
 30
0.0
 11
143.2501567968
 21
519.9902621206
 31
0.0
  0
ELLIPSE
  5
321
330
DD
100
AcDbEntity
  8
$DDT_AUDIT_GENERATED_(BC)
  6
Continuous
 62
     7
100
AcDbEllipse
 10
139.1501567982
 20
520.924710243
 30
0.0
 11
8.249999998418019
 21
1.448841047135829E-10
 31
0.0
210
0.0
220
0.0
230
1.0
 40
0.1305261922
 41
-1.022525692786196
 42
-0.9477783670352782
  0
LINE
  5
322
330
DD
100
AcDbEntity
  8
$DDT_AUDIT_GENERATED_(BC)
  6
Continuous
 62
     7
100
AcDbLine
 10
143.4501567968
 20
520.0057048091
 30
0.0
 11
143.4501567968
 21
520.0501847554
 31
0.0
  0
LINE
  5
323
330
DD
100
AcDbEntity
  8
$DDT_AUDIT_GENERATED_(BC)
  6
Continuous
 62
     7
100
AcDbLine
 10
143.4501567968
 20
520.0501847554
 30
0.0
 11
143.9639390935
 21
520.0501847554
 31
0.0
  0
LINE
  5
324
330
DD
100
AcDbEntity
  8
$DDT_AUDIT_GENERATED_(BC)
  6
Continuous
 62
     7
100
AcDbLine
 10
139.6501567968
 20
519.8935533247
 30
0.0
 11
139.6501567968
 21
519.8498486464
 31
0.0
  0
ELLIPSE
  5
325
330
DD
100
AcDbEntity
  8
$DDT_AUDIT_GENERATED_(BC)
  6
Continuous
 62
     7
100
AcDbEllipse
 10
139.1501567968
 20
520.9247102433
 30
0.0
 11
8.250000000016961
 21
-5.412337245047638E-13
 31
0.0
210
0.0
220
0.0
230
1.0
 40
0.1305261922
 41
-1.485845702908671
 42
-1.363248876311477
  0
LINE
  5
326
330
DD
100
AcDbEntity
  8
$DDT_AUDIT_GENERATED_(BC)
  6
Continuous
 62
     7
100
AcDbLine
 10
139.8501567968
 20
519.8517523916
 30
0.0
 11
139.8501567968
 21
519.8935533247
 31
0.0
  0
LINE
  5
327
330
DD
100
AcDbEntity
  8
$DDT_AUDIT_GENERATED_(BC)
  6
Continuous
 62
     7
100
AcDbLine
 10
139.8501567968
 20
519.8935533247
 30
0.0
 11
140.8501567968
 21
519.8935533247
 31
0.0
  0
LINE
  5
328
330
DD
100
AcDbEntity
  8
$DDT_AUDIT_GENERATED_(BC)
  6
Continuous
 62
     7
100
AcDbLine
 10
140.8501567968
 20
519.8935533247
 30
0.0
 11
140.8501567968
 21
519.8709789952
 31
0.0
  0
ELLIPSE
  5
329
330
DD
100
AcDbEntity
  8
$DDT_AUDIT_GENERATED_(BC)
  6
Continuous
 62
     7
100
AcDbEllipse
 10
139.1501567968
 20
520.9247102433
 30
0.0
 11
8.250000000108306
 21
-8.298917109073045E-12
 31
0.0
210
0.0
220
0.0
230
1.0
 40
0.1305261922
 41
-1.338407254309733
 42
-1.278468933638386
  0
LINE
  5
32A
330
DD
100
AcDbEntity
  8
$DDT_AUDIT_GENERATED_(BC)
  6
Continuous
 62
     7
100
AcDbLine
 10
141.0501567968
 20
519.8768157636
 30
0.0
 11
141.0501567968
 21
519.8935533247
 31
0.0
  0
LINE
  5
32B
330
DD
100
AcDbEntity
  8
$DDT_AUDIT_GENERATED_(BC)
  6
Continuous
 62
     7
100
AcDbLine
 10
141.0501567968
 20
519.8935533247
 30
0.0
 11
141.5276554824
 21
519.8935533247
 31
0.0
  0
LINE
  5
32C
330
DD
100
AcDbEntity
  8
$DDT_AUDIT_GENERATED_(BC)
  6
Continuous
 62
     7
100
AcDbLine
 10
148.1501567968
 20
520.4289878126
 30
0.0
 11
148.1501567968
 21
521.4589053595
 31
0.0
  0
LINE
  5
32D
330
DD
100
AcDbEntity
  8
$DDT_AUDIT_GENERATED_(BC)
  6
Continuous
 62
     7
100
AcDbLine
 10
130.1501567968
 20
521.4589053595
 30
0.0
 11
130.1501567968
 21
520.4289878126
 31
0.0
  0
SPLINE
  5
32E
330
DD
100
AcDbEntity
  8
$DDT_AUDIT_GENERATED_(C0)
  6
Continuous
 62
     7
100
AcDbSpline
210
0.0
220
0.0
230
1.0
 70
     8
 71
     3
 72
     9
 73
     5
 74
     0
 42
0.0000000012265111
 43
0.0000000001
 40
0.0362689694510381
 40
0.0362689694510381
 40
0.0362689694510381
 40
0.0362689694510381
 40
0.0403804315667031
 40
0.0626449434894499
 40
0.0626449434894499
 40
0.0626449434894499
 40
0.0626449434894499
 10
159.4797504035444
 20
558.6936158363765
 30
0.0
 10
159.4804482448364
 20
558.6825037382674
 30
0.0
 10
159.4837733164025
 20
558.6111983895757
 30
0.0
 10
159.4788721238851
 20
558.5397595737512
 30
0.0
 10
159.4700348772335
 20
558.4794786705538
 30
0.0
  0
SPLINE
  5
32F
330
DD
100
AcDbEntity
  8
$DDT_AUDIT_GENERATED_(C0)
  6
Continuous
 62
     7
100
AcDbSpline
210
0.0
220
0.0
230
1.0
 70
     8
 71
     3
 72
     8
 73
     4
 74
     0
 42
0.0000000012303427
 43
0.0000000001
 40
0.9489524300091222
 40
0.9489524300091222
 40
0.9489524300091222
 40
0.9489524300091222
 40
0.9638073164591368
 40
0.9638073164591368
 40
0.9638073164591368
 40
0.9638073164591368
 10
118.8201349512892
 20
558.5732790082199
 30
0.0
 10
118.8172974288883
 20
558.6134748082751
 30
0.0
 10
118.8165291841731
 20
558.653683623735
 30
0.0
 10
118.8182161540226
 20
558.6938740413506
 30
0.0
  0
LINE
  5
330
330
DD
100
AcDbEntity
  8
$DDT_AUDIT_GENERATED_(C0)
  6
Continuous
 62
     7
100
AcDbLine
 10
159.4333409933
 20
558.9872362383
 30
0.0
 11
165.8148744379
 21
528.2082507637
 31
0.0
  0
LINE
  5
331
330
DD
100
AcDbEntity
  8
$DDT_AUDIT_GENERATED_(C0)
  6
Continuous
 62
     7
100
AcDbLine
 10
158.8641269991
 20
561.4693855512
 30
0.0
 11
158.9050180706
 21
567.9529999152
 31
0.0
  0
LINE
  5
332
330
DD
100
AcDbEntity
  8
$DDT_AUDIT_GENERATED_(C0)
  6
Continuous
 62
     7
100
AcDbLine
 10
119.435744574
 20
561.471463002
 30
0.0
 11
119.394000343
 21
567.9503118432
 31
0.0
  0
ARC
  5
333
330
DD
100
AcDbEntity
  8
$DDT_AUDIT_GENERATED_(C0)
  6
Continuous
 62
     7
100
AcDbCircle
 10
119.4570040212
 20
568.4364116746
 30
0.0
 40
0.4926829817939095
100
AcDbArc
 50
180.203881139
 51
262.6085208056
  0
ELLIPSE
  5
334
330
DD
100
AcDbEntity
  8
$DDT_AUDIT_GENERATED_(C0)
  6
Continuous
 62
     7
100
AcDbEllipse
 10
119.464318858
 20
568.4455526304
 30
0.0
 11
0.4999962744585314
 21
0.001931199692550845
 31
0.0
210
0.0
220
0.0
230
1.0
 40
0.9925496657
 41
3.141577587211478
 42
3.215682511160086
  0
LINE
  5
335
330
DD
100
AcDbEntity
  8
$DDT_AUDIT_GENERATED_(C0)
  6
Continuous
 62
     7
100
AcDbLine
 10
119.0162770085
 20
562.0576073812
 30
0.0
 11
118.9767676364
 21
568.3303398432
 31
0.0
  0
SPLINE
  5
336
330
DD
100
AcDbEntity
  8
$DDT_AUDIT_GENERATED_(C0)
  6
Continuous
 62
     7
100
AcDbSpline
210
0.0
220
0.0
230
1.0
 70
     8
 71
     3
 72
     8
 73
     4
 74
     0
 42
0.0000000011475684
 43
0.0000000001
 40
0.9588361770772011
 40
0.9588361770772011
 40
0.9588361770772011
 40
0.9588361770772011
 40
0.965354755235107
 40
0.965354755235107
 40
0.965354755235107
 40
0.965354755235107
 10
158.6869762708686
 20
571.5236195394216
 30
0.0
 10
158.6988283904393
 20
571.5078248064212
 30
0.0
 10
158.7092050469992
 20
571.4920249033204
 30
0.0
 10
158.718146867322
 20
571.4762262192526
 30
0.0
  0
SPLINE
  5
337
330
DD
100
AcDbEntity
  8
$DDT_AUDIT_GENERATED_(C0)
  6
Continuous
 62
     7
100
AcDbSpline
210
0.0
220
0.0
230
1.0
 70
     8
 71
     3
 72
    22
 73
    18
 74
     0
 42
0.0000000034660588
 43
0.0000000001
 40
0.0075486349843554
 40
0.0075486349843554
 40
0.0075486349843554
 40
0.0075486349843554
 40
0.0614182387250037
 40
0.1222000483425594
 40
0.241426139914894
 40
0.3705494596519595
 40
0.4832983728766406
 40
0.5356102731383972
 40
0.6262789457392478
 40
0.7006125265007055
 40
0.746372180821088
 40
0.7733327617928055
 40
0.7983610856348059
 40
0.8290029019463852
 40
0.8477219727056657
 40
0.8851543404384355
 40
0.9129524274778684
 40
0.9129524274778684
 40
0.9129524274778684
 40
0.9129524274778684
 10
119.2935248424756
 20
561.6494542828029
 30
0.0
 10
119.4336676592082
 20
561.4049954324156
 30
0.0
 10
119.4306642271584
 20
561.3059637540894
 30
0.0
 10
119.4128966709305
 20
561.0959168324421
 30
0.0
 10
119.3713518534955
 20
560.8072991455866
 30
0.0
 10
119.2924539214093
 20
560.461656996106
 30
0.0
 10
119.2121249054916
 20
560.1842114499615
 30
0.0
 10
119.1283320308087
 20
559.9600500430109
 30
0.0
 10
119.0589617284631
 20
559.7806147472679
 30
0.0
 10
119.0016147049693
 20
559.6144175616716
 30
0.0
 10
118.966582097022
 20
559.5016551498891
 30
0.0
 10
118.944675783635
 20
559.4294001190493
 30
0.0
 10
118.92488110562
 20
559.3770758282064
 30
0.0
 10
118.9097675623299
 20
559.3324901500251
 30
0.0
 10
118.8964616333497
 20
559.2739085073916
 30
0.0
 10
118.8857438958142
 20
559.21662886887
 30
0.0
 10
118.8791947316885
 20
559.1726611347405
 30
0.0
 10
118.8767622866504
 20
559.1541450793467
 30
0.0
  0
LINE
  5
338
330
DD
100
AcDbEntity
  8
$DDT_AUDIT_GENERATED_(C0)
  6
Continuous
 62
     7
100
AcDbLine
 10
159.3217512121
 20
568.3420413241
 30
0.0
 11
159.2835992316
 21
562.05577563
 31
0.0
  0
LINE
  5
339
330
DD
100
AcDbEntity
  8
$DDT_AUDIT_GENERATED_(C0)
  6
Continuous
 62
     7
100
AcDbLine
 10
159.2834434827
 20
562.0565668054
 30
0.0
 11
159.4203095911
 21
559.2540697627
 31
0.0
  0
SPLINE
  5
33A
330
DD
100
AcDbEntity
  8
$DDT_AUDIT_GENERATED_(C0)
  6
Continuous
 62
     7
100
AcDbSpline
210
0.0
220
0.0
230
1.0
 70
     8
 71
     3
 72
    12
 73
     8
 74
     0
 42
0.0000000103425751
 43
0.0000000001
 40
0.3320080406529002
 40
0.3320080406529002
 40
0.3320080406529002
 40
0.3320080406529002
 40
0.5
 40
0.5
 40
0.75
 40
0.75
 40
1.0
 40
1.0
 40
1.0
 40
1.0
 10
165.9646088735073
 20
526.9532571248568
 30
0.0
 10
165.9715415045145
 20
526.9803954758212
 30
0.0
 10
165.9758586134257
 20
527.014408238229
 30
0.0
 10
165.980255280126
 20
527.1161625267356
 30
0.0
 10
165.9770784998956
 20
527.1926519688433
 30
0.0
 10
165.9600960842392
 20
527.3726601984301
 30
0.0
 10
165.9463283317373
 20
527.4765708477028
 30
0.0
 10
165.9276570977835
 20
527.5946434722424
 30
0.0
  0
ARC
  5
33B
330
DD
100
AcDbEntity
  8
$DDT_AUDIT_GENERATED_(C0)
  6
Continuous
 62
     7
100
AcDbCircle
 10
124.8589440012
 20
525.6166521036
 30
0.0
 40
12.64277590180001
100
AcDbArc
 50
168.1712899408
 51
170.9989653907
  0
ARC
  5
33C
330
DD
100
AcDbEntity
  8
$DDT_AUDIT_GENERATED_(C0)
  6
Continuous
 62
     7
100
AcDbCircle
 10
153.4746536802
 20
525.6229166901
 30
0.0
 40
12.60813232088059
100
AcDbArc
 50
8.9971489912
 51
11.8325956772
  0
LINE
  5
33D
330
DD
100
AcDbEntity
  8
$DDT_AUDIT_GENERATED_(C0)
  6
Continuous
 62
     7
100
AcDbLine
 10
165.6491916857
 20
526.5721820084
 30
0.0
 11
154.6600808411
 21
526.5721820084
 31
0.0
  0
LINE
  5
33E
330
DD
100
AcDbEntity
  8
$DDT_AUDIT_GENERATED_(C0)
  6
Continuous
 62
     7
100
AcDbLine
 10
123.6349457594
 20
526.5721820084
 30
0.0
 11
112.6503227775
 21
526.5721820084
 31
0.0
  0
SPLINE
  5
33F
330
DD
100
AcDbEntity
  8
$DDT_AUDIT_GENERATED_(C0)
  6
Continuous
 62
     7
100
AcDbSpline
210
0.0
220
0.0
230
1.0
 70
     8
 71
     3
 72
     8
 73
     4
 74
     0
 42
0.0000000003110366
 43
0.0000000001
 40
0.0
 40
0.0
 40
0.0
 40
0.0
 40
1.0
 40
1.0
 40
1.0
 40
1.0
 10
118.8354338606272
 20
558.448722326679
 30
0.0
 10
116.7018215822806
 20
548.1039304314677
 30
0.0
 10
114.5356177535001
 20
537.6082904047752
 30
0.0
 10
112.3368223742858
 20
526.9618022466017
 30
0.0
  0
SPLINE
  5
340
330
DD
100
AcDbEntity
  8
$DDT_AUDIT_GENERATED_(C0)
  6
Continuous
 62
     7
100
AcDbSpline
210
0.0
220
0.0
230
1.0
 70
     8
 71
     3
 72
     8
 73
     4
 74
     0
 42
0.0000000003110422
 43
0.0000000001
 40
0.0
 40
0.0
 40
0.0
 40
0.0
 40
1.0
 40
1.0
 40
1.0
 40
1.0
 10
165.9625768008117
 20
526.962360652598
 30
0.0
 10
163.763858293018
 20
537.6084765404296
 30
0.0
 10
161.5976929071652
 20
548.1039303660721
 30
0.0
 10
159.4640806432533
 20
558.4487221295257
 30
0.0
  0
ARC
  5
341
330
DD
100
AcDbEntity
  8
$DDT_AUDIT_GENERATED_(C0)
  6
Continuous
 62
     7
100
AcDbCircle
 10
158.4218081534
 20
568.4753583628
 30
0.0
 40
0.9144367307217461
100
AcDbArc
 50
355.7024890869
 51
21.9772012258
  0
LINE
  5
342
330
DD
100
AcDbEntity
  8
$DDT_AUDIT_GENERATED_(C0)
  6
Continuous
 62
     7
100
AcDbLine
 10
118.964322624
 20
568.4436022448
 30
0.0
 11
118.9643576875
 21
568.4346143909
 31
0.0
  0
ARC
  5
343
330
DD
100
AcDbEntity
  8
$DDT_AUDIT_GENERATED_(C0)
  6
Continuous
 62
     7
100
AcDbCircle
 10
119.8762252035
 20
568.4763570675
 30
0.0
 40
0.9130352974261119
100
AcDbArc
 50
158.0581254001
 51
184.3669866986
  0
LINE
  5
344
330
DD
100
AcDbEntity
  8
$DDT_AUDIT_GENERATED_(C0)
  6
Continuous
 62
     7
100
AcDbLine
 10
159.2689014307
 20
568.8204347483
 30
0.0
 11
158.7179773611
 21
571.4762916318
 31
0.0
  0
LINE
  5
345
330
DD
100
AcDbEntity
  8
$DDT_AUDIT_GENERATED_(C0)
  6
Continuous
 62
     7
100
AcDbLine
 10
119.5815393383
 20
571.4784534269
 30
0.0
 11
119.0301968754
 21
568.8203927631
 31
0.0
  0
SPLINE
  5
346
330
DD
100
AcDbEntity
  8
$DDT_AUDIT_GENERATED_(C0)
  6
Continuous
 62
     7
100
AcDbSpline
210
0.0
220
0.0
230
1.0
 70
     8
 71
     3
 72
    61
 73
    57
 74
     0
 42
0.0000000002459486
 43
0.0000000001
 40
0.0
 40
0.0
 40
0.0
 40
0.0
 40
0.0085050616134329
 40
0.0163544125582278
 40
0.0339179289655766
 40
0.0485418332557723
 40
0.0607630623716788
 40
0.0703928550453473
 40
0.078689421987279
 40
0.0872400615791371
 40
0.1078182155386772
 40
0.1296099498641491
 40
0.1496817003728796
 40
0.1644327700675082
 40
0.1769212155618887
 40
0.1875987633466183
 40
0.1992120301775959
 40
0.212217446789827
 40
0.2266004070794119
 40
0.2423439593486053
 40
0.2624021046920718
 40
0.2842385389273884
 40
0.3077980748565644
 40
0.3330206627231969
 40
0.358858860731423
 40
0.3844718376088958
 40
0.409854603507715
 40
0.4350023035529279
 40
0.459912920086622
 40
0.4845897161060841
 40
0.5090420923565195
 40
0.5332837802544987
 40
0.5573329560616049
 40
0.5812139065937459
 40
0.6049558736179194
 40
0.6285577538221311
 40
0.6511441361061662
 40
0.672344746135504
 40
0.695999027608651
 40
0.7177394795872412
 40
0.7375865832385387
 40
0.7555503972537385
 40
0.7723363591395089
 40
0.7911527778706556
 40
0.8124283336687325
 40
0.8356130810053295
 40
0.8596352685150014
 40
0.8838642826593417
 40
0.8975556401972151
 40
0.9099265411646562
 40
0.9227716555003665
 40
0.9375697357242866
 40
0.9544229234320549
 40
0.9712601559529439
 40
0.9864549601433732
 40
0.9910902730539649
 40
0.9910902730539649
 40
0.9910902730539649
 40
0.9910902730539649
 10
158.6899176286398
 20
571.5143363363312
 30
0.0
 10
158.6581434667219
 20
571.6160316122547
 30
0.0
 10
158.6065248815511
 20
571.7785898038742
 30
0.0
 10
158.4372055841523
 20
572.0324072011442
 30
0.0
 10
158.2584139226113
 20
572.1443764370431
 30
0.0
 10
158.032364653015
 20
572.2741998971185
 30
0.0
 10
157.8039228264949
 20
572.3727609320022
 30
0.0
 10
157.5986550392309
 20
572.4496633339618
 30
0.0
 10
157.4111313587993
 20
572.5134425574994
 30
0.0
 10
157.1281958464718
 20
572.602290146482
 30
0.0
 10
156.7043454223815
 20
572.7191170016894
 30
0.0
 10
156.1090936145591
 20
572.8565569599521
 30
0.0
 10
155.5094056230278
 20
572.9759720531107
 30
0.0
 10
154.970008374151
 20
573.0718747595881
 30
0.0
 10
154.5149675664029
 20
573.146134974259
 30
0.0
 10
154.0811853563497
 20
573.2120652932198
 30
0.0
 10
153.62463661693
 20
573.2769274473867
 30
0.0
 10
153.1008108370077
 20
573.3460467531866
 30
0.0
 10
152.4986362660327
 20
573.4192617233202
 30
0.0
 10
151.7701104347016
 20
573.500204074799
 30
0.0
 10
150.897265932892
 20
573.58722092356
 30
0.0
 10
149.8610884383155
 20
573.6778615784247
 30
0.0
 10
148.6940779204754
 20
573.7657527407649
 30
0.0
 10
147.4100732832094
 20
573.8470003488032
 30
0.0
 10
146.0424951718038
 20
573.9176230423319
 30
0.0
 10
144.6307840036887
 20
573.9751276035523
 30
0.0
 10
143.1989705925684
 20
574.0188819568854
 30
0.0
 10
141.756213122989
 20
574.0490876119044
 30
0.0
 10
140.3114914409122
 20
574.0659986222074
 30
0.0
 10
138.8733977096035
 20
574.0699080405228
 30
0.0
 10
137.4499595610602
 20
574.0611627266829
 30
0.0
 10
136.0483672125743
 20
574.0401358788449
 30
0.0
 10
134.6749617990745
 20
574.0071661262509
 30
0.0
 10
133.3351804609213
 20
573.9625935717033
 30
0.0
 10
132.0340915243108
 20
573.906786168057
 30
0.0
 10
130.7921928227834
 20
573.8409319445192
 30
0.0
 10
129.6340839356536
 20
573.7672743241092
 30
0.0
 10
128.5160469563463
 20
573.6841261298675
 30
0.0
 10
127.4570250438243
 20
573.5927313641101
 30
0.0
 10
126.4681141141688
 20
573.4943227027368
 30
0.0
 10
125.6089429803608
 20
573.3973456427649
 30
0.0
 10
124.85983034387
 20
573.3026893844486
 30
0.0
 10
124.1615948680341
 20
573.2048126903516
 30
0.0
 10
123.4612880776648
 20
573.0954590269862
 30
0.0
 10
122.7385174604221
 20
572.9675145369638
 30
0.0
 10
122.0281012655319
 20
572.8219128084553
 30
0.0
 10
121.3700782760265
 20
572.6617013474433
 30
0.0
 10
120.8844209411459
 20
572.5163887142702
 30
0.0
 10
120.5467030161657
 20
572.3934331800295
 30
0.0
 10
120.3164712187655
 20
572.2952700054599
 30
0.0
 10
120.1081910793512
 20
572.1890080882083
 30
0.0
 10
119.9148982023951
 20
572.0625498393343
 30
0.0
 10
119.7625957613217
 20
571.9200436044588
 30
0.0
 10
119.6512026179307
 20
571.7521208514937
 30
0.0
 10
119.5899553068315
 20
571.5766737419963
 30
0.0
 10
119.5647927833519
 20
571.4547105512308
 30
0.0
 10
119.5591163421844
 20
571.4245139927905
 30
0.0
  0
SPLINE
  5
347
330
DD
100
AcDbEntity
  8
$DDT_AUDIT_GENERATED_(C0)
  6
Continuous
 62
     7
100
AcDbSpline
210
0.0
220
0.0
230
1.0
 70
     8
 71
     3
 72
     8
 73
     4
 74
     0
 42
0.0000000004154926
 43
0.0000000001
 40
0.998430662000676
 40
0.998430662000676
 40
0.998430662000676
 40
0.998430662000676
 40
1.0
 40
1.0
 40
1.0
 40
1.0
 10
119.5327818117694
 20
571.2675368144719
 30
0.0
 10
119.5308851858164
 20
571.2553274120709
 30
0.0
 10
119.5289704115715
 20
571.242886840127
 30
0.0
 10
119.5270285772573
 20
571.2302070301356
 30
0.0
  0
SPLINE
  5
348
330
DD
100
AcDbEntity
  8
$DDT_AUDIT_GENERATED_(C0)
  6
Continuous
 62
     7
100
AcDbSpline
210
0.0
220
0.0
230
1.0
 70
     8
 71
     3
 72
    15
 73
    11
 74
     0
 42
0.0000000088577056
 43
0.0000000001
 40
0.0
 40
0.0
 40
0.0
 40
0.0
 40
0.0764476380651484
 40
0.2688270716738878
 40
0.468688677192337
 40
0.635109969079393
 40
0.7395998297087079
 40
0.8303993732136015
 40
0.9171011627147585
 40
1.0
 40
1.0
 40
1.0
 40
1.0
 10
112.3599644544236
 20
527.5119875628893
 30
0.0
 10
112.3536880754508
 20
527.4721629452708
 30
0.0
 10
112.3351269849781
 20
527.3531933978155
 30
0.0
 10
112.317409628562
 20
527.1704766986481
 30
0.0
 10
112.3125021167623
 20
526.9900943692977
 30
0.0
 10
112.3283334171038
 20
526.8557722330063
 30
0.0
 10
112.3667954836221
 20
526.7468498617571
 30
0.0
 10
112.4295212306172
 20
526.6559751339099
 30
0.0
 10
112.5360517450526
 20
526.5837127941999
 30
0.0
 10
112.6077152624609
 20
526.5775155805836
 30
0.0
 10
112.6499660038231
 20
526.5743551898321
 30
0.0
  0
SPLINE
  5
349
330
DD
100
AcDbEntity
  8
$DDT_AUDIT_GENERATED_(C0)
  6
Continuous
 62
     7
100
AcDbSpline
210
0.0
220
0.0
230
1.0
 70
     8
 71
     3
 72
    14
 73
    10
 74
     0
 42
0.0000000140285009
 43
0.0000000001
 40
0.0
 40
0.0
 40
0.0
 40
0.0
 40
0.0260852057693278
 40
0.1582566097995664
 40
0.2948091461105048
 40
0.4300347427502647
 40
0.5861688093823235
 40
0.7972763914341932
 40
1.0
 40
1.0
 40
1.0
 40
1.0
 10
165.6514081877947
 20
526.5751627032131
 30
0.0
 10
165.6591091107562
 20
526.5741362378378
 30
0.0
 10
165.6989434745151
 20
526.5690510750876
 30
0.0
 10
165.7964828810231
 20
526.600887618197
 30
0.0
 10
165.8870438773188
 20
526.6761232674484
 30
0.0
 10
165.9409307182812
 20
526.7662342009024
 30
0.0
 10
165.9705378289274
 20
526.8621580033657
 30
0.0
 10
165.9851698735735
 20
526.9681291044715
 30
0.0
 10
165.9825803581089
 20
527.0518455559022
 30
0.0
 10
165.9804368964971
 20
527.1002505112332
 30
0.0
  0
ENDBLK
  5
34B
330
DD
100
AcDbEntity
  8
0
100
AcDbBlockEnd
  0
BLOCK
  5
383
330
34C
100
AcDbEntity
  8
0
100
AcDbBlockBegin
  2
SE2
 70
     0
 10
0.0
 20
0.0
 30
0.0
  3
SE2
  1

  0
ARC
  5
34E
330
34C
100
AcDbEntity
  8
$DDT_AUDIT_GENERATED_(7F)
  6
Continuous
 62
     7
100
AcDbCircle
 10
139.1358855273
 20
91.3180218737
 30
0.0
 40
15.5118037919411
100
AcDbArc
 50
359.1611943784
 51
359.8207041562
  0
ELLIPSE
  5
34F
330
34C
100
AcDbEntity
  8
$DDT_AUDIT_GENERATED_(7F)
  6
Continuous
 62
     7
100
AcDbEllipse
 10
139.1494848857
 20
89.7292875573
 30
0.0
 11
-15.49811222341739
 21
2.111461782245116E-6
 31
0.0
210
0.0
220
0.0
230
0.9999999999999999
 40
0.9914448614
 41
1.570818139061535
 42
3.141582321452994
  0
ELLIPSE
  5
350
330
34C
100
AcDbEntity
  8
$DDT_AUDIT_GENERATED_(7F)
  6
Continuous
 62
     7
100
AcDbEllipse
 10
139.1501567968
 20
89.7292875573
 30
0.0
 11
15.49811222341732
 21
2.111459147363404E-6
 31
0.0
210
0.0
220
0.0
230
0.9999999999999999
 40
0.9914448614
 41
3.141602985629884
 42
4.712367168118219
  0
LINE
  5
351
330
34C
100
AcDbEntity
  8
$DDT_AUDIT_GENERATED_(7F)
  6
Continuous
 62
     7
100
AcDbLine
 10
123.6520282864
 20
91.2719333026
 30
0.0
 11
123.6520445743
 21
89.7291266908
 31
0.0
  0
ARC
  5
352
330
34C
100
AcDbEntity
  8
$DDT_AUDIT_GENERATED_(7F)
  6
Continuous
 62
     7
100
AcDbCircle
 10
124.6908170912
 20
91.0922495075
 30
0.0
 40
1.037668687602543
100
AcDbArc
 50
168.1465561704
 51
180.692174639
  0
LINE
  5
353
330
34C
100
AcDbEntity
  8
$DDT_AUDIT_GENERATED_(7F)
  6
Continuous
 62
     7
100
AcDbLine
 10
154.6475971083
 20
89.7291266908
 30
0.0
 11
154.6476133961
 21
91.2719333026
 31
0.0
  0
ARC
  5
354
330
34C
100
AcDbEntity
  8
$DDT_AUDIT_GENERATED_(7F)
  6
Continuous
 62
     7
100
AcDbCircle
 10
153.6088245912
 20
91.0922495075
 30
0.0
 40
1.037668687689372
100
AcDbArc
 50
359.3078253609
 51
11.8534438291
  0
SPLINE
  5
355
330
34C
100
AcDbEntity
  8
$DDT_AUDIT_GENERATED_(7F)
  6
Continuous
 62
     7
100
AcDbSpline
210
0.0
220
0.0
230
1.0
 70
     8
 71
     3
 72
    43
 73
    39
 74
     0
 42
0.000000000049229
 43
0.0000000001
 40
0.0
 40
0.0
 40
0.0
 40
0.0
 40
0.0097488021492952
 40
0.0247838176302376
 40
0.0399444771163026
 40
0.0552426222055098
 40
0.070703536811279
 40
0.0863137047811448
 40
0.1020816770536134
 40
0.1180184836760921
 40
0.1341355709132867
 40
0.1504448656264941
 40
0.166958833275118
 40
0.183690544673756
 40
0.2006537530637252
 40
0.2178629835366535
 40
0.2353336373393865
 40
0.2530821142245448
 40
0.2711259568376959
 40
0.2894840181664319
 40
0.3081568917246957
 40
0.327196720929971
 40
0.3465407807296146
 40
0.3662095455517267
 40
0.3862244574543676
 40
0.4066091159043274
 40
0.4273896738977353
 40
0.4485953461654513
 40
0.4702590533492706
 40
0.4924182495908611
 40
0.5151160016378983
 40
0.5384024196382721
 40
0.562343208950971
 40
0.5869507568445571
 40
0.6120729617384725
 40
0.6377602515803479
 40
0.6640705555624367
 40
0.6670305749346589
 40
0.6670305749346589
 40
0.6670305749346589
 40
0.6670305749346589
 10
154.6476144840916
 20
91.30022373677406
 30
0.0
 10
154.6476401209698
 20
92.08417317814201
 30
0.0
 10
154.6476963638107
 20
93.77270385642856
 30
0.0
 10
154.6478557863442
 20
96.75292041822055
 30
0.0
 10
154.6480684920934
 20
100.0412428534189
 30
0.0
 10
154.6483151690985
 20
103.3780127741777
 30
0.0
 10
154.6485836642086
 20
106.7305583855436
 30
0.0
 10
154.6488736628986
 20
110.1085856508021
 30
0.0
 10
154.6491813028215
 20
113.509196968016
 30
0.0
 10
154.6495035615451
 20
116.9344440656937
 30
0.0
 10
154.6498369889046
 20
120.3857543443575
 30
0.0
 10
154.6501779762272
 20
123.8648798738687
 30
0.0
 10
154.6505226466317
 20
127.3736125280214
 30
0.0
 10
154.6508668467649
 20
130.9138774915403
 30
0.0
 10
154.6512061094372
 20
134.4877258892981
 30
0.0
 10
154.6515356045983
 20
138.0973576912986
 30
0.0
 10
154.6518501384494
 20
141.7451404839136
 30
0.0
 10
154.6521439321545
 20
145.433631259359
 30
0.0
 10
154.652411210014
 20
149.1656113139016
 30
0.0
 10
154.6526435640299
 20
152.9427331054476
 30
0.0
 10
154.6528396372022
 20
156.769106949119
 30
0.0
 10
154.6530040052038
 20
160.6431145645965
 30
0.0
 10
154.6531346353842
 20
164.5644553024007
 30
0.0
 10
154.6532314423611
 20
168.5308530861252
 30
0.0
 10
154.6532940287217
 20
172.5458539761344
 30
0.0
 10
154.653322104503
 20
176.6133547081542
 30
0.0
 10
154.6533153053636
 20
180.7377349564903
 30
0.0
 10
154.6532732325581
 20
184.9239537859507
 30
0.0
 10
154.6531954451336
 20
189.1776722464939
 30
0.0
 10
154.6530814006394
 20
193.5054102668501
 30
0.0
 10
154.6529306436827
 20
197.9147562475778
 30
0.0
 10
154.6527419813287
 20
202.4150540688192
 30
0.0
 10
154.6525167039193
 20
207.0136553080883
 30
0.0
 10
154.6522603079625
 20
211.7044803635873
 30
0.0
 10
154.6519759839869
 20
216.4806884645239
 30
0.0
 10
154.6516684963208
 20
221.3385927536683
 30
0.0
 10
154.6514415091247
 20
224.7820709683301
 30
0.0
 10
154.6513196102684
 20
226.610767075116
 30
0.0
 10
154.6513072742681
 20
226.7956437172566
 30
0.0
  0
SPLINE
  5
356
330
34C
100
AcDbEntity
  8
$DDT_AUDIT_GENERATED_(7F)
  6
Continuous
 62
     7
100
AcDbSpline
210
0.0
220
0.0
230
1.0
 70
     8
 71
     3
 72
    41
 73
    37
 74
     0
 42
0.0000000000492198
 43
0.0000000001
 40
0.3329749126831185
 40
0.3329749126831185
 40
0.3329749126831185
 40
0.3329749126831185
 40
0.360669010831813
 40
0.3877263240897302
 40
0.414055702545419
 40
0.4397354602505635
 40
0.4648315254592942
 40
0.4893921034972742
 40
0.5132416342602425
 40
0.5364103923692394
 40
0.5589660051040917
 40
0.5809653122729022
 40
0.6024564913815963
 40
0.6234809611625504
 40
0.6440747792106036
 40
0.6642696873957783
 40
0.6840939083559558
 40
0.7035727622383249
 40
0.7227211881294031
 40
0.7414692835114777
 40
0.7598600908361515
 40
0.7779256075520379
 40
0.7956870171813224
 40
0.8131638343742164
 40
0.8303741776809618
 40
0.8473349573763489
 40
0.8640620322401862
 40
0.8805703415348963
 40
0.8968740168490942
 40
0.912986477468167
 40
0.928920512169442
 40
0.9446883497546147
 40
0.9603017255284276
 40
0.975769875767195
 40
0.991082074815439
 40
1.0
 40
1.0
 40
1.0
 40
1.0
 10
123.6483339263846
 20
226.7884228481846
 30
0.0
 10
123.6482184931796
 20
225.0584068550563
 30
0.0
 10
123.647991795784
 20
221.628827147723
 30
0.0
 10
123.6476678963212
 20
216.5214787892342
 30
0.0
 10
123.6473700425355
 20
211.5128531656069
 30
0.0
 10
123.6471032167851
 20
206.6008087412659
 30
0.0
 10
123.6468700664789
 20
201.7743368610716
 30
0.0
 10
123.64667770274
 20
197.0384917855291
 30
0.0
 10
123.6465272492256
 20
192.400387821591
 30
0.0
 10
123.6464179681644
 20
187.8663298506657
 30
0.0
 10
123.6463488536162
 20
183.4275678705093
 30
0.0
 10
123.6463189024076
 20
179.0740730338367
 30
0.0
 10
123.6463272832546
 20
174.7974187571841
 30
0.0
 10
123.6463732756813
 20
170.5904523356663
 30
0.0
 10
123.6464562617114
 20
166.4470285110826
 30
0.0
 10
123.6465756758705
 20
162.3618106440339
 30
0.0
 10
123.6467311045133
 20
158.3301217558795
 30
0.0
 10
123.6469218438412
 20
154.3483642543609
 30
0.0
 10
123.6471480127626
 20
150.4196376063337
 30
0.0
 10
123.6474144138557
 20
146.5456872672087
 30
0.0
 10
123.6477104285311
 20
142.7272596821591
 30
0.0
 10
123.6480297479148
 20
138.9587657338242
 30
0.0
 10
123.6483658679075
 20
135.2361874062333
 30
0.0
 10
123.6487130145105
 20
131.5564318083248
 30
0.0
 10
123.6490658571971
 20
127.9166722886123
 30
0.0
 10
123.6494195150319
 20
124.3143110990725
 30
0.0
 10
123.6497694880161
 20
120.7469433659663
 30
0.0
 10
123.6501116094522
 20
117.2123556712801
 30
0.0
 10
123.6504420311885
 20
113.7084188567065
 30
0.0
 10
123.6507570958639
 20
110.2333855934729
 30
0.0
 10
123.6510536515764
 20
106.7847178989725
 30
0.0
 10
123.6513277604585
 20
103.3633215298569
 30
0.0
 10
123.6515793134035
 20
99.9580738754998
 30
0.0
 10
123.6517946646846
 20
96.60463970634893
 30
0.0
 10
123.651951811485
 20
93.63945634065428
 30
0.0
 10
123.652004869244
 20
91.98598646677208
 30
0.0
 10
123.6520274854476
 20
91.26863771267928
 30
0.0
  0
ARC
  5
357
330
34C
100
AcDbEntity
  8
$DDT_AUDIT_GENERATED_(9D)
  6
Continuous
 62
     7
100
AcDbCircle
 10
139.1497572316
 20
313.3975164833
 30
0.0
 40
28.99047431159973
100
AcDbArc
 50
312.8661841255
 51
0.0
  0
ARC
  5
358
330
34C
100
AcDbEntity
  8
$DDT_AUDIT_GENERATED_(9D)
  6
Continuous
 62
     7
100
AcDbCircle
 10
139.1497572316
 20
313.3975164833
 30
0.0
 40
28.99047431159973
100
AcDbArc
 50
0.0
 51
226.2868829529
  0
ARC
  5
359
330
34C
100
AcDbEntity
  8
$DDT_AUDIT_GENERATED_(9D)
  6
Continuous
 62
     7
100
AcDbCircle
 10
139.1497572316
 20
313.3975164833
 30
0.0
 40
26.8206957957553
100
AcDbArc
 50
357.4655041346
 51
0.0
  0
ARC
  5
35A
330
34C
100
AcDbEntity
  8
$DDT_AUDIT_GENERATED_(9D)
  6
Continuous
 62
     7
100
AcDbCircle
 10
139.1497572316
 20
313.3975164833
 30
0.0
 40
26.8206957957553
100
AcDbArc
 50
0.0
 51
182.3674861795
  0
ARC
  5
35B
330
34C
100
AcDbEntity
  8
$DDT_AUDIT_GENERATED_(C0)
  6
Continuous
 62
     7
100
AcDbCircle
 10
139.4496813369
 20
311.9124430405
 30
0.0
 40
20.03044518844133
100
AcDbArc
 50
356.5794668372
 51
3.9168116181
  0
ARC
  5
35C
330
34C
100
AcDbEntity
  8
$DDT_AUDIT_GENERATED_(C0)
  6
Continuous
 62
     7
100
AcDbCircle
 10
138.8806870512
 20
311.9416922135
 30
0.0
 40
20.05925349575052
100
AcDbArc
 50
180.274956285
 51
187.1683473367
  0
ARC
  5
35D
330
34C
100
AcDbEntity
  8
$DDT_AUDIT_GENERATED_(C0)
  6
Continuous
 62
     7
100
AcDbCircle
 10
138.8806870512
 20
311.9416922135
 30
0.0
 40
20.05925349575052
100
AcDbArc
 50
176.1725583814
 51
180.274956285
  0
ARC
  5
35E
330
34C
100
AcDbEntity
  8
$DDT_AUDIT_GENERATED_(C0)
  6
Continuous
 62
     7
100
AcDbCircle
 10
139.3280360268
 20
313.3112281078
 30
0.0
 40
19.4431917054306
100
AcDbArc
 50
359.9058476845
 51
90.525399459
  0
ARC
  5
35F
330
34C
100
AcDbEntity
  8
$DDT_AUDIT_GENERATED_(C0)
  6
Continuous
 62
     7
100
AcDbCircle
 10
139.2274519245
 20
312.8475607508
 30
0.0
 40
19.90619326819648
100
AcDbArc
 50
90.2236623517
 51
168.0873313789
  0
SPLINE
  5
360
330
34C
100
AcDbEntity
  8
$DDT_AUDIT_GENERATED_(C0)
  6
Continuous
 62
     7
100
AcDbSpline
210
0.0
220
0.0
230
1.0
 70
     8
 71
     3
 72
     8
 73
     4
 74
     0
 42
0.0000000703048374
 43
0.0000000001
 40
0.0
 40
0.0
 40
0.0
 40
0.0
 40
0.1287588143309084
 40
0.1287588143309084
 40
0.1287588143309084
 40
0.1287588143309084
 10
118.9754438644156
 20
239.7661946058792
 30
0.0
 10
118.9680758038207
 20
239.7620060900892
 30
0.0
 10
118.9645407686972
 20
239.7577239282085
 30
0.0
 10
118.964686767673
 20
239.7534402115151
 30
0.0
  0
LINE
  5
361
330
34C
100
AcDbEntity
  8
$DDT_AUDIT_GENERATED_(C0)
  6
Continuous
 62
     7
100
AcDbLine
 10
139.1497595028
 20
219.658528167
 30
0.0
 11
139.1497595708
 21
219.6477887891
 31
0.0
  0
ELLIPSE
  5
362
330
34C
100
AcDbEntity
  8
$DDT_AUDIT_GENERATED_(C0)
  6
Continuous
 62
     7
100
AcDbEllipse
 10
119.464318858
 20
239.6799852238
 30
0.0
 11
0.4999999478075383
 21
-0.0002366821298254966
 31
0.0
210
0.0
220
0.0
230
1.0
 40
0.1218418625
 41
2.93565499305807
 42
3.141575028142579
  0
ELLIPSE
  5
363
330
34C
100
AcDbEntity
  8
$DDT_AUDIT_GENERATED_(C0)
  6
Continuous
 62
     7
100
AcDbEllipse
 10
119.464318858
 20
239.6799852238
 30
0.0
 11
0.4999999478075383
 21
-0.0002366821298254966
 31
0.0
210
0.0
220
0.0
230
1.0
 40
0.1218418625
 41
3.141575028142579
 42
3.217596387298939
  0
LINE
  5
364
330
34C
100
AcDbEntity
  8
$DDT_AUDIT_GENERATED_(C0)
  6
Continuous
 62
     7
100
AcDbLine
 10
119.0162770085
 20
292.5010874132
 30
0.0
 11
118.9754438645
 21
239.7661946059
 31
0.0
  0
LINE
  5
365
330
34C
100
AcDbEntity
  8
$DDT_AUDIT_GENERATED_(C0)
  6
Continuous
 62
     7
100
AcDbLine
 10
118.975450103
 20
239.7661944401
 30
0.0
 11
118.9748899587
 21
239.6926743151
 31
0.0
  0
LINE
  5
366
330
34C
100
AcDbEntity
  8
$DDT_AUDIT_GENERATED_(C0)
  6
Continuous
 62
     7
100
AcDbLine
 10
119.5283331048
 20
313.2792776669
 30
0.0
 11
118.8661734699
 21
313.2806832182
 31
0.0
  0
ARC
  5
367
330
34C
100
AcDbEntity
  8
$DDT_AUDIT_GENERATED_(C0)
  6
Continuous
 62
     7
100
AcDbCircle
 10
139.050293221
 20
239.733726984
 30
0.0
 40
20.07544522835703
100
AcDbArc
 50
180.117165306
 51
270.2838806656
  0
SPLINE
  5
368
330
34C
100
AcDbEntity
  8
$DDT_AUDIT_GENERATED_(C0)
  6
Continuous
 62
     7
100
AcDbSpline
210
0.0
220
0.0
230
1.0
 70
     8
 71
     5
 72
    12
 73
     6
 74
     0
 42
0.0000000162724374
 43
0.0000000001
 40
0.0
 40
0.0
 40
0.0
 40
0.0
 40
0.0
 40
0.0
 40
1.0
 40
1.0
 40
1.0
 40
1.0
 40
1.0
 40
1.0
 10
120.3528922757195
 20
316.9214130451713
 30
0.0
 10
120.1499237271726
 20
316.9531727497693
 30
0.0
 10
119.9469453757369
 20
316.9849254002413
 30
0.0
 10
119.8394847136774
 20
316.9912999400963
 30
0.0
 10
119.7947060174556
 20
316.9739497459054
 30
0.0
 10
119.749971024175
 20
316.9566078676703
 30
0.0
  0
ARC
  5
369
330
34C
100
AcDbEntity
  8
$DDT_AUDIT_GENERATED_(C0)
  6
Continuous
 62
     7
100
AcDbCircle
 10
141.5071315176
 20
313.7992664847
 30
0.0
 40
21.98505941189107
100
AcDbArc
 50
171.7430279107
 51
181.3553210917
  0
SPLINE
  5
36A
330
34C
100
AcDbEntity
  8
$DDT_AUDIT_GENERATED_(C0)
  6
Continuous
 62
     7
100
AcDbSpline
210
0.0
220
0.0
230
1.0
 70
     8
 71
     3
 72
    24
 73
    20
 74
     0
 42
0.0000000004789908
 43
0.0000000001
 40
0.0
 40
0.0
 40
0.0
 40
0.0
 40
0.0614182387250037
 40
0.1222000483425594
 40
0.241426139914894
 40
0.3705494596519595
 40
0.4832983728766406
 40
0.5356102731383972
 40
0.6262789457392478
 40
0.7006125265007055
 40
0.746372180821088
 40
0.7733327617928055
 40
0.7983610856348059
 40
0.8290029019463852
 40
0.8477219727056657
 40
0.8851543404384355
 40
0.9420591805303126
 40
0.9708235828160241
 40
1.0
 40
1.0
 40
1.0
 40
1.0
 10
119.2258864679704
 20
292.4652403775461
 30
0.0
 10
119.4340384130183
 20
292.8568270969576
 30
0.0
 10
119.4312376931553
 20
293.7061565364353
 30
0.0
 10
119.4128966709305
 20
295.3829465059432
 30
0.0
 10
119.3713518534955
 20
297.5282887720846
 30
0.0
 10
119.2924539214093
 20
300.0323056731579
 30
0.0
 10
119.2121249054916
 20
302.0723362535078
 30
0.0
 10
119.1283320308087
 20
303.8472958874472
 30
0.0
 10
119.0589617284631
 20
305.3570712134489
 30
0.0
 10
119.0016147049693
 20
306.8226547692306
 30
0.0
 10
118.966582097022
 20
307.8457531978343
 30
0.0
 10
118.944675783635
 20
308.5261757024051
 30
0.0
 10
118.92488110562
 20
309.1021826668203
 30
0.0
 10
118.9097675623299
 20
309.6210463849649
 30
0.0
 10
118.8964616333497
 20
310.225934951182
 30
0.0
 10
118.8820278707652
 20
311.0138261900286
 30
0.0
 10
118.8711662649383
 20
311.8719570478978
 30
0.0
 10
118.8660704254366
 20
312.6729921294983
 30
0.0
 10
118.866138959279
 20
313.0771615110904
 30
0.0
 10
118.8661734698707
 20
313.2806832182092
 30
0.0
  0
LINE
  5
36B
330
34C
100
AcDbEntity
  8
$DDT_AUDIT_GENERATED_(C0)
  6
Continuous
 62
     7
100
AcDbLine
 10
159.3229869396
 20
239.7668744211
 30
0.0
 11
159.2835992316
 21
292.5008087937
 31
0.0
  0
LINE
  5
36C
330
34C
100
AcDbEntity
  8
$DDT_AUDIT_GENERATED_(C0)
  6
Continuous
 62
     7
100
AcDbLine
 10
159.2834434827
 20
292.5009072739
 30
0.0
 11
159.4333409933
 21
313.2806832182
 31
0.0
  0
LINE
  5
36D
330
34C
100
AcDbEntity
  8
$DDT_AUDIT_GENERATED_(C0)
  6
Continuous
 62
     7
100
AcDbLine
 10
159.4333409933
 20
313.2806832182
 30
0.0
 11
158.7711725711
 21
313.2792776483
 31
0.0
  0
ARC
  5
36E
330
34C
100
AcDbEntity
  8
$DDT_AUDIT_GENERATED_(C0)
  6
Continuous
 62
     7
100
AcDbCircle
 10
139.2381602609
 20
309.8368398847
 30
0.0
 40
26.80065814521991
100
AcDbArc
 50
7.4120349804
 51
28.1418387809
  0
ARC
  5
36F
330
34C
100
AcDbEntity
  8
$DDT_AUDIT_GENERATED_(C0)
  6
Continuous
 62
     7
100
AcDbCircle
 10
139.2381602609
 20
309.8368398847
 30
0.0
 40
26.80065814521991
100
AcDbArc
 50
28.1418387809
 51
90.1919396055
  0
ARC
  5
370
330
34C
100
AcDbEntity
  8
$DDT_AUDIT_GENERATED_(C0)
  6
Continuous
 62
     7
100
AcDbCircle
 10
139.0807953668
 20
309.8146205787
 30
0.0
 40
26.82281034488823
100
AcDbArc
 50
89.8569931481
 51
154.0726677401
  0
ARC
  5
371
330
34C
100
AcDbEntity
  8
$DDT_AUDIT_GENERATED_(C0)
  6
Continuous
 62
     7
100
AcDbCircle
 10
139.0807953668
 20
309.8146205787
 30
0.0
 40
26.82281034488823
100
AcDbArc
 50
154.0726677401
 51
172.5462565688
  0
ARC
  5
372
330
34C
100
AcDbEntity
  8
$DDT_AUDIT_GENERATED_(C0)
  6
Continuous
 62
     7
100
AcDbCircle
 10
139.1497572316
 20
313.3499390729
 30
0.0
 40
26.98160530695275
100
AcDbArc
 50
187.6319077719
 51
223.2187327913
  0
ARC
  5
373
330
34C
100
AcDbEntity
  8
$DDT_AUDIT_GENERATED_(C0)
  6
Continuous
 62
     7
100
AcDbCircle
 10
139.1497572316
 20
313.3499390729
 30
0.0
 40
26.98160530695275
100
AcDbArc
 50
318.0037528001
 51
352.3680922281
  0
ARC
  5
374
330
34C
100
AcDbEntity
  8
$DDT_AUDIT_GENERATED_(C0)
  6
Continuous
 62
     7
100
AcDbCircle
 10
124.4291353699
 20
311.2030659902
 30
0.0
 40
12.10749357163191
100
AcDbArc
 50
174.7798869419
 51
186.8139865548
  0
ARC
  5
375
330
34C
100
AcDbEntity
  8
$DDT_AUDIT_GENERATED_(C0)
  6
Continuous
 62
     7
100
AcDbCircle
 10
154.0177398762
 20
311.2010161918
 30
0.0
 40
11.96094043592005
100
AcDbArc
 50
353.1120113939
 51
5.2941151094
  0
ARC
  5
376
330
34C
100
AcDbEntity
  8
$DDT_AUDIT_GENERATED_(C0)
  6
Continuous
 62
     7
100
AcDbCircle
 10
144.0603948945
 20
309.1943700574
 30
0.0
 40
31.84080935192954
100
AcDbArc
 50
172.6019904535
 51
174.3943163795
  0
ARC
  5
377
330
34C
100
AcDbEntity
  8
$DDT_AUDIT_GENERATED_(C0)
  6
Continuous
 62
     7
100
AcDbCircle
 10
134.2984883437
 20
309.2011362131
 30
0.0
 40
31.78106357997994
100
AcDbArc
 50
5.6039987704
 51
7.3996943966
  0
ELLIPSE
  5
378
330
34C
100
AcDbEntity
  8
$DDT_AUDIT_GENERATED_(C0)
  6
Continuous
 62
     7
100
AcDbEllipse
 10
112.6165515149
 20
312.3120687613
 30
0.0
 11
0.2487825003711919
 21
-0.02464279832027409
 31
0.0
210
0.0
220
0.0
230
0.9999999999999999
 40
0.5280594479
 41
3.139252946196641
 42
3.382684916335842
  0
ELLIPSE
  5
379
330
34C
100
AcDbEntity
  8
$DDT_AUDIT_GENERATED_(C0)
  6
Continuous
 62
     7
100
AcDbEllipse
 10
165.6829629483
 20
312.3120687613
 30
0.0
 11
-0.2487825003711988
 21
-0.02464279832027216
 31
0.0
210
0.0
220
0.0
230
1.0
 40
0.5280594479
 41
2.900500390844114
 42
3.141894290075782
  0
SPLINE
  5
37A
330
34C
100
AcDbEntity
  8
$DDT_AUDIT_GENERATED_(C0)
  6
Continuous
 62
     7
100
AcDbSpline
210
0.0
220
0.0
230
1.0
 70
     8
 71
     3
 72
     8
 73
     4
 74
     0
 42
0.0000000422591608
 43
0.0000000001
 40
0.8586021981603391
 40
0.8586021981603391
 40
0.8586021981603391
 40
0.8586021981603391
 40
1.0
 40
1.0
 40
1.0
 40
1.0
 10
112.4818735116351
 20
313.3269930243751
 30
0.0
 10
112.4802680881274
 20
313.3163026347052
 30
0.0
 10
112.4811374593821
 20
313.3052818961908
 30
0.0
 10
112.4846400252766
 20
313.2942291551645
 30
0.0
  0
SPLINE
  5
37B
330
34C
100
AcDbEntity
  8
$DDT_AUDIT_GENERATED_(C0)
  6
Continuous
 62
     7
100
AcDbSpline
210
0.0
220
0.0
230
1.0
 70
     8
 71
     3
 72
     8
 73
     4
 74
     0
 42
0.0000000422601445
 43
0.0000000001
 40
0.0
 40
0.0
 40
0.0
 40
0.0
 40
0.1421251927984865
 40
0.1421251927984865
 40
0.1421251927984865
 40
0.1421251927984865
 10
165.8148744379273
 20
313.2942291551646
 30
0.0
 10
165.8183950220281
 20
313.3053387546695
 30
0.0
 10
165.819255249984
 20
313.3164160215553
 30
0.0
 10
165.8176159788329
 20
313.3271579814249
 30
0.0
  0
ARC
  5
37C
330
34C
100
AcDbEntity
  8
$DDT_AUDIT_GENERATED_(C0)
  6
Continuous
 62
     7
100
AcDbCircle
 10
139.2186033353
 20
239.7640534547
 30
0.0
 40
20.11534096859753
100
AcDbArc
 50
269.8039065565
 51
359.7480181387
  0
LINE
  5
37D
330
34C
100
AcDbEntity
  8
$DDT_AUDIT_GENERATED_(C0)
  6
Continuous
 62
     7
100
AcDbLine
 10
118.9643539401
 20
239.7534367492
 30
0.0
 11
118.9643188766
 21
239.6802223087
 31
0.0
  0
ARC
  5
37E
330
34C
100
AcDbEntity
  8
$DDT_AUDIT_GENERATED_(C0)
  6
Continuous
 62
     7
100
AcDbCircle
 10
139.0003471675
 20
239.6828569436
 30
0.0
 40
20.03458379542984
100
AcDbArc
 50
180.0207874198
 51
270.4273003991
  0
ARC
  5
37F
330
34C
100
AcDbEntity
  8
$DDT_AUDIT_GENERATED_(C0)
  6
Continuous
 62
     7
100
AcDbCircle
 10
128.3270984858
 20
311.0289846853
 30
0.0
 40
16.00846020375365
100
AcDbArc
 50
171.751857305
 51
175.3154289957
  0
ARC
  5
380
330
34C
100
AcDbEntity
  8
$DDT_AUDIT_GENERATED_(C0)
  6
Continuous
 62
     7
100
AcDbCircle
 10
145.1828624901
 20
310.4148725884
 30
0.0
 40
20.83593401862049
100
AcDbArc
 50
5.2919268522
 51
8.0296910563
  0
ARC
  5
381
330
34C
100
AcDbEntity
  8
$DDT_AUDIT_GENERATED_(C0)
  6
Continuous
 62
     7
100
AcDbCircle
 10
139.226924925
 20
309.8445301771
 30
0.0
 40
26.97395659601157
100
AcDbArc
 50
154.2037230517
 51
172.5808257337
  0
ARC
  5
382
330
34C
100
AcDbEntity
  8
$DDT_AUDIT_GENERATED_(C0)
  6
Continuous
 62
     7
100
AcDbCircle
 10
139.3631732507
 20
309.9306815276
 30
0.0
 40
26.66943889880931
100
AcDbArc
 50
7.3159275843
 51
28.1541731215
  0
ENDBLK
  5
384
330
34C
100
AcDbEntity
  8
0
100
AcDbBlockEnd
  0
ENDSEC
  0
SECTION
  2
ENTITIES
  0
INSERT
  5
5F
330
1F
100
AcDbEntity
  8
Default
100
AcDbBlockReference
  2
SEANNOT_GROUP
 10
0.0
 20
0.0
 30
0.0
  0
INSERT
  5
66
330
1F
100
AcDbEntity
  8
Default
100
AcDbBlockReference
  2
SEANNOT_GROUP1
 10
0.0
 20
0.0
 30
0.0
  0
INSERT
  5
6C
330
1F
100
AcDbEntity
  8
Default
100
AcDbBlockReference
  2
SEANNOT_GROUP2
 10
0.0
 20
0.0
 30
0.0
  0
INSERT
  5
76
330
1F
100
AcDbEntity
  8
Default
100
AcDbBlockReference
  2
SE
 10
0.0
 20
0.0
 30
0.0
  0
INSERT
  5
DE
330
1F
100
AcDbEntity
  8
Default
100
AcDbBlockReference
  2
SE1
 10
0.0
 20
0.0
 30
0.0
  0
INSERT
  5
34D
330
1F
100
AcDbEntity
  8
Default
100
AcDbBlockReference
  2
SE2
 10
0.0
 20
0.0
 30
0.0
  0
TEXT
  5
386
330
1F
100
AcDbEntity
  8
Default
  6
Continuous
 62
     7
100
AcDbText
 10
5.9362635081
 20
53.4225120485
 30
0.0
 40
10.0
  1
Grohe AG^J
  7
SEACAD_seiso_ttf
 11
5.9362635081
 21
63.4225120485
 31
0.0
100
AcDbText
 73
     3
  0
TEXT
  5
387
330
1F
100
AcDbEntity
  8
Default
  6
Continuous
 62
     7
100
AcDbText
 10
5.9362635081
 20
37.0588756849
 30
0.0
 40
10.0
  1
 
  7
SEACAD_seiso_ttf
 11
5.9362635081
 21
47.0588756849
 31
0.0
100
AcDbText
 73
     3
  0
TEXT
  5
388
330
1F
100
AcDbEntity
  8
Default
  6
Continuous
 62
     7
100
AcDbText
 10
5.9362635081
 20
20.6952393213
 30
0.0
 40
10.0
  1
ecn:
  7
SEACAD_seiso_ttf
 11
5.9362635081
 21
30.6952393213
 31
0.0
100
AcDbText
 73
     3
  0
TEXT
  5
389
330
1F
100
AcDbEntity
  8
Default
  6
Continuous
 62
     7
100
AcDbText
 10
5.9362635081
 20
4.3316029576
 30
0.0
 40
10.0
  1
unit: mm
  7
SEACAD_seiso_ttf
 11
5.9362635081
 21
14.3316029576
 31
0.0
100
AcDbText
 73
     3
  0
LINE
  5
38A
330
1F
100
AcDbEntity
  8
Default
  6
Continuous
 62
     7
100
AcDbLine
 10
0.0
 20
0.0
 30
0.0
 11
100.0
 21
0.0
 31
0.0
  0
LINE
  5
38B
330
1F
100
AcDbEntity
  8
Default
  6
Continuous
 62
     7
100
AcDbLine
 10
0.0
 20
0.0
 30
0.0
 11
0.0
 21
100.0
 31
0.0
  0
TEXT
  5
38C
330
1F
100
AcDbEntity
  8
Default
  6
Continuous
 62
     7
100
AcDbText
 10
24.3923665681
 20
-18.2375342018
 30
0.0
 40
10.0
  1
100 mm
  7
SEACAD_seiso_ttf
 11
24.3923665681
 21
-8.2375342018
 31
0.0
100
AcDbText
 73
     3
  0
TEXT
  5
38D
330
1F
100
AcDbEntity
  8
Default
  6
Continuous
 62
     7
100
AcDbText
 10
-7.6150308803
 20
24.6231930421
 30
0.0
 40
10.0
  1
100 mm
 50
90.0
  7
SEACAD_seiso_ttf
 11
-17.6150308803
 21
24.6231930421
 31
0.0
100
AcDbText
 73
     3
  0
TEXT
  5
38E
330
1F
100
AcDbEntity
  8
Default
  6
Continuous
 62
     7
100
AcDbText
 10
28.4878128572
 20
20.0907663715
 30
0.0
 40
10.0
  1
222116
  7
SEACAD_seiso_ttf
 11
28.4878128572
 21
30.0907663715
 31
0.0
100
AcDbText
 73
     3
  0
TEXT
  5
38F
330
1F
100
AcDbEntity
  8
Default
  6
Continuous
 62
     7
100
AcDbText
 10
5.9012241913
 20
36.7242780188
 30
0.0
 40
10.0
  1
31322000
  7
SEACAD_seiso_ttf
 11
5.9012241913
 21
46.7242780188
 31
0.0
100
AcDbText
 73
     3
  0
ENDSEC
  0
SECTION
  2
OBJECTS
  0
DICTIONARY
  5
C
330
0
100
AcDbDictionary
281
     1
  3
ACAD_GROUP
350
D
  3
ACAD_LAYOUT
350
1A
  3
ACAD_MLEADERSTYLE
350
393
  3
ACAD_MLINESTYLE
350
17
  3
ACAD_PLOTSETTINGS
350
19
  3
ACAD_PLOTSTYLENAME
350
E
  3
ACAD_SCALELIST
350
3B
  3
ACAD_TABLESTYLE
350
392
  3
ACAD_VISUALSTYLE
350
2A
  3
AcDbVariableDictionary
350
390
  0
DICTIONARY
  5
D
102
{ACAD_REACTORS
330
C
102
}
330
C
100
AcDbDictionary
281
     1
  0
DICTIONARY
  5
1A
102
{ACAD_REACTORS
330
C
102
}
330
C
100
AcDbDictionary
281
     1
  3
Layout1
350
1E
  3
Model
350
22
  0
DICTIONARY
  5
393
102
{ACAD_REACTORS
330
C
102
}
330
C
100
AcDbDictionary
281
     1
  0
DICTIONARY
  5
17
102
{ACAD_REACTORS
330
C
102
}
330
C
100
AcDbDictionary
281
     1
  3
Standard
350
18
  0
DICTIONARY
  5
19
102
{ACAD_REACTORS
330
C
102
}
330
C
100
AcDbDictionary
281
     1
  0
ACDBDICTIONARYWDFLT
  5
E
102
{ACAD_REACTORS
330
C
102
}
330
C
100
AcDbDictionary
281
     1
  3
Normal
350
F
100
AcDbDictionaryWithDefault
340
F
  0
DICTIONARY
  5
3B
102
{ACAD_REACTORS
330
C
102
}
330
C
100
AcDbDictionary
281
     1
  3
A0
350
3C
  3
A1
350
3D
  3
A2
350
3E
  3
A3
350
3F
  3
A4
350
40
  3
A5
350
41
  3
A6
350
42
  3
A7
350
43
  3
A8
350
44
  3
A9
350
45
  3
B0
350
46
  3
B1
350
47
  3
B2
350
48
  3
B3
350
49
  3
B4
350
4A
  3
B5
350
4B
  3
B6
350
4C
  3
B7
350
4D
  3
B8
350
4E
  3
B9
350
4F
  3
C0
350
50
  3
C1
350
51
  3
C2
350
52
  3
C3
350
53
  3
C4
350
54
  3
C5
350
55
  3
C6
350
56
  3
C7
350
57
  3
C8
350
58
  3
C9
350
59
  3
D0
350
5A
  3
D1
350
5B
  3
D2
350
5C
  0
DICTIONARY
  5
392
102
{ACAD_REACTORS
330
C
102
}
330
C
100
AcDbDictionary
281
     1
  0
DICTIONARY
  5
2A
102
{ACAD_REACTORS
330
C
102
}
330
C
100
AcDbDictionary
281
     1
  3
2dWireframe
350
2F
  3
3D Hidden
350
31
  3
3dWireframe
350
30
  3
Basic
350
32
  3
Brighten
350
36
  3
ColorChange
350
3A
  3
Conceptual
350
34
  3
Dim
350
35
  3
Facepattern
350
39
  3
Flat
350
2B
  3
FlatWithEdges
350
2C
  3
Gouraud
350
2D
  3
GouraudWithEdges
350
2E
  3
Linepattern
350
38
  3
Realistic
350
33
  3
Thicken
350
37
  0
DICTIONARY
  5
390
102
{ACAD_REACTORS
330
C
102
}
330
C
100
AcDbDictionary
281
     1
  3
CANNOSCALE
350
391
  3
PSOLHEIGHT
350
395
  3
PSOLWIDTH
350
394
  0
LAYOUT
  5
1E
102
{ACAD_REACTORS
330
1A
102
}
330
1A
100
AcDbPlotSettings
  1

  2
none_device
  4

  6

 40
0.0
 41
0.0
 42
0.0
 43
0.0
 44
0.0
 45
0.0
 46
0.0
 47
0.0
 48
0.0
 49
0.0
140
0.0
141
0.0
142
1.0
143
1.0
 70
   688
 72
     0
 73
     0
 74
     5
  7

 75
    16
147
1.0
148
0.0
149
0.0
100
AcDbLayout
  1
Layout1
 70
     1
 71
     1
 10
0.0
 20
0.0
 11
3000.0
 21
4500.0
 12
0.0
 22
0.0
 32
0.0
 14
0.0
 24
0.0
 34
0.0
 15
3000.0
 25
4500.0
 35
0.0
146
0.0
 13
0.0
 23
0.0
 33
0.0
 16
1.0
 26
0.0
 36
0.0
 17
0.0
 27
1.0
 37
0.0
 76
     0
330
1B
  0
LAYOUT
  5
22
102
{ACAD_REACTORS
330
1A
102
}
330
1A
100
AcDbPlotSettings
  1

  2
none_device
  4

  6

 40
0.0
 41
0.0
 42
0.0
 43
0.0
 44
0.0
 45
0.0
 46
0.0
 47
0.0
 48
0.0
 49
0.0
140
0.0
141
0.0
142
1.0
143
1.0
 70
  1712
 72
     0
 73
     0
 74
     0
  7

 75
     0
147
1.0
148
0.0
149
0.0
100
AcDbLayout
  1
Model
 70
     1
 71
     0
 10
0.0
 20
0.0
 11
3000.0
 21
4500.0
 12
0.0
 22
0.0
 32
0.0
 14
0.0
 24
0.0
 34
0.0
 15
3000.0
 25
4500.0
 35
0.0
146
0.0
 13
0.0
 23
0.0
 33
0.0
 16
1.0
 26
0.0
 36
0.0
 17
0.0
 27
1.0
 37
0.0
 76
     0
330
1F
331
29
  0
MLINESTYLE
  5
18
102
{ACAD_REACTORS
330
17
102
}
330
17
100
AcDbMlineStyle
  2
Standard
 70
     0
  3

 62
   256
 51
90.0
 52
90.0
 71
     2
 49
0.5
 62
   256
  6
BYLAYER
 49
-0.5
 62
   256
  6
BYLAYER
  0
ACDBPLACEHOLDER
  5
F
102
{ACAD_REACTORS
330
E
102
}
330
E
  0
SCALE
  5
3C
102
{ACAD_REACTORS
330
3B
102
}
330
3B
100
AcDbScale
 70
     0
300
1:1
140
1.0
141
1.0
290
     1
  0
SCALE
  5
3D
102
{ACAD_REACTORS
330
3B
102
}
330
3B
100
AcDbScale
 70
     0
300
1:2
140
1.0
141
2.0
290
     0
  0
SCALE
  5
3E
102
{ACAD_REACTORS
330
3B
102
}
330
3B
100
AcDbScale
 70
     0
300
1:4
140
1.0
141
4.0
290
     0
  0
SCALE
  5
3F
102
{ACAD_REACTORS
330
3B
102
}
330
3B
100
AcDbScale
 70
     0
300
1:5
140
1.0
141
5.0
290
     0
  0
SCALE
  5
40
102
{ACAD_REACTORS
330
3B
102
}
330
3B
100
AcDbScale
 70
     0
300
1:8
140
1.0
141
8.0
290
     0
  0
SCALE
  5
41
102
{ACAD_REACTORS
330
3B
102
}
330
3B
100
AcDbScale
 70
     0
300
1:10
140
1.0
141
10.0
290
     0
  0
SCALE
  5
42
102
{ACAD_REACTORS
330
3B
102
}
330
3B
100
AcDbScale
 70
     0
300
1:16
140
1.0
141
16.0
290
     0
  0
SCALE
  5
43
102
{ACAD_REACTORS
330
3B
102
}
330
3B
100
AcDbScale
 70
     0
300
1:20
140
1.0
141
20.0
290
     0
  0
SCALE
  5
44
102
{ACAD_REACTORS
330
3B
102
}
330
3B
100
AcDbScale
 70
     0
300
1:30
140
1.0
141
30.0
290
     0
  0
SCALE
  5
45
102
{ACAD_REACTORS
330
3B
102
}
330
3B
100
AcDbScale
 70
     0
300
1:40
140
1.0
141
40.0
290
     0
  0
SCALE
  5
46
102
{ACAD_REACTORS
330
3B
102
}
330
3B
100
AcDbScale
 70
     0
300
1:50
140
1.0
141
50.0
290
     0
  0
SCALE
  5
47
102
{ACAD_REACTORS
330
3B
102
}
330
3B
100
AcDbScale
 70
     0
300
1:100
140
1.0
141
100.0
290
     0
  0
SCALE
  5
48
102
{ACAD_REACTORS
330
3B
102
}
330
3B
100
AcDbScale
 70
     0
300
2:1
140
2.0
141
1.0
290
     0
  0
SCALE
  5
49
102
{ACAD_REACTORS
330
3B
102
}
330
3B
100
AcDbScale
 70
     0
300
4:1
140
4.0
141
1.0
290
     0
  0
SCALE
  5
4A
102
{ACAD_REACTORS
330
3B
102
}
330
3B
100
AcDbScale
 70
     0
300
8:1
140
8.0
141
1.0
290
     0
  0
SCALE
  5
4B
102
{ACAD_REACTORS
330
3B
102
}
330
3B
100
AcDbScale
 70
     0
300
10:1
140
10.0
141
1.0
290
     0
  0
SCALE
  5
4C
102
{ACAD_REACTORS
330
3B
102
}
330
3B
100
AcDbScale
 70
     0
300
100:1
140
100.0
141
1.0
290
     0
  0
SCALE
  5
4D
102
{ACAD_REACTORS
330
3B
102
}
330
3B
100
AcDbScale
 70
     0
300
1/128" = 1'-0"
140
0.0078125
141
12.0
290
     0
  0
SCALE
  5
4E
102
{ACAD_REACTORS
330
3B
102
}
330
3B
100
AcDbScale
 70
     0
300
1/64" = 1'-0"
140
0.015625
141
12.0
290
     0
  0
SCALE
  5
4F
102
{ACAD_REACTORS
330
3B
102
}
330
3B
100
AcDbScale
 70
     0
300
1/32" = 1'-0"
140
0.03125
141
12.0
290
     0
  0
SCALE
  5
50
102
{ACAD_REACTORS
330
3B
102
}
330
3B
100
AcDbScale
 70
     0
300
1/16" = 1'-0"
140
0.0625
141
12.0
290
     0
  0
SCALE
  5
51
102
{ACAD_REACTORS
330
3B
102
}
330
3B
100
AcDbScale
 70
     0
300
3/32" = 1'-0"
140
0.09375
141
12.0
290
     0
  0
SCALE
  5
52
102
{ACAD_REACTORS
330
3B
102
}
330
3B
100
AcDbScale
 70
     0
300
1/8" = 1'-0"
140
0.125
141
12.0
290
     0
  0
SCALE
  5
53
102
{ACAD_REACTORS
330
3B
102
}
330
3B
100
AcDbScale
 70
     0
300
3/16" = 1'-0"
140
0.1875
141
12.0
290
     0
  0
SCALE
  5
54
102
{ACAD_REACTORS
330
3B
102
}
330
3B
100
AcDbScale
 70
     0
300
1/4" = 1'-0"
140
0.25
141
12.0
290
     0
  0
SCALE
  5
55
102
{ACAD_REACTORS
330
3B
102
}
330
3B
100
AcDbScale
 70
     0
300
3/8" = 1'-0"
140
0.375
141
12.0
290
     0
  0
SCALE
  5
56
102
{ACAD_REACTORS
330
3B
102
}
330
3B
100
AcDbScale
 70
     0
300
1/2" = 1'-0"
140
0.5
141
12.0
290
     0
  0
SCALE
  5
57
102
{ACAD_REACTORS
330
3B
102
}
330
3B
100
AcDbScale
 70
     0
300
3/4" = 1'-0"
140
0.75
141
12.0
290
     0
  0
SCALE
  5
58
102
{ACAD_REACTORS
330
3B
102
}
330
3B
100
AcDbScale
 70
     0
300
1" = 1'-0"
140
1.0
141
12.0
290
     0
  0
SCALE
  5
59
102
{ACAD_REACTORS
330
3B
102
}
330
3B
100
AcDbScale
 70
     0
300
1-1/2" = 1'-0"
140
1.5
141
12.0
290
     0
  0
SCALE
  5
5A
102
{ACAD_REACTORS
330
3B
102
}
330
3B
100
AcDbScale
 70
     0
300
3" = 1'-0"
140
3.0
141
12.0
290
     0
  0
SCALE
  5
5B
102
{ACAD_REACTORS
330
3B
102
}
330
3B
100
AcDbScale
 70
     0
300
6" = 1'-0"
140
6.0
141
12.0
290
     0
  0
SCALE
  5
5C
102
{ACAD_REACTORS
330
3B
102
}
330
3B
100
AcDbScale
 70
     0
300
1'-0" = 1'-0"
140
12.0
141
12.0
290
     0
  0
VISUALSTYLE
  5
2F
102
{ACAD_REACTORS
330
2A
102
}
330
2A
100
AcDbVisualStyle
  2
2dWireframe
 70
     4
 71
     0
 72
     2
 73
     0
 90
        0
 40
-0.6
 41
-30.0
 62
     5
 63
     7
 74
     1
 91
        4
 64
     7
 65
   257
 75
     1
175
     1
 42
1.0
 92
        0
 66
   257
 43
1.0
 76
     1
 77
     6
 78
     2
 67
     7
 79
     5
170
     0
171
     0
290
     0
174
     0
 93
        1
 44
0.0
173
     0
291
     0
 45
0.0
1001
ACAD
1000
AcDbSavedByObjectVersion
1070
     0
  0
VISUALSTYLE
  5
31
102
{ACAD_REACTORS
330
2A
102
}
330
2A
100
AcDbVisualStyle
  2
3D Hidden
 70
     6
 71
     1
 72
     2
 73
     2
 90
        0
 40
-0.6
 41
-30.0
 62
     5
 63
     7
 74
     2
 91
        2
 64
     7
 65
   257
 75
     2
175
     1
 42
40.0
 92
        0
 66
   257
 43
1.0
 76
     1
 77
     6
 78
     2
 67
     7
 79
     3
170
     0
171
     0
290
     0
174
     0
 93
        1
 44
0.0
173
     0
291
     0
 45
0.0
1001
ACAD
1000
AcDbSavedByObjectVersion
1070
     0
  0
VISUALSTYLE
  5
30
102
{ACAD_REACTORS
330
2A
102
}
330
2A
100
AcDbVisualStyle
  2
3dWireframe
 70
     5
 71
     0
 72
     2
 73
     0
 90
        0
 40
-0.6
 41
-30.0
 62
     5
 63
     7
 74
     1
 91
        4
 64
     7
 65
   257
 75
     1
175
     1
 42
1.0
 92
        0
 66
   257
 43
1.0
 76
     1
 77
     6
 78
     2
 67
     7
 79
     5
170
     0
171
     0
290
     0
174
     0
 93
        1
 44
0.0
173
     0
291
     0
 45
0.0
1001
ACAD
1000
AcDbSavedByObjectVersion
1070
     0
  0
VISUALSTYLE
  5
32
102
{ACAD_REACTORS
330
2A
102
}
330
2A
100
AcDbVisualStyle
  2
Basic
 70
     7
 71
     1
 72
     0
 73
     1
 90
        0
 40
-0.6
 41
-30.0
 62
     5
 63
     7
 74
     0
 91
        4
 64
     7
 65
   257
 75
     1
175
     1
 42
1.0
 92
        8
 66
     7
 43
1.0
 76
     1
 77
     6
 78
     2
 67
     7
 79
     5
170
     0
171
     0
290
     0
174
     0
 93
        1
 44
0.0
173
     0
291
     1
 45
0.0
1001
ACAD
1000
AcDbSavedByObjectVersion
1070
     0
  0
VISUALSTYLE
  5
36
102
{ACAD_REACTORS
330
2A
102
}
330
2A
100
AcDbVisualStyle
  2
Brighten
 70
    12
 71
     2
 72
     2
 73
     0
 90
        0
 40
-0.6
 41
-30.0
 62
     5
 63
     7
 74
     1
 91
        4
 64
     7
 65
   257
 75
     1
175
     1
 42
1.0
 92
        8
 66
     7
 43
1.0
 76
     1
 77
     6
 78
     2
 67
     7
 79
     5
170
     0
171
     0
290
     0
174
     0
 93
        1
 44
50.0
173
     0
291
     1
 45
0.0
1001
ACAD
1000
AcDbSavedByObjectVersion
1070
     0
  0
VISUALSTYLE
  5
3A
102
{ACAD_REACTORS
330
2A
102
}
330
2A
100
AcDbVisualStyle
  2
ColorChange
 70
    16
 71
     2
 72
     2
 73
     3
 90
        0
 40
-0.6
 41
-30.0
 62
     5
 63
     8
 74
     1
 91
        4
 64
     7
 65
   257
 75
     1
175
     1
 42
1.0
 92
        8
 66
     8
 43
1.0
 76
     1
 77
     6
 78
     2
 67
     7
 79
     5
170
     0
171
     0
290
     0
174
     0
 93
        1
 44
0.0
173
     0
291
     1
 45
0.0
1001
ACAD
1000
AcDbSavedByObjectVersion
1070
     0
  0
VISUALSTYLE
  5
34
102
{ACAD_REACTORS
330
2A
102
}
330
2A
100
AcDbVisualStyle
  2
Conceptual
 70
     9
 71
     3
 72
     2
 73
     0
 90
        0
 40
-0.6
 41
-30.0
 62
     5
 63
     7
 74
     2
 91
        2
 64
     7
 65
   257
 75
     1
175
     1
 42
40.0
 92
        8
 66
     7
 43
1.0
 76
     1
 77
     6
 78
     2
 67
     7
 79
     3
170
     0
171
     0
290
     0
174
     0
 93
        1
 44
0.0
173
     0
291
     0
 45
0.0
1001
ACAD
1000
AcDbSavedByObjectVersion
1070
     0
  0
VISUALSTYLE
  5
35
102
{ACAD_REACTORS
330
2A
102
}
330
2A
100
AcDbVisualStyle
  2
Dim
 70
    11
 71
     2
 72
     2
 73
     0
 90
        0
 40
-0.6
 41
-30.0
 62
     5
 63
     7
 74
     1
 91
        4
 64
     7
 65
   257
 75
     1
175
     1
 42
1.0
 92
        8
 66
     7
 43
1.0
 76
     1
 77
     6
 78
     2
 67
     7
 79
     5
170
     0
171
     0
290
     0
174
     0
 93
        1
 44
-50.0
173
     0
291
     1
 45
0.0
1001
ACAD
1000
AcDbSavedByObjectVersion
1070
     0
  0
VISUALSTYLE
  5
39
102
{ACAD_REACTORS
330
2A
102
}
330
2A
100
AcDbVisualStyle
  2
Facepattern
 70
    15
 71
     2
 72
     2
 73
     0
 90
        0
 40
-0.6
 41
-30.0
 62
     5
 63
     7
 74
     1
 91
        4
 64
     7
 65
   257
 75
     1
175
     1
 42
1.0
 92
        8
 66
     7
 43
1.0
 76
     1
 77
     6
 78
     2
 67
     7
 79
     5
170
     0
171
     0
290
     0
174
     0
 93
        1
 44
0.0
173
     0
291
     1
 45
0.0
1001
ACAD
1000
AcDbSavedByObjectVersion
1070
     0
  0
VISUALSTYLE
  5
2B
102
{ACAD_REACTORS
330
2A
102
}
330
2A
100
AcDbVisualStyle
  2
Flat
 70
     0
 71
     2
 72
     1
 73
     1
 90
        2
 40
-0.6
 41
30.0
 62
     5
 63
     7
 74
     0
 91
        4
 64
     7
 65
   257
 75
     1
175
     1
 42
1.0
 92
        8
 66
     7
 43
1.0
 76
     1
 77
     6
 78
     2
 67
     7
 79
     5
170
     0
171
     0
290
     0
174
     0
 93
       13
 44
0.0
173
     0
291
     1
 45
0.0
1001
ACAD
1000
AcDbSavedByObjectVersion
1070
     0
  0
VISUALSTYLE
  5
2C
102
{ACAD_REACTORS
330
2A
102
}
330
2A
100
AcDbVisualStyle
  2
FlatWithEdges
 70
     1
 71
     2
 72
     1
 73
     1
 90
        2
 40
-0.6
 41
30.0
 62
     5
 63
     7
 74
     1
 91
        4
 64
     7
 65
   257
 75
     1
175
     1
 42
1.0
 92
        0
 66
   257
 43
1.0
 76
     1
 77
     6
 78
     2
 67
     7
 79
     5
170
     0
171
     0
290
     0
174
     0
 93
       13
 44
0.0
173
     0
291
     1
 45
0.0
1001
ACAD
1000
AcDbSavedByObjectVersion
1070
     0
  0
VISUALSTYLE
  5
2D
102
{ACAD_REACTORS
330
2A
102
}
330
2A
100
AcDbVisualStyle
  2
Gouraud
 70
     2
 71
     2
 72
     2
 73
     1
 90
        2
 40
-0.6
 41
30.0
 62
     5
 63
     7
 74
     0
 91
        4
 64
     7
 65
   257
 75
     1
175
     1
 42
1.0
 92
        0
 66
     7
 43
1.0
 76
     1
 77
     6
 78
     2
 67
     7
 79
     5
170
     0
171
     0
290
     0
174
     0
 93
       13
 44
0.0
173
     0
291
     1
 45
0.0
1001
ACAD
1000
AcDbSavedByObjectVersion
1070
     0
  0
VISUALSTYLE
  5
2E
102
{ACAD_REACTORS
330
2A
102
}
330
2A
100
AcDbVisualStyle
  2
GouraudWithEdges
 70
     3
 71
     2
 72
     2
 73
     1
 90
        2
 40
-0.6
 41
30.0
 62
     5
 63
     7
 74
     1
 91
        4
 64
     7
 65
   257
 75
     1
175
     1
 42
1.0
 92
        0
 66
   257
 43
1.0
 76
     1
 77
     6
 78
     2
 67
     7
 79
     5
170
     0
171
     0
290
     0
174
     0
 93
       13
 44
0.0
173
     0
291
     1
 45
0.0
1001
ACAD
1000
AcDbSavedByObjectVersion
1070
     0
  0
VISUALSTYLE
  5
38
102
{ACAD_REACTORS
330
2A
102
}
330
2A
100
AcDbVisualStyle
  2
Linepattern
 70
    14
 71
     2
 72
     2
 73
     0
 90
        0
 40
-0.6
 41
-30.0
 62
     5
 63
     7
 74
     1
 91
        4
 64
     7
 65
   257
 75
     7
175
     7
 42
1.0
 92
        8
 66
     7
 43
1.0
 76
     1
 77
     6
 78
     2
 67
     7
 79
     5
170
     0
171
     0
290
     0
174
     0
 93
        1
 44
0.0
173
     0
291
     1
 45
0.0
1001
ACAD
1000
AcDbSavedByObjectVersion
1070
     0
  0
VISUALSTYLE
  5
33
102
{ACAD_REACTORS
330
2A
102
}
330
2A
100
AcDbVisualStyle
  2
Realistic
 70
     8
 71
     2
 72
     2
 73
     0
 90
        0
 40
-0.6
 41
-30.0
 62
     5
 63
     7
 74
     1
 91
        0
 64
     7
 65
   257
 75
     1
175
     1
 42
1.0
 92
        8
 66
     8
 43
1.0
 76
     1
 77
     6
 78
     2
 67
     7
 79
     5
170
     0
171
     0
290
     0
174
     0
 93
       13
 44
0.0
173
     0
291
     0
 45
0.0
1001
ACAD
1000
AcDbSavedByObjectVersion
1070
     0
  0
VISUALSTYLE
  5
37
102
{ACAD_REACTORS
330
2A
102
}
330
2A
100
AcDbVisualStyle
  2
Thicken
 70
    13
 71
     2
 72
     2
 73
     0
 90
        0
 40
-0.6
 41
-30.0
 62
     5
 63
     7
 74
     1
 91
        4
 64
     7
 65
   257
 75
     1
175
     1
 42
1.0
 92
       12
 66
     7
 43
1.0
 76
     1
 77
     6
 78
     2
 67
     7
 79
     5
170
     0
171
     0
290
     0
174
     0
 93
        1
 44
0.0
173
     0
291
     1
 45
0.0
1001
ACAD
1000
AcDbSavedByObjectVersion
1070
     0
  0
DICTIONARYVAR
  5
391
102
{ACAD_REACTORS
330
390
102
}
330
390
100
DictionaryVariables
280
     0
  1
1:1
  0
DICTIONARYVAR
  5
395
102
{ACAD_REACTORS
330
390
102
}
330
390
100
DictionaryVariables
280
     0
  1
80.000000
  0
DICTIONARYVAR
  5
394
102
{ACAD_REACTORS
330
390
102
}
330
390
100
DictionaryVariables
280
     0
  1
5.000000
  0
ENDSEC
  0
EOF
