  0
SECTION
  2
HEADER
  9
$ACADVER
  1
AC1015
  9
$ACADMAINTVER
 70
     6
  9
$DWGCODEPAGE
  3
ANSI_1252
  9
$INSBASE
 10
0.0
 20
0.0
 30
0.0
  9
$EXTMIN
 10
0.0
 20
0.0
 30
0.0
  9
$EXTMAX
 10
3000.0
 20
4500.0
 30
0.0
  9
$LIMMIN
 10
0.0
 20
0.0
  9
$LIMMAX
 10
3000.0
 20
4500.0
  9
$ORTHOMODE
 70
     0
  9
$REGENMODE
 70
     1
  9
$FILLMODE
 70
     1
  9
$QTEXTMODE
 70
     0
  9
$MIRRTEXT
 70
     1
  9
$LTSCALE
 40
1.0
  9
$ATTMODE
 70
     1
  9
$TEXTSIZE
 40
10.0
  9
$TRACEWID
 40
1.0
  9
$TEXTSTYLE
  7
Standard
  9
$CLAYER
  8
0
  9
$CELTYPE
  6
ByLayer
  9
$CECOLOR
 62
   256
  9
$CELTSCALE
 40
1.0
  9
$DISPSILH
 70
     0
  9
$DIMSCALE
 40
1.0
  9
$DIMASZ
 40
2.5
  9
$DIMEXO
 40
0.625
  9
$DIMDLI
 40
3.75
  9
$DIMRND
 40
0.0
  9
$DIMDLE
 40
0.0
  9
$DIMEXE
 40
1.25
  9
$DIMTP
 40
0.0
  9
$DIMTM
 40
0.0
  9
$DIMTXT
 40
2.5
  9
$DIMCEN
 40
2.5
  9
$DIMTSZ
 40
0.0
  9
$DIMTOL
 70
     0
  9
$DIMLIM
 70
     0
  9
$DIMTIH
 70
     0
  9
$DIMTOH
 70
     0
  9
$DIMSE1
 70
     0
  9
$DIMSE2
 70
     0
  9
$DIMTAD
 70
     1
  9
$DIMZIN
 70
     8
  9
$DIMBLK
  1

  9
$DIMASO
 70
     1
  9
$DIMSHO
 70
     1
  9
$DIMPOST
  1

  9
$DIMAPOST
  1

  9
$DIMALT
 70
     0
  9
$DIMALTD
 70
     3
  9
$DIMALTF
 40
0.0393700787
  9
$DIMLFAC
 40
1.0
  9
$DIMTOFL
 70
     1
  9
$DIMTVP
 40
0.0
  9
$DIMTIX
 70
     0
  9
$DIMSOXD
 70
     0
  9
$DIMSAH
 70
     0
  9
$DIMBLK1
  1

  9
$DIMBLK2
  1

  9
$DIMSTYLE
  2
ISO-25
  9
$DIMCLRD
 70
     0
  9
$DIMCLRE
 70
     0
  9
$DIMCLRT
 70
     0
  9
$DIMTFAC
 40
1.0
  9
$DIMGAP
 40
0.625
  9
$DIMJUST
 70
     0
  9
$DIMSD1
 70
     0
  9
$DIMSD2
 70
     0
  9
$DIMTOLJ
 70
     0
  9
$DIMTZIN
 70
     8
  9
$DIMALTZ
 70
     0
  9
$DIMALTTZ
 70
     0
  9
$DIMUPT
 70
     0
  9
$DIMDEC
 70
     2
  9
$DIMTDEC
 70
     2
  9
$DIMALTU
 70
     2
  9
$DIMALTTD
 70
     3
  9
$DIMTXSTY
  7
Standard
  9
$DIMAUNIT
 70
     0
  9
$DIMADEC
 70
     0
  9
$DIMALTRND
 40
0.0
  9
$DIMAZIN
 70
     0
  9
$DIMDSEP
 70
    44
  9
$DIMATFIT
 70
     3
  9
$DIMFRAC
 70
     0
  9
$DIMLDRBLK
  1

  9
$DIMLUNIT
 70
     2
  9
$DIMLWD
 70
    -2
  9
$DIMLWE
 70
    -2
  9
$DIMTMOVE
 70
     0
  9
$LUNITS
 70
     2
  9
$LUPREC
 70
     4
  9
$SKETCHINC
 40
1.0
  9
$FILLETRAD
 40
10.0
  9
$AUNITS
 70
     0
  9
$AUPREC
 70
     0
  9
$MENU
  1
.
  9
$ELEVATION
 40
0.0
  9
$PELEVATION
 40
0.0
  9
$THICKNESS
 40
0.0
  9
$LIMCHECK
 70
     0
  9
$CHAMFERA
 40
0.0
  9
$CHAMFERB
 40
0.0
  9
$CHAMFERC
 40
0.0
  9
$CHAMFERD
 40
0.0
  9
$SKPOLY
 70
     0
  9
$TDCREATE
 40
2458187.290431157
  9
$TDUCREATE
 40
2458187.248764491
  9
$TDUPDATE
 40
2458187.290432604
  9
$TDUUPDATE
 40
2458187.248765938
  9
$TDINDWG
 40
0.0000000116
  9
$TDUSRTIMER
 40
0.0000000116
  9
$USRTIMER
 70
     1
  9
$ANGBASE
 50
0.0
  9
$ANGDIR
 70
     0
  9
$PDMODE
 70
     0
  9
$PDSIZE
 40
0.0
  9
$PLINEWID
 40
0.0
  9
$SPLFRAME
 70
     0
  9
$SPLINETYPE
 70
     6
  9
$SPLINESEGS
 70
     8
  9
$HANDSEED
  5
25C
  9
$SURFTAB1
 70
     6
  9
$SURFTAB2
 70
     6
  9
$SURFTYPE
 70
     6
  9
$SURFU
 70
     6
  9
$SURFV
 70
     6
  9
$UCSBASE
  2

  9
$UCSNAME
  2

  9
$UCSORG
 10
0.0
 20
0.0
 30
0.0
  9
$UCSXDIR
 10
1.0
 20
0.0
 30
0.0
  9
$UCSYDIR
 10
0.0
 20
1.0
 30
0.0
  9
$UCSORTHOREF
  2

  9
$UCSORTHOVIEW
 70
     0
  9
$UCSORGTOP
 10
0.0
 20
0.0
 30
0.0
  9
$UCSORGBOTTOM
 10
0.0
 20
0.0
 30
0.0
  9
$UCSORGLEFT
 10
0.0
 20
0.0
 30
0.0
  9
$UCSORGRIGHT
 10
0.0
 20
0.0
 30
0.0
  9
$UCSORGFRONT
 10
0.0
 20
0.0
 30
0.0
  9
$UCSORGBACK
 10
0.0
 20
0.0
 30
0.0
  9
$PUCSBASE
  2

  9
$PUCSNAME
  2

  9
$PUCSORG
 10
0.0
 20
0.0
 30
0.0
  9
$PUCSXDIR
 10
1.0
 20
0.0
 30
0.0
  9
$PUCSYDIR
 10
0.0
 20
1.0
 30
0.0
  9
$PUCSORTHOREF
  2

  9
$PUCSORTHOVIEW
 70
     0
  9
$PUCSORGTOP
 10
0.0
 20
0.0
 30
0.0
  9
$PUCSORGBOTTOM
 10
0.0
 20
0.0
 30
0.0
  9
$PUCSORGLEFT
 10
0.0
 20
0.0
 30
0.0
  9
$PUCSORGRIGHT
 10
0.0
 20
0.0
 30
0.0
  9
$PUCSORGFRONT
 10
0.0
 20
0.0
 30
0.0
  9
$PUCSORGBACK
 10
0.0
 20
0.0
 30
0.0
  9
$USERI1
 70
     0
  9
$USERI2
 70
     0
  9
$USERI3
 70
     0
  9
$USERI4
 70
     0
  9
$USERI5
 70
     0
  9
$USERR1
 40
0.0
  9
$USERR2
 40
0.0
  9
$USERR3
 40
0.0
  9
$USERR4
 40
0.0
  9
$USERR5
 40
0.0
  9
$WORLDVIEW
 70
     1
  9
$SHADEDGE
 70
     3
  9
$SHADEDIF
 70
    70
  9
$TILEMODE
 70
     1
  9
$MAXACTVP
 70
    64
  9
$PINSBASE
 10
0.0
 20
0.0
 30
0.0
  9
$PLIMCHECK
 70
     0
  9
$PEXTMIN
 10
0.0
 20
0.0
 30
0.0
  9
$PEXTMAX
 10
3000.0
 20
4500.0
 30
0.0
  9
$PLIMMIN
 10
0.0
 20
0.0
  9
$PLIMMAX
 10
3000.0
 20
4500.0
  9
$UNITMODE
 70
     0
  9
$VISRETAIN
 70
     1
  9
$PLINEGEN
 70
     0
  9
$PSLTSCALE
 70
     1
  9
$TREEDEPTH
 70
  3020
  9
$CMLSTYLE
  2
Standard
  9
$CMLJUST
 70
     0
  9
$CMLSCALE
 40
20.0
  9
$PROXYGRAPHICS
 70
     1
  9
$MEASUREMENT
 70
     1
  9
$CELWEIGHT
370
    -1
  9
$ENDCAPS
280
     0
  9
$JOINSTYLE
280
     0
  9
$LWDISPLAY
290
     0
  9
$INSUNITS
 70
     4
  9
$HYPERLINKBASE
  1

  9
$STYLESHEET
  1

  9
$XEDIT
290
     1
  9
$CEPSNTYPE
380
     0
  9
$PSTYLEMODE
290
     1
  9
$FINGERPRINTGUID
  2
{CA9172F8-A857-4D30-9FE9-B2A2A562A611}
  9
$VERSIONGUID
  2
{FAEB1C32-E019-11D5-929B-00C0DF256EC4}
  9
$EXTNAMES
290
     1
  9
$PSVPSCALE
 40
0.0
  9
$OLESTARTUP
290
     0
  0
ENDSEC
  0
SECTION
  2
CLASSES
  0
CLASS
  1
ACDBDICTIONARYWDFLT
  2
AcDbDictionaryWithDefault
  3
ObjectDBX Classes
 90
        0
280
     0
281
     0
  0
CLASS
  1
VISUALSTYLE
  2
AcDbVisualStyle
  3
ObjectDBX Classes
 90
     4095
280
     0
281
     0
  0
CLASS
  1
MATERIAL
  2
AcDbMaterial
  3
ObjectDBX Classes
 90
     1153
280
     0
281
     0
  0
CLASS
  1
SCALE
  2
AcDbScale
  3
ObjectDBX Classes
 90
     1153
280
     0
281
     0
  0
CLASS
  1
SUN
  2
AcDbSun
  3
SCENEOE
 90
     1153
280
     0
281
     0
  0
CLASS
  1
DICTIONARYVAR
  2
AcDbDictionaryVar
  3
ObjectDBX Classes
 90
        0
280
     0
281
     0
  0
CLASS
  1
ACDBPLACEHOLDER
  2
AcDbPlaceHolder
  3
ObjectDBX Classes
 90
        0
280
     0
281
     0
  0
CLASS
  1
LAYOUT
  2
AcDbLayout
  3
ObjectDBX Classes
 90
        0
280
     0
281
     0
  0
ENDSEC
  0
SECTION
  2
TABLES
  0
TABLE
  2
VPORT
  5
8
330
0
100
AcDbSymbolTable
 70
     1
  0
VPORT
  5
29
330
8
100
AcDbSymbolTableRecord
100
AcDbViewportTableRecord
  2
*Active
 70
     0
 10
0.0
 20
0.0
 11
1.0
 21
1.0
 12
344.1869158879
 22
148.5
 13
0.0
 23
0.0
 14
10.0
 24
10.0
 15
10.0
 25
10.0
 16
0.0
 26
0.0
 36
1.0
 17
0.0
 27
0.0
 37
0.0
 40
297.0
 41
1.9729729729
 42
50.0
 43
0.0
 44
0.0
 50
0.0
 51
0.0
 71
     0
 72
   100
 73
     1
 74
     3
 75
     0
 76
     0
 77
     0
 78
     0
281
     0
 65
     1
110
0.0
120
0.0
130
0.0
111
1.0
121
0.0
131
0.0
112
0.0
122
1.0
132
0.0
 79
     0
146
0.0
  0
ENDTAB
  0
TABLE
  2
LTYPE
  5
5
330
0
100
AcDbSymbolTable
 70
     2
  0
LTYPE
  5
14
330
5
100
AcDbSymbolTableRecord
100
AcDbLinetypeTableRecord
  2
ByBlock
 70
     0
  3

 72
    65
 73
     0
 40
0.0
  0
LTYPE
  5
15
330
5
100
AcDbSymbolTableRecord
100
AcDbLinetypeTableRecord
  2
ByLayer
 70
     0
  3

 72
    65
 73
     0
 40
0.0
  0
LTYPE
  5
16
330
5
100
AcDbSymbolTableRecord
100
AcDbLinetypeTableRecord
  2
Continuous
 70
     0
  3
Solid line
 72
    65
 73
     0
 40
0.0
  0
LTYPE
  5
6D
330
5
100
AcDbSymbolTableRecord
100
AcDbLinetypeTableRecord
  2
CENTER2
 70
     0
  3
Center (.5x) ___ _ ___ _ ___ _ ___ _ ___ _ ___
 72
    65
 73
     4
 40
28.575
 49
19.05
 74
     4
 75
     0
340
0
 46
0.0
 50
0.0
 44
0.0
 45
0.0
 49
-3.175
 74
     4
 75
     0
340
0
 46
0.0
 50
0.0
 44
0.0
 45
0.0
 49
3.175
 74
     4
 75
     0
340
0
 46
0.0
 50
0.0
 44
0.0
 45
0.0
 49
-3.175
 74
     4
 75
     0
340
0
 46
0.0
 50
0.0
 44
0.0
 45
0.0
  0
ENDTAB
  0
TABLE
  2
LAYER
  5
2
330
0
100
AcDbSymbolTable
 70
     5
  0
LAYER
  5
10
330
2
100
AcDbSymbolTableRecord
100
AcDbLayerTableRecord
  2
0
 70
     0
 62
     7
  6
Continuous
370
    -3
390
F
  0
LAYER
  5
6A
330
2
100
AcDbSymbolTableRecord
100
AcDbLayerTableRecord
  2
Default
 70
     0
 62
     7
  6
Continuous
370
    -3
390
F
  0
LAYER
  5
80
330
2
100
AcDbSymbolTableRecord
100
AcDbLayerTableRecord
  2
DV1_Default
 70
     0
 62
     7
  6
Continuous
370
    -3
390
F
  0
LAYER
  5
170
330
2
100
AcDbSymbolTableRecord
100
AcDbLayerTableRecord
  2
DV2_Default
 70
     0
 62
     7
  6
Continuous
370
    -3
390
F
  0
LAYER
  5
1DF
330
2
100
AcDbSymbolTableRecord
100
AcDbLayerTableRecord
  2
DV3_Default
 70
     0
 62
     7
  6
Continuous
370
    -3
390
F
  0
ENDTAB
  0
TABLE
  2
STYLE
  5
3
330
0
100
AcDbSymbolTable
 70
     1
  0
STYLE
  5
11
330
3
100
AcDbSymbolTableRecord
100
AcDbTextStyleTableRecord
  2
Standard
 70
     0
 40
0.0
 41
1.0
 50
0.0
 71
     0
 42
10.0
  3
txt
  4

  0
ENDTAB
  0
TABLE
  2
VIEW
  5
6
330
0
100
AcDbSymbolTable
 70
     0
  0
ENDTAB
  0
TABLE
  2
UCS
  5
7
330
0
100
AcDbSymbolTable
 70
     0
  0
ENDTAB
  0
TABLE
  2
APPID
  5
9
330
0
100
AcDbSymbolTable
 70
     1
  0
APPID
  5
12
330
9
100
AcDbSymbolTableRecord
100
AcDbRegAppTableRecord
  2
ACAD
 70
     0
  0
ENDTAB
  0
TABLE
  2
DIMSTYLE
  5
A
330
0
100
AcDbSymbolTable
 70
     1
100
AcDbDimStyleTable
  0
DIMSTYLE
105
27
330
A
100
AcDbSymbolTableRecord
100
AcDbDimStyleTableRecord
  2
ISO-25
 70
     0
 41
2.5
 42
0.625
 43
3.75
 44
1.25
 73
     0
 74
     0
 77
     1
 78
     8
140
2.5
141
2.5
143
0.0393700787
147
0.625
171
     3
172
     1
178
     0
271
     2
272
     2
274
     3
278
    44
283
     0
284
     8
340
11
  0
ENDTAB
  0
TABLE
  2
BLOCK_RECORD
  5
1
330
0
100
AcDbSymbolTable
 70
     7
  0
BLOCK_RECORD
  5
1F
330
1
100
AcDbSymbolTableRecord
100
AcDbBlockTableRecord
  2
*Model_Space
340
22
  0
BLOCK_RECORD
  5
1B
330
1
100
AcDbSymbolTableRecord
100
AcDbBlockTableRecord
  2
*Paper_Space
340
1E
  0
BLOCK_RECORD
  5
6B
330
1
100
AcDbSymbolTableRecord
100
AcDbBlockTableRecord
  2
SEANNOT_GROUP
340
0
102
{BLKREFS
331
6C
102
}
  0
BLOCK_RECORD
  5
72
330
1
100
AcDbSymbolTableRecord
100
AcDbBlockTableRecord
  2
SEANNOT_GROUP1
340
0
102
{BLKREFS
331
73
102
}
  0
BLOCK_RECORD
  5
78
330
1
100
AcDbSymbolTableRecord
100
AcDbBlockTableRecord
  2
SEANNOT_GROUP2
340
0
102
{BLKREFS
331
79
102
}
  0
BLOCK_RECORD
  5
7E
330
1
100
AcDbSymbolTableRecord
100
AcDbBlockTableRecord
  2
SE
340
0
102
{BLKREFS
331
7F
102
}
  0
BLOCK_RECORD
  5
16E
330
1
100
AcDbSymbolTableRecord
100
AcDbBlockTableRecord
  2
SE1
340
0
102
{BLKREFS
331
16F
102
}
  0
BLOCK_RECORD
  5
1DD
330
1
100
AcDbSymbolTableRecord
100
AcDbBlockTableRecord
  2
SE2
340
0
102
{BLKREFS
331
1DE
102
}
  0
ENDTAB
  0
ENDSEC
  0
SECTION
  2
BLOCKS
  0
BLOCK
  5
20
330
1F
100
AcDbEntity
  8
0
100
AcDbBlockBegin
  2
*Model_Space
 70
     0
 10
0.0
 20
0.0
 30
0.0
  3
*Model_Space
  1
*Model_Space
  0
ENDBLK
  5
21
330
1F
100
AcDbEntity
  8
0
100
AcDbBlockEnd
  0
BLOCK
  5
1C
330
1B
100
AcDbEntity
 67
     1
  8
0
100
AcDbBlockBegin
  2
*Paper_Space
 70
     0
 10
0.0
 20
0.0
 30
0.0
  3
*Paper_Space
  1
*Paper_Space
  0
ENDBLK
  5
1D
330
1B
100
AcDbEntity
 67
     1
  8
0
100
AcDbBlockEnd
  0
BLOCK
  5
70
330
6B
100
AcDbEntity
  8
0
100
AcDbBlockBegin
  2
SEANNOT_GROUP
 70
     0
 10
0.0
 20
0.0
 30
0.0
  3
SEANNOT_GROUP
  1
SEANNOT_GROUP
  0
LINE
  5
6E
330
6B
100
AcDbEntity
  8
Default
  6
CENTER2
 62
     7
100
AcDbLine
 10
51.849999553
 20
309.9919970893
 30
0.0
 11
11.850000447
 21
309.9919970893
 31
0.0
  0
LINE
  5
6F
330
6B
100
AcDbEntity
  8
Default
  6
CENTER2
 62
     7
100
AcDbLine
 10
31.85
 20
329.9919966423
 30
0.0
 11
31.85
 21
289.9919975363
 31
0.0
  0
ENDBLK
  5
71
330
6B
100
AcDbEntity
  8
0
100
AcDbBlockEnd
  0
BLOCK
  5
76
330
72
100
AcDbEntity
  8
0
100
AcDbBlockBegin
  2
SEANNOT_GROUP1
 70
     0
 10
0.0
 20
0.0
 30
0.0
  3
SEANNOT_GROUP1
  1
SEANNOT_GROUP1
  0
LINE
  5
74
330
72
100
AcDbEntity
  8
Default
  6
CENTER2
 62
     7
100
AcDbLine
 10
51.849999553
 20
403.5071954883
 30
0.0
 11
11.850000447
 21
403.5071954883
 31
0.0
  0
LINE
  5
75
330
72
100
AcDbEntity
  8
Default
  6
CENTER2
 62
     7
100
AcDbLine
 10
31.85
 20
423.5071950413
 30
0.0
 11
31.85
 21
383.5071959354
 31
0.0
  0
ENDBLK
  5
77
330
72
100
AcDbEntity
  8
0
100
AcDbBlockEnd
  0
BLOCK
  5
7C
330
78
100
AcDbEntity
  8
0
100
AcDbBlockBegin
  2
SEANNOT_GROUP2
 70
     0
 10
0.0
 20
0.0
 30
0.0
  3
SEANNOT_GROUP2
  1
SEANNOT_GROUP2
  0
LINE
  5
7A
330
78
100
AcDbEntity
  8
Default
  6
CENTER2
 62
     7
100
AcDbLine
 10
241.7482847422
 20
403.5071954883
 30
0.0
 11
201.7482856362
 21
403.5071954883
 31
0.0
  0
LINE
  5
7B
330
78
100
AcDbEntity
  8
Default
  6
CENTER2
 62
     7
100
AcDbLine
 10
221.7482851892
 20
423.5071950413
 30
0.0
 11
221.7482851892
 21
383.5071959354
 31
0.0
  0
ENDBLK
  5
7D
330
78
100
AcDbEntity
  8
0
100
AcDbBlockEnd
  0
BLOCK
  5
16C
330
7E
100
AcDbEntity
  8
0
100
AcDbBlockBegin
  2
SE
 70
     0
 10
0.0
 20
0.0
 30
0.0
  3
SE
  1
SE
  0
LINE
  5
81
330
7E
100
AcDbEntity
  8
DV1_Default
  6
Continuous
 62
     7
100
AcDbLine
 10
57.35
 20
513.5071954883
 30
0.0
 11
6.35
 21
513.5071954883
 31
0.0
  0
LINE
  5
82
330
7E
100
AcDbEntity
  8
DV1_Default
  6
Continuous
 62
     7
100
AcDbLine
 10
57.35
 20
403.5071954883
 30
0.0
 11
6.35
 21
403.5071954883
 31
0.0
  0
SPLINE
  5
83
330
7E
100
AcDbEntity
  8
DV1_Default
  6
Continuous
 62
     7
100
AcDbSpline
210
0.0
220
0.0
230
1.0
 70
     8
 71
     3
 72
    42
 73
    38
 74
     0
 42
0.000000001
 43
0.0000000001
 40
0.0
 40
0.0
 40
0.0
 40
0.0
 40
0.0239305546593492
 40
0.0239305546593492
 40
0.1490152674367785
 40
0.1490152674367785
 40
0.211557623825493
 40
0.211557623825493
 40
0.2740999802142078
 40
0.2740999802142078
 40
0.3366423366029223
 40
0.3366423366029223
 40
0.3991846929916371
 40
0.3991846929916371
 40
0.4617270493803516
 40
0.4617270493803516
 40
0.4929982275747088
 40
0.4929982275747088
 40
0.5242694057690659
 40
0.5242694057690659
 40
0.5555405839634233
 40
0.5555405839634233
 40
0.5868117621577804
 40
0.5868117621577804
 40
0.6493541185464944
 40
0.6493541185464944
 40
0.7118964749352085
 40
0.7118964749352085
 40
0.7744388313239223
 40
0.7744388313239223
 40
0.8369811877126364
 40
0.8369811877126364
 40
0.8995235441013503
 40
0.8995235441013503
 40
0.9620659004900644
 40
0.9620659004900644
 40
1.0
 40
1.0
 40
1.0
 40
1.0
 10
57.35029883782756
 20
488.7575653391077
 30
0.0
 10
57.35022334089708
 20
488.7574719021055
 30
0.0
 10
57.32473710843389
 20
488.7300775506031
 30
0.0
 10
57.00620673737539
 20
488.3879191062096
 30
0.0
 10
56.02402266386561
 20
487.3361013035957
 30
0.0
 10
53.94024436002119
 20
485.0543258733618
 30
0.0
 10
53.13756397903664
 20
484.1686600378604
 30
0.0
 10
51.43325904835817
 20
482.2555397125262
 30
0.0
 10
50.52465526612681
 20
481.2211799995359
 30
0.0
 10
48.63284551637624
 20
479.0005670637373
 30
0.0
 10
47.64860282969625
 20
477.8138308625567
 30
0.0
 10
45.71580776494915
 20
475.3355391702734
 30
0.0
 10
44.75641808875452
 20
474.0381850182177
 30
0.0
 10
42.97784709390597
 20
471.2371332851671
 30
0.0
 10
42.15146979590622
 20
469.7383746396204
 30
0.0
 10
41.37194241722297
 20
467.263898049227
 30
0.0
 10
41.20060376825943
 20
466.418082764088
 30
0.0
 10
41.09900210028478
 20
464.6896235674743
 30
0.0
 10
41.1740546127528
 20
463.813405357417
 30
0.0
 10
41.53408050128815
 20
462.1316858621184
 30
0.0
 10
41.81912073161181
 20
461.3074981074888
 30
0.0
 10
42.49577143594536
 20
459.7501200642293
 30
0.0
 10
42.88877400386847
 20
459.0064844278226
 30
0.0
 10
44.15819942273611
 20
456.8420084161752
 30
0.0
 10
45.11435051824985
 20
455.4973629262054
 30
0.0
 10
47.03041655696776
 20
452.9681354115791
 30
0.0
 10
48.00291489631009
 20
451.7742438752342
 30
0.0
 10
49.91613242645328
 20
449.4965704333181
 30
0.0
 10
50.85735072200342
 20
448.4148587344723
 30
0.0
 10
52.60860773555674
 20
446.4344721392135
 30
0.0
 10
53.42750760919738
 20
445.5260275110207
 30
0.0
 10
54.90740473634708
 20
443.8986430909999
 30
0.0
 10
55.54907074716961
 20
443.2011529896391
 30
0.0
 10
56.57129238970091
 20
442.0943206666844
 30
0.0
 10
56.95259115278496
 20
441.6842618455899
 30
0.0
 10
57.28488246501498
 20
441.3270731733984
 30
0.0
 10
57.34912997631282
 20
441.2580624681344
 30
0.0
 10
57.34935911550682
 20
441.2578339697893
 30
0.0
  0
LINE
  5
84
330
7E
100
AcDbEntity
  8
DV1_Default
  6
Continuous
 62
     7
100
AcDbLine
 10
6.35
 20
513.5071954883
 30
0.0
 11
6.35
 21
403.5071954883
 31
0.0
  0
LINE
  5
85
330
7E
100
AcDbEntity
  8
DV1_Default
  6
Continuous
 62
     7
100
AcDbLine
 10
57.35
 20
488.7425569046
 30
0.0
 11
57.35
 21
513.5071954883
 31
0.0
  0
LINE
  5
86
330
7E
100
AcDbEntity
  8
DV1_Default
  6
Continuous
 62
     7
100
AcDbLine
 10
57.35
 20
403.5071954883
 30
0.0
 11
57.35
 21
441.2733232055
 31
0.0
  0
LINE
  5
87
330
7E
100
AcDbEntity
  8
DV1_Default
  6
Continuous
 62
     7
100
AcDbLine
 10
57.3349752341
 20
441.2571954883
 30
0.0
 11
85.5
 21
441.2571954883
 31
0.0
  0
LINE
  5
88
330
7E
100
AcDbEntity
  8
DV1_Default
  6
Continuous
 62
     7
100
AcDbLine
 10
85.5
 20
488.7571954883
 30
0.0
 11
57.336362094
 21
488.7571954883
 31
0.0
  0
ARC
  5
89
330
7E
100
AcDbEntity
  8
DV1_Default
  6
Continuous
 62
     7
100
AcDbCircle
 10
85.5
 20
451.2571954883
 30
0.0
 40
9.999999999999995
100
AcDbArc
 50
270.0
 51
295.7852938783
  0
ARC
  5
8A
330
7E
100
AcDbEntity
  8
DV1_Default
  6
Continuous
 62
     7
100
AcDbCircle
 10
85.5
 20
478.7571954883
 30
0.0
 40
10.0
100
AcDbArc
 50
64.2147061217
 51
90.0
  0
ELLIPSE
  5
8B
330
7E
100
AcDbEntity
  8
DV1_Default
  6
Continuous
 62
     7
100
AcDbEllipse
 10
115.250691316
 20
536.7605250879
 30
0.0
 11
-5.000000000000004
 21
0.0
 31
0.0
210
0.0
220
0.0
230
1.0
 40
0.5299192642
 41
0.0
 42
6.283185307179586
  0
SPLINE
  5
8C
330
7E
100
AcDbEntity
  8
DV1_Default
  6
Continuous
 62
     7
100
AcDbSpline
210
0.0
220
0.0
230
1.0
 70
     8
 71
     3
 72
    12
 73
     8
 74
     0
 42
0.000000001
 43
0.0000000001
 40
0.0
 40
0.0
 40
0.0
 40
0.0
 40
0.2856949014911653
 40
0.2856949014911653
 40
0.6428474507455829
 40
0.6428474507455829
 40
1.0
 40
1.0
 40
1.0
 40
1.0
 10
125.7276670601396
 20
489.5506654460045
 30
0.0
 10
125.9030837512524
 20
489.5479142079229
 30
0.0
 10
126.0558388043701
 20
489.4438413935129
 30
0.0
 10
126.3482057859723
 20
488.9769810804023
 30
0.0
 10
126.4743948851963
 20
488.5505275390318
 30
0.0
 10
126.6400687990689
 20
487.4061256821503
 30
0.0
 10
126.6829655069235
 20
486.6856164536565
 30
0.0
 10
126.6826506110028
 20
485.8101392409204
 30
0.0
  0
SPLINE
  5
8D
330
7E
100
AcDbEntity
  8
DV1_Default
  6
Continuous
 62
     7
100
AcDbSpline
210
0.0
220
0.0
230
1.0
 70
     8
 71
     3
 72
    32
 73
    28
 74
     0
 42
0.000000001
 43
0.0000000001
 40
0.0
 40
0.0
 40
0.0
 40
0.0
 40
0.0758286642251102
 40
0.0758286642251102
 40
0.1516573284502203
 40
0.1516573284502203
 40
0.2274859926753305
 40
0.2274859926753305
 40
0.3033146569004406
 40
0.3033146569004406
 40
0.3791433211255508
 40
0.3791433211255508
 40
0.454971985350661
 40
0.454971985350661
 40
0.5308006495757711
 40
0.5308006495757711
 40
0.6066293138008813
 40
0.6066293138008813
 40
0.7582866422511015
 40
0.7582866422511015
 40
0.8341153064762117
 40
0.8341153064762117
 40
0.9099439707013219
 40
0.9099439707013219
 40
0.9857726349264321
 40
0.9857726349264321
 40
1.0
 40
1.0
 40
1.0
 40
1.0
 10
126.6826506110028
 20
485.8101392409204
 30
0.0
 10
126.6829055398442
 20
484.9476009655888
 30
0.0
 10
126.641248280381
 20
483.9539090079014
 30
0.0
 10
126.4745628255177
 20
481.6957451456122
 30
0.0
 10
126.3487733287318
 20
480.4543919771723
 30
0.0
 10
126.028134684465
 20
477.8050461067361
 30
0.0
 10
125.8263568124335
 20
476.3771933419411
 30
0.0
 10
125.358630825533
 20
473.4039146872894
 30
0.0
 10
125.0945448738275
 20
471.8755709283394
 30
0.0
 10
124.5068666642185
 20
468.7386381766289
 30
0.0
 10
124.1816544304685
 20
467.1182665898241
 30
0.0
 10
123.4995944130038
 20
463.9265228156353
 30
0.0
 10
123.1403978229719
 20
462.3404914520213
 30
0.0
 10
122.385864097425
 20
459.1881280658176
 30
0.0
 10
121.994795488394
 20
457.6421871810694
 30
0.0
 10
121.2073803525817
 20
454.6917151839208
 30
0.0
 10
120.8077579824524
 20
453.2737809768086
 30
0.0
 10
119.5906196778756
 20
449.1995155172906
 30
0.0
 10
118.7853852195361
 20
446.8324040335566
 30
0.0
 10
117.676085575544
 20
444.0500173105507
 30
0.0
 10
117.3166095213749
 20
443.235644466116
 30
0.0
 10
116.6411237260732
 20
441.8963187586137
 30
0.0
 10
116.3307074635274
 20
441.3759561864966
 30
0.0
 10
115.7559497078229
 20
440.6285966018933
 30
0.0
 10
115.4917837315747
 20
440.4040568655852
 30
0.0
 10
115.2225498876963
 20
440.3325980260403
 30
0.0
 10
115.1812037599474
 20
440.3268679351118
 30
0.0
 10
115.1410466294918
 20
440.3267186352584
 30
0.0
  0
SPLINE
  5
8E
330
7E
100
AcDbEntity
  8
DV1_Default
  6
Continuous
 62
     7
100
AcDbSpline
210
0.0
220
0.0
230
1.0
 70
     8
 71
     3
 72
    10
 73
     6
 74
     0
 42
0.000000001
 43
0.0000000001
 40
0.0
 40
0.0
 40
0.0
 40
0.0
 40
0.9277926647944553
 40
0.9277926647944553
 40
1.0
 40
1.0
 40
1.0
 40
1.0
 10
127.9721129447937
 20
484.5340168361421
 30
0.0
 10
127.9721947186344
 20
486.1792056414482
 30
0.0
 10
127.81042224788
 20
487.2700211720593
 30
0.0
 10
127.4860680422234
 20
487.78729404873
 30
0.0
 10
127.4617375245444
 20
487.8210325837965
 30
0.0
 10
127.4365270088991
 20
487.8511460346637
 30
0.0
  0
SPLINE
  5
8F
330
7E
100
AcDbEntity
  8
DV1_Default
  6
Continuous
 62
     7
100
AcDbSpline
210
0.0
220
0.0
230
1.0
 70
     8
 71
     3
 72
    28
 73
    24
 74
     0
 42
0.000000001
 43
0.0000000001
 40
0.0
 40
0.0
 40
0.0
 40
0.0
 40
0.1585775945689686
 40
0.1585775945689686
 40
0.2378663918534529
 40
0.2378663918534529
 40
0.3171551891379373
 40
0.3171551891379373
 40
0.3964439864224217
 40
0.3964439864224217
 40
0.475732783706906
 40
0.475732783706906
 40
0.6343103782758746
 40
0.6343103782758746
 40
0.7135991755603589
 40
0.7135991755603589
 40
0.7928879728448432
 40
0.7928879728448432
 40
0.8721767701293275
 40
0.8721767701293275
 40
0.9514655674138117
 40
0.9514655674138117
 40
1.0
 40
1.0
 40
1.0
 40
1.0
 10
127.9721129447937
 20
484.5340168361421
 30
0.0
 10
127.9721947469653
 20
482.8897772380853
 30
0.0
 10
127.8104333242534
 20
480.7183911822568
 30
0.0
 10
127.3590372791844
 20
476.978989413457
 30
0.0
 10
127.1710214920675
 20
475.6300182311948
 30
0.0
 10
126.7356759908859
 20
472.8399938717324
 30
0.0
 10
126.4896745667268
 20
471.4034956578487
 30
0.0
 10
125.9422552714543
 20
468.4492963175899
 30
0.0
 10
125.6397350002937
 20
466.9288428094113
 30
0.0
 10
125.0044942895968
 20
463.9333274713841
 30
0.0
 10
124.6689231358037
 20
462.4421891356617
 30
0.0
 10
123.6073633593817
 20
457.9889648069537
 30
0.0
 10
122.858645573647
 20
455.181441937531
 30
0.0
 10
121.7208762290183
 20
451.3797424299947
 30
0.0
 10
121.3462279427277
 20
450.204425988653
 30
0.0
 10
120.606108611424
 20
448.0337486031382
 30
0.0
 10
120.2369627294738
 20
447.0300516589941
 30
0.0
 10
119.5339566057668
 20
445.2796507188802
 30
0.0
 10
119.1986920406713
 20
444.5270159963517
 30
0.0
 10
118.5609942543211
 20
443.2696629999642
 30
0.0
 10
118.2575524748515
 20
442.7660293716993
 30
0.0
 10
117.817419984616
 20
442.1977242653859
 30
0.0
 10
117.6603152710014
 20
442.0354117297089
 30
0.0
 10
117.5134627802139
 20
441.9278848937292
 30
0.0
  0
LINE
  5
90
330
7E
100
AcDbEntity
  8
DV1_Default
  6
Continuous
 62
     7
100
AcDbLine
 10
89.9183276993
 20
489.854845388
 30
0.0
 11
89.9183276993
 21
486.0798209167
 31
0.0
  0
LINE
  5
91
330
7E
100
AcDbEntity
  8
DV1_Default
  6
Continuous
 62
     7
100
AcDbLine
 10
89.9183276993
 20
440.1558606531
 30
0.0
 11
89.9183276993
 21
486.0798209167
 31
0.0
  0
LINE
  5
92
330
7E
100
AcDbEntity
  8
DV1_Default
  6
Continuous
 62
     7
100
AcDbLine
 10
120.250691316
 20
489.4989784401
 30
0.0
 11
120.250691316
 21
536.7605250879
 31
0.0
  0
LINE
  5
93
330
7E
100
AcDbEntity
  8
DV1_Default
  6
Continuous
 62
     7
100
AcDbLine
 10
110.250691316
 20
536.7605250879
 30
0.0
 11
110.250691316
 21
489.4967386092
 31
0.0
  0
ARC
  5
94
330
7E
100
AcDbEntity
  8
DV1_Default
  6
Continuous
 62
     7
100
AcDbCircle
 10
115.0601994881
 20
1339.9720218487
 30
0.0
 40
850.4888822142559
100
AcDbArc
 50
270.3496754957
 51
270.7183971992
  0
ARC
  5
95
330
7E
100
AcDbEntity
  8
DV1_Default
  6
Continuous
 62
     7
100
AcDbCircle
 10
115.0601994881
 20
1339.9720218487
 30
0.0
 40
850.4888822142559
100
AcDbArc
 50
268.3059942751
 51
269.6759910749
  0
ARC
  5
96
330
7E
100
AcDbEntity
  8
DV1_Default
  6
Continuous
 62
     7
100
AcDbCircle
 10
134.3324498577
 20
-4345.2638285059
 30
0.0
 40
4785.629184009105
100
AcDbArc
 50
90.2297160096
 51
90.5317541716
  0
SPLINE
  5
97
330
7E
100
AcDbEntity
  8
DV1_Default
  6
Continuous
 62
     7
100
AcDbSpline
210
0.0
220
0.0
230
1.0
 70
     8
 71
     3
 72
     8
 73
     4
 74
     0
 42
0.000000001
 43
0.0000000001
 40
0.0
 40
0.0
 40
0.0
 40
0.0
 40
1.0
 40
1.0
 40
1.0
 40
1.0
 10
127.4445356192475
 20
487.8422990192619
 30
0.0
 10
126.9959791342714
 20
488.3464291023171
 30
0.0
 10
126.547278028172
 20
488.8508721421116
 30
0.0
 10
126.0984323009496
 20
489.3556281386454
 30
0.0
  0
SPLINE
  5
98
330
7E
100
AcDbEntity
  8
DV1_Default
  6
Continuous
 62
     7
100
AcDbSpline
210
0.0
220
0.0
230
1.0
 70
     8
 71
     3
 72
     8
 73
     4
 74
     0
 42
0.000000001
 43
0.0000000001
 40
0.0
 40
0.0
 40
0.0
 40
0.0
 40
1.0
 40
1.0
 40
1.0
 40
1.0
 10
115.5349694500777
 20
440.4794014136817
 30
0.0
 10
116.1989430077592
 20
440.9660487856183
 30
0.0
 10
116.862332050357
 20
441.451816854927
 30
0.0
 10
117.5251365778711
 20
441.9367056216079
 30
0.0
  0
ELLIPSE
  5
99
330
7E
100
AcDbEntity
  8
DV1_Default
  6
Continuous
 62
     7
100
AcDbEllipse
 10
31.85
 20
643.1176406301
 30
0.0
 11
-14.00000000000014
 21
2.775557561562891E-14
 31
0.0
210
0.0
220
0.0
230
1.0
 40
0.1736481777
 41
0.0000000000000114
 42
0.0405202443585967
  0
ELLIPSE
  5
9A
330
7E
100
AcDbEntity
  8
DV1_Default
  6
Continuous
 62
     7
100
AcDbEllipse
 10
31.85
 20
643.1176406301
 30
0.0
 11
-14.00000000000014
 21
2.775557561562891E-14
 31
0.0
210
0.0
220
0.0
230
1.0
 40
0.1736481777
 41
3.101072409231465
 42
6.283185307179586
  0
LINE
  5
9B
330
7E
100
AcDbEntity
  8
DV1_Default
  6
Continuous
 62
     7
100
AcDbLine
 10
45.85
 20
513.5071956752
 30
0.0
 11
45.85
 21
573.9352942299
 31
0.0
  0
LINE
  5
9C
330
7E
100
AcDbEntity
  8
DV1_Default
  6
Continuous
 62
     7
100
AcDbLine
 10
45.85
 20
642.9585531972
 30
0.0
 11
45.85
 21
643.0652896326
 31
0.0
  0
LINE
  5
9D
330
7E
100
AcDbEntity
  8
DV1_Default
  6
Continuous
 62
     7
100
AcDbLine
 10
17.85
 20
643.0652896326
 30
0.0
 11
17.85
 21
642.9695292571
 31
0.0
  0
LINE
  5
9E
330
7E
100
AcDbEntity
  8
DV1_Default
  6
Continuous
 62
     7
100
AcDbLine
 10
17.85
 20
573.9352942299
 30
0.0
 11
17.85
 21
513.5071956752
 31
0.0
  0
LINE
  5
9F
330
7E
100
AcDbEntity
  8
DV1_Default
  6
Continuous
 62
     7
100
AcDbLine
 10
45.85
 20
665.7670389255
 30
0.0
 11
45.85
 21
737.7442613349
 31
0.0
  0
LINE
  5
A0
330
7E
100
AcDbEntity
  8
DV1_Default
  6
Continuous
 62
     7
100
AcDbLine
 10
17.85
 20
737.7442613349
 30
0.0
 11
17.85
 21
665.7670389255
 31
0.0
  0
ARC
  5
A1
330
7E
100
AcDbEntity
  8
DV1_Default
  6
Continuous
 62
     7
100
AcDbCircle
 10
31.85
 20
738.0781567106
 30
0.0
 40
14.00398108117541
100
AcDbArc
 50
358.6337735841
 51
181.3662264159
  0
LINE
  5
A2
330
7E
100
AcDbEntity
  8
DV1_Default
  6
Continuous
 62
     7
100
AcDbLine
 10
17.85
 20
665.7670389255
 30
0.0
 11
17.85
 21
643.1176406301
 31
0.0
  0
LINE
  5
A3
330
7E
100
AcDbEntity
  8
DV1_Default
  6
Continuous
 62
     7
100
AcDbLine
 10
45.85
 20
643.1176406301
 30
0.0
 11
45.85
 21
665.7670389255
 31
0.0
  0
ELLIPSE
  5
A4
330
7E
100
AcDbEntity
  8
DV1_Default
  6
Continuous
 62
     7
100
AcDbEllipse
 10
31.85
 20
573.9841363687
 30
0.0
 11
14.0
 21
0.0
 31
0.0
210
0.0
220
0.0
230
1.0
 40
0.1736481777
 41
0.0
 42
3.836919206263716
  0
ELLIPSE
  5
A5
330
7E
100
AcDbEntity
  8
DV1_Default
  6
Continuous
 62
     7
100
AcDbEllipse
 10
31.85
 20
573.9841363687
 30
0.0
 11
14.0
 21
0.0
 31
0.0
210
0.0
220
0.0
230
1.0
 40
0.1736481777
 41
5.583769577396431
 42
6.283185307179586
  0
ELLIPSE
  5
A6
330
7E
100
AcDbEntity
  8
DV1_Default
  6
Continuous
 62
     7
100
AcDbEllipse
 10
31.85
 20
642.9206790795
 30
0.0
 11
-14.0
 21
0.0
 31
0.0
210
0.0
220
0.0
230
1.0
 40
0.1736481777
 41
3.141592653589793
 42
6.283185307179586
  0
LINE
  5
A7
330
7E
100
AcDbEntity
  8
DV1_Default
  6
Continuous
 62
     7
100
AcDbLine
 10
39.15
 20
608.3602542124
 30
0.0
 11
39.15
 21
625.889832216
 31
0.0
  0
SPLINE
  5
A8
330
7E
100
AcDbEntity
  8
DV1_Default
  6
Continuous
 62
     7
100
AcDbSpline
210
0.0
220
0.0
230
1.0
 70
     8
 71
     3
 72
    18
 73
    14
 74
     0
 42
0.000000001
 43
0.0000000001
 40
0.0
 40
0.0
 40
0.0
 40
0.0
 40
0.2499999999999997
 40
0.2499999999999997
 40
0.3749999999999997
 40
0.3749999999999997
 40
0.4999999999999998
 40
0.4999999999999998
 40
0.6249999999999998
 40
0.6249999999999998
 40
0.7499999999999999
 40
0.7499999999999999
 40
1.0
 40
1.0
 40
1.0
 40
1.0
 10
24.5499999999999
 20
608.36025421241
 30
0.0
 10
24.5499999999999
 20
606.4216151778825
 30
0.0
 10
25.36317897123062
 20
604.6782020359744
 30
0.0
 10
27.34291774584983
 20
602.861186194378
 30
0.0
 10
28.13987064929702
 20
602.3732923715813
 30
0.0
 10
29.89313852083272
 20
601.7090052001025
 30
0.0
 10
30.86372562095829
 20
601.5292136964383
 30
0.0
 10
32.81287565886198
 20
601.526420186627
 30
0.0
 10
33.78650074808881
 20
601.7028446717763
 30
0.0
 10
35.55856196019365
 20
602.3711637767124
 30
0.0
 10
36.35384895240075
 20
602.8587826567464
 30
0.0
 10
38.33632313267096
 20
604.6766200202572
 30
0.0
 10
39.14999999999991
 20
606.4200799985026
 30
0.0
 10
39.1499999999999
 20
608.36025421241
 30
0.0
  0
LINE
  5
A9
330
7E
100
AcDbEntity
  8
DV1_Default
  6
Continuous
 62
     7
100
AcDbLine
 10
24.55
 20
625.889832216
 30
0.0
 11
24.55
 21
608.3602542124
 31
0.0
  0
SPLINE
  5
AA
330
7E
100
AcDbEntity
  8
DV1_Default
  6
Continuous
 62
     7
100
AcDbSpline
210
0.0
220
0.0
230
1.0
 70
     8
 71
     3
 72
    18
 73
    14
 74
     0
 42
0.000000001
 43
0.0000000001
 40
0.0
 40
0.0
 40
0.0
 40
0.0
 40
0.25
 40
0.25
 40
0.375
 40
0.375
 40
0.5
 40
0.5
 40
0.625
 40
0.625
 40
0.75
 40
0.75
 40
1.0
 40
1.0
 40
1.0
 40
1.0
 10
39.14999999999991
 20
625.8898322160272
 30
0.0
 10
39.14999999999991
 20
627.8284712505547
 30
0.0
 10
38.33682102876918
 20
629.7599023407188
 30
0.0
 10
36.35708225414997
 20
631.8499510437546
 30
0.0
 10
35.56012935070277
 20
632.4265502930319
 30
0.0
 10
33.80686147916706
 20
633.2166793560446
 30
0.0
 10
32.83627437904149
 20
633.4338900732679
 30
0.0
 10
30.88712434113781
 20
633.4372492746668
 30
0.0
 10
29.91349925191098
 20
633.2240431750654
 30
0.0
 10
28.14143803980614
 20
632.4290463271584
 30
0.0
 10
27.34615104759904
 20
631.8527530151076
 30
0.0
 10
25.36367686732885
 20
629.7616477382824
 30
0.0
 10
24.5499999999999
 20
627.8300064299347
 30
0.0
 10
24.5499999999999
 20
625.8898322160272
 30
0.0
  0
ELLIPSE
  5
AB
330
7E
100
AcDbEntity
  8
DV1_Default
  6
Continuous
 62
     7
100
AcDbEllipse
 10
31.85
 20
624.8572977371
 30
0.0
 11
7.299999999999989
 21
-1.026956297778270E-12
 31
0.0
210
0.0
220
0.0
230
1.0
 40
0.984807753
 41
0.0
 42
3.141592653589793
  0
LINE
  5
AC
330
7E
100
AcDbEntity
  8
DV1_Default
  6
Continuous
 62
     7
100
AcDbLine
 10
45.85
 20
573.9841363687
 30
0.0
 11
45.85
 21
642.9206790795
 31
0.0
  0
LINE
  5
AD
330
7E
100
AcDbEntity
  8
DV1_Default
  6
Continuous
 62
     7
100
AcDbLine
 10
17.85
 20
642.9206790795
 30
0.0
 11
17.85
 21
573.9841363687
 31
0.0
  0
SPLINE
  5
AE
330
7E
100
AcDbEntity
  8
DV1_Default
  6
Continuous
 62
     7
100
AcDbSpline
210
0.0
220
0.0
230
1.0
 70
     8
 71
     3
 72
    22
 73
    18
 74
     0
 42
0.000000001
 43
0.0000000001
 40
0.0
 40
0.0
 40
0.0
 40
0.0
 40
0.0327861721226083
 40
0.0669250573034939
 40
0.1025751802328153
 40
0.1627245817309615
 40
0.225252912733863
 40
0.300520710097606
 40
0.375076937933441
 40
0.4546204120826377
 40
0.5306018422759291
 40
0.6562517183638565
 40
0.7773226645155621
 40
0.828351390859997
 40
0.8794408027722004
 40
0.9400424408431926
 40
1.0
 40
1.0
 40
1.0
 40
1.0
 10
42.69380489604996
 20
572.629690196746
 30
0.0
 10
42.68162207348181
 20
572.611778098127
 30
0.0
 10
42.65675378158584
 20
572.5752148719596
 30
0.0
 10
42.60984612031808
 20
572.5142857299174
 30
0.0
 10
42.54264345921482
 20
572.4345300340483
 30
0.0
 10
42.44742205344884
 20
572.3347659939648
 30
0.0
 10
42.30895590600613
 20
572.2115083526908
 30
0.0
 10
42.13836852004551
 20
572.0863409876825
 30
0.0
 10
41.92985941307901
 20
571.9662320000352
 30
0.0
 10
41.69857868585346
 20
571.8682351437795
 30
0.0
 10
41.39489614032854
 20
571.785347824209
 30
0.0
 10
41.02630160838284
 20
571.7570450331175
 30
0.0
 10
40.70231323494647
 20
571.8173263818276
 30
0.0
 10
40.48443232574778
 20
571.8992796567084
 30
0.0
 10
40.33754955139092
 20
571.9726736131819
 30
0.0
 10
40.19611935760569
 20
572.0624696865318
 30
0.0
 10
40.11218104527375
 20
572.1332440514808
 30
0.0
 10
40.07043610633196
 20
572.1684421804567
 30
0.0
  0
SPLINE
  5
AF
330
7E
100
AcDbEntity
  8
DV1_Default
  6
Continuous
 62
     7
100
AcDbSpline
210
0.0
220
0.0
230
1.0
 70
     8
 71
     3
 72
    19
 73
    15
 74
     0
 42
0.000000001
 43
0.0000000001
 40
0.0
 40
0.0
 40
0.0
 40
0.0
 40
0.0444218133271851
 40
0.0886928176420328
 40
0.1329846734210257
 40
0.177473233834941
 40
0.2223378566156244
 40
0.3696110185926307
 40
0.5197561490657023
 40
0.6885295934209885
 40
0.7800988589277618
 40
0.875027714430633
 40
0.9662758141940255
 40
1.0
 40
1.0
 40
1.0
 40
1.0
 10
39.93312375298896
 20
572.0178968374253
 30
0.0
 10
39.96487284542342
 20
572.0046807279016
 30
0.0
 10
40.02826324429921
 20
571.9782933766406
 30
0.0
 10
40.12905416022527
 20
571.9395634042908
 30
0.0
 10
40.23391563892518
 20
571.9024349603325
 30
0.0
 10
40.34343299167472
 20
571.8676002899778
 30
0.0
 10
40.54349663171478
 20
571.811760332986
 30
0.0
 10
40.85210684195262
 20
571.7530493833734
 30
0.0
 10
41.27474603145184
 20
571.7388793041554
 30
0.0
 10
41.60834362806624
 20
571.7889808049277
 30
0.0
 10
41.84614577068362
 20
571.8623084373032
 30
0.0
 10
42.00300327014035
 20
571.931530866101
 30
0.0
 10
42.10254211591304
 20
571.9913700515845
 30
0.0
 10
42.14929086901456
 20
572.0254157467963
 30
0.0
 10
42.16118556902644
 20
572.0345546228275
 30
0.0
  0
SPLINE
  5
B0
330
7E
100
AcDbEntity
  8
DV1_Default
  6
Continuous
 62
     7
100
AcDbSpline
210
0.0
220
0.0
230
1.0
 70
     8
 71
     3
 72
    19
 73
    15
 74
     0
 42
0.000000001
 43
0.0000000001
 40
0.0
 40
0.0
 40
0.0
 40
0.0
 40
0.0421558588009308
 40
0.1136883488295144
 40
0.1997948045394198
 40
0.2850872238209001
 40
0.3760850592029489
 40
0.4630079117866081
 40
0.6067515295216714
 40
0.74525684557686
 40
0.8036337732900578
 40
0.8620801253547011
 40
0.9314084762230582
 40
1.0
 40
1.0
 40
1.0
 40
1.0
 10
41.74905627865384
 20
571.8402324869594
 30
0.0
 10
41.71904584019013
 20
571.8185971439167
 30
0.0
 10
41.63597350441473
 20
571.7600977779828
 30
0.0
 10
41.48068876943568
 20
571.6589794513314
 30
0.0
 10
41.27753985901929
 20
571.5440910190059
 30
0.0
 10
41.04383214946795
 20
571.4361443953912
 30
0.0
 10
40.79810515487141
 20
571.3512667633266
 30
0.0
 10
40.49201995767722
 20
571.2851499892967
 30
0.0
 10
40.14425536209665
 20
571.2765493446661
 30
0.0
 10
39.86572287089744
 20
571.3534019268094
 30
0.0
 10
39.69172795086146
 20
571.4461330290166
 30
0.0
 10
39.58072064519327
 20
571.5266197800555
 30
0.0
 10
39.48060799649787
 20
571.6230590471229
 30
0.0
 10
39.42882705237852
 20
571.6975661217763
 30
0.0
 10
39.40307489831897
 20
571.7346206347374
 30
0.0
  0
SPLINE
  5
B1
330
7E
100
AcDbEntity
  8
DV1_Default
  6
Continuous
 62
     7
100
AcDbSpline
210
0.0
220
0.0
230
1.0
 70
     8
 71
     3
 72
    16
 73
    12
 74
     0
 42
0.000000001
 43
0.0000000001
 40
0.0
 40
0.0
 40
0.0
 40
0.0
 40
0.0623370451336286
 40
0.1244621816764408
 40
0.1866164058338578
 40
0.2490466056589742
 40
0.3120045946740179
 40
0.5186229658779692
 40
0.7292738533823324
 40
0.9660416662802978
 40
1.0
 40
1.0
 40
1.0
 40
1.0
 10
39.00457892836197
 20
571.598811718808
 30
0.0
 10
39.0404703081038
 20
571.5837320371791
 30
0.0
 10
39.11213105840827
 20
571.5536239358006
 30
0.0
 10
39.22239810348362
 20
571.5090801979636
 30
0.0
 10
39.33446531742425
 20
571.465977658719
 30
0.0
 10
39.44865617476104
 20
571.424983992199
 30
0.0
 10
39.65248004028651
 20
571.3580372474112
 30
0.0
 10
39.95214077209501
 20
571.2826091999079
 30
0.0
 10
40.32919567682265
 20
571.2464680958533
 30
0.0
 10
40.55196329583131
 20
571.2745641454566
 30
0.0
 10
40.65172179888317
 20
571.3036921037216
 30
0.0
 10
40.66383633748529
 20
571.307540792809
 30
0.0
  0
SPLINE
  5
B2
330
7E
100
AcDbEntity
  8
DV1_Default
  6
Continuous
 62
     7
100
AcDbSpline
210
0.0
220
0.0
230
1.0
 70
     8
 71
     3
 72
    13
 73
     9
 74
     0
 42
0.000000001
 43
0.0000000001
 40
0.0
 40
0.0
 40
0.0
 40
0.0
 40
0.2085374805361322
 40
0.4872970298593132
 40
0.6047880152106583
 40
0.7224187259037999
 40
0.8619508420241617
 40
1.0
 40
1.0
 40
1.0
 40
1.0
 10
38.69550447676974
 20
570.8658565787766
 30
0.0
 10
38.61164407875572
 20
570.8633376254894
 30
0.0
 10
38.42606295941029
 20
570.8775249296173
 30
0.0
 10
38.2444977034373
 20
570.9570751887854
 30
0.0
 10
38.13142060761897
 20
571.0577016812824
 30
0.0
 10
38.06715493915249
 20
571.1430089946244
 30
0.0
 10
38.01815955911883
 20
571.243549205071
 30
0.0
 10
38.0036046628
 20
571.3198807255832
 30
0.0
 10
37.99636609388798
 20
571.3578425879892
 30
0.0
  0
SPLINE
  5
B3
330
7E
100
AcDbEntity
  8
DV1_Default
  6
Continuous
 62
     7
100
AcDbSpline
210
0.0
220
0.0
230
1.0
 70
     8
 71
     3
 72
    12
 73
     8
 74
     0
 42
0.000000001
 43
0.0000000001
 40
0.0
 40
0.0
 40
0.0
 40
0.0
 40
0.1916955156302778
 40
0.3847157048930069
 40
0.6447098104386545
 40
0.9485083901709931
 40
1.0
 40
1.0
 40
1.0
 40
1.0
 10
37.37569406929998
 20
571.2500640221147
 30
0.0
 10
37.47375168272843
 20
571.2041048120138
 30
0.0
 10
37.67054451716839
 20
571.1118687998569
 30
0.0
 10
37.99250992165037
 20
570.9732720623688
 30
0.0
 10
38.3451448624475
 20
570.8579204224894
 30
0.0
 10
38.56571721542893
 20
570.8345684346245
 30
0.0
 10
38.65739120957933
 20
570.8453636242642
 30
0.0
 10
38.66992872987454
 20
570.8474040968058
 30
0.0
  0
SPLINE
  5
B4
330
7E
100
AcDbEntity
  8
DV1_Default
  6
Continuous
 62
     7
100
AcDbSpline
210
0.0
220
0.0
230
1.0
 70
     8
 71
     3
 72
    14
 73
    10
 74
     0
 42
0.000000001
 43
0.0000000001
 40
0.0
 40
0.0
 40
0.0
 40
0.0
 40
0.0460121375733925
 40
0.3013784076399194
 40
0.547438625837096
 40
0.6511475662454613
 40
0.7549798418125896
 40
0.8781444222532391
 40
1.0
 40
1.0
 40
1.0
 40
1.0
 10
36.41472516658795
 20
570.5626225257023
 30
0.0
 10
36.39724364524974
 20
570.5604173679802
 30
0.0
 10
36.2850255327641
 20
570.5491423900625
 30
0.0
 10
36.11027956908612
 20
570.5682009761891
 30
0.0
 10
35.99733454768007
 20
570.6671413902465
 30
0.0
 10
35.95624405007317
 20
570.7720079801857
 30
0.0
 10
35.94501079019913
 20
570.8593917533435
 30
0.0
 10
35.95192868799409
 20
570.9610892279163
 30
0.0
 10
35.97602457414016
 20
571.0371583409678
 30
0.0
 10
35.98800815193798
 20
571.0749897005924
 30
0.0
  0
SPLINE
  5
B5
330
7E
100
AcDbEntity
  8
DV1_Default
  6
Continuous
 62
     7
100
AcDbSpline
210
0.0
220
0.0
230
1.0
 70
     8
 71
     3
 72
    15
 73
    11
 74
     0
 42
0.000000001
 43
0.0000000001
 40
0.0
 40
0.0
 40
0.0
 40
0.0
 40
0.0626490147845038
 40
0.1255856182673929
 40
0.1889952041553073
 40
0.3040896885895694
 40
0.4189075184921484
 40
0.699653160497128
 40
0.9922358966851753
 40
0.9999999999999999
 40
0.9999999999999999
 40
0.9999999999999999
 40
0.9999999999999999
 10
35.20591577503598
 20
571.0057916017097
 30
0.0
 10
35.23470310964589
 20
570.9894974250391
 30
0.0
 10
35.29240992638801
 20
570.9568342736965
 30
0.0
 10
35.37658136459955
 20
570.9080190406789
 30
0.0
 10
35.48129741269096
 20
570.8469656981989
 30
0.0
 10
35.60317194823975
 20
570.7762676226063
 30
0.0
 10
35.79970249986697
 20
570.6657190103346
 30
0.0
 10
36.0232414626817
 20
570.5558424848596
 30
0.0
 10
36.1260269463267
 20
570.5334734908631
 30
0.0
 10
36.15367879726415
 20
570.5393471428257
 30
0.0
 10
36.1543766227521
 20
570.5395105185594
 30
0.0
  0
SPLINE
  5
B6
330
7E
100
AcDbEntity
  8
DV1_Default
  6
Continuous
 62
     7
100
AcDbSpline
210
0.0
220
0.0
230
1.0
 70
     8
 71
     3
 72
    15
 73
    11
 74
     0
 42
0.000000001
 43
0.0000000001
 40
0.0
 40
0.0
 40
0.0
 40
0.0
 40
0.089725144981702
 40
0.2165432124139513
 40
0.4262612240050498
 40
0.6283366965642724
 40
0.7135070393877332
 40
0.7987786704760975
 40
0.8999268405288056
 40
1.0
 40
1.0
 40
1.0
 40
1.0
 10
33.71032783855279
 20
570.4397658295294
 30
0.0
 10
33.6742080706599
 20
570.4272575324048
 30
0.0
 10
33.59204283938176
 20
570.4018422877774
 30
0.0
 10
33.4585400372402
 20
570.3781992427331
 30
0.0
 10
33.35322367932982
 20
570.4096863698154
 30
0.0
 10
33.3442013902166
 20
570.511981271476
 30
0.0
 10
33.37911971501434
 20
570.6170176157342
 30
0.0
 10
33.42201845348008
 20
570.7035304878693
 30
0.0
 10
33.48417245707378
 20
570.8033282662371
 30
0.0
 10
33.54456045246002
 20
570.8770738047813
 30
0.0
 10
33.57459314087699
 20
570.913749583917
 30
0.0
  0
SPLINE
  5
B7
330
7E
100
AcDbEntity
  8
DV1_Default
  6
Continuous
 62
     7
100
AcDbSpline
210
0.0
220
0.0
230
1.0
 70
     8
 71
     3
 72
     8
 73
     4
 74
     0
 42
0.000000001
 43
0.0000000001
 40
0.0
 40
0.0
 40
0.0
 40
0.0
 40
1.0
 40
1.0
 40
1.0
 40
1.0
 10
33.24624543758302
 20
570.381490264224
 30
0.0
 10
33.24203054161784
 20
570.3811501412424
 30
0.0
 10
33.23560442524602
 20
570.3824960479209
 30
0.0
 10
33.22710119549264
 20
570.3854046726277
 30
0.0
  0
SPLINE
  5
B8
330
7E
100
AcDbEntity
  8
DV1_Default
  6
Continuous
 62
     7
100
AcDbSpline
210
0.0
220
0.0
230
1.0
 70
     8
 71
     3
 72
     9
 73
     5
 74
     0
 42
0.000000001
 43
0.0000000001
 40
0.0
 40
0.0
 40
0.0
 40
0.0
 40
0.2812255979442963
 40
0.9999999999999999
 40
0.9999999999999999
 40
0.9999999999999999
 40
0.9999999999999999
 10
30.47846150070788
 20
570.3874028757846
 30
0.0
 10
30.47534967105227
 20
570.3862172338899
 30
0.0
 10
30.46511463045425
 20
570.3826232085052
 30
0.0
 10
30.4578932845731
 20
570.3813267155338
 30
0.0
 10
30.45428209710721
 20
570.3816145330276
 30
0.0
  0
SPLINE
  5
B9
330
7E
100
AcDbEntity
  8
DV1_Default
  6
Continuous
 62
     7
100
AcDbSpline
210
0.0
220
0.0
230
1.0
 70
     8
 71
     3
 72
    10
 73
     6
 74
     0
 42
0.000000001
 43
0.0000000001
 40
0.0
 40
0.0
 40
0.0
 40
0.0
 40
0.0980603618292745
 40
0.8830181143540096
 40
1.0
 40
1.0
 40
1.0
 40
1.0
 10
30.21705899967613
 20
570.3880375112301
 30
0.0
 10
30.20870911630569
 20
570.3882271323918
 30
0.0
 10
30.13022793047398
 20
570.3930184968292
 30
0.0
 10
30.00866115817323
 20
570.4296724217526
 30
0.0
 10
29.87991704775486
 20
570.4810559829989
 30
0.0
 10
29.86290676682937
 20
570.4880023591654
 30
0.0
  0
SPLINE
  5
BA
330
7E
100
AcDbEntity
  8
DV1_Default
  6
Continuous
 62
     7
100
AcDbSpline
210
0.0
220
0.0
230
1.0
 70
     8
 71
     3
 72
    14
 73
    10
 74
     0
 42
0.000000001
 43
0.0000000001
 40
0.0
 40
0.0
 40
0.0
 40
0.0
 40
0.0354903385666538
 40
0.2942035176082041
 40
0.5432963778507146
 40
0.6480186643782584
 40
0.7528654918405715
 40
0.8770881242565559
 40
0.9999999999999999
 40
0.9999999999999999
 40
0.9999999999999999
 40
0.9999999999999999
 10
27.54665407294212
 20
570.5392573527255
 30
0.0
 10
27.54990824775648
 20
570.5385583005112
 30
0.0
 10
27.57978237760997
 20
570.5347296928325
 30
0.0
 10
27.67949949377731
 20
570.5589815412611
 30
0.0
 10
27.87136132387401
 20
570.6510936883731
 30
0.0
 10
28.04161237441713
 20
570.7449103345117
 30
0.0
 10
28.17564080998347
 20
570.8216470342003
 30
0.0
 10
28.32558279646948
 20
570.9097237571448
 30
0.0
 10
28.43811603400279
 20
570.9738824154333
 30
0.0
 10
28.49408422481399
 20
571.0057916016259
 30
0.0
  0
SPLINE
  5
BB
330
7E
100
AcDbEntity
  8
DV1_Default
  6
Continuous
 62
     7
100
AcDbSpline
210
0.0
220
0.0
230
1.0
 70
     8
 71
     3
 72
     9
 73
     5
 74
     0
 42
0.000000001
 43
0.0000000001
 40
0.0
 40
0.0
 40
0.0
 40
0.0
 40
0.1422285465462232
 40
1.0
 40
1.0
 40
1.0
 40
1.0
 10
27.32060494501787
 20
570.5588148481103
 30
0.0
 10
27.31575226939194
 20
570.5592478262981
 30
0.0
 10
27.28141680471935
 20
570.5625809008395
 30
0.0
 10
27.2455913827138
 20
570.5679387051631
 30
0.0
 10
27.21392583929935
 20
570.5738845464762
 30
0.0
  0
SPLINE
  5
BC
330
7E
100
AcDbEntity
  8
DV1_Default
  6
Continuous
 62
     7
100
AcDbSpline
210
0.0
220
0.0
230
1.0
 70
     8
 71
     3
 72
    14
 73
    10
 74
     0
 42
0.000000001
 43
0.0000000001
 40
0.0
 40
0.0
 40
0.0
 40
0.0
 40
0.0699222137033644
 40
0.3186079471735134
 40
0.5583165095479063
 40
0.6594753619729432
 40
0.7607682219302894
 40
0.8810270422371249
 40
1.0
 40
1.0
 40
1.0
 40
1.0
 10
25.02859918542046
 20
570.8476637345611
 30
0.0
 10
25.04556655074361
 20
570.844841950403
 30
0.0
 10
25.12914805630397
 20
570.835922324332
 30
0.0
 10
25.3247392591516
 20
570.8546375232203
 30
0.0
 10
25.59195814112065
 20
570.9339871297037
 30
0.0
 10
25.80648011030441
 20
571.0167545246485
 30
0.0
 10
25.96768326173945
 20
571.0851036799235
 30
0.0
 10
26.14065510976706
 20
571.1639908577943
 30
0.0
 10
26.26330874327493
 20
571.2214759607625
 30
0.0
 10
26.32430593050698
 20
571.2500640220255
 30
0.0
  0
SPLINE
  5
BD
330
7E
100
AcDbEntity
  8
DV1_Default
  6
Continuous
 62
     7
100
AcDbSpline
210
0.0
220
0.0
230
1.0
 70
     8
 71
     3
 72
    11
 73
     7
 74
     0
 42
0.000000001
 43
0.0000000001
 40
0.0
 40
0.0
 40
0.0
 40
0.0
 40
0.4635565326543526
 40
0.6986859678850995
 40
0.9387412984146807
 40
1.0
 40
1.0
 40
1.0
 40
1.0
 10
24.7939830097634
 20
570.8884031078366
 30
0.0
 10
24.66714788265852
 20
570.9108867238598
 30
0.0
 10
24.4678851203063
 20
570.9683530253963
 30
0.0
 10
24.20197577446184
 20
571.0771159523263
 30
0.0
 10
24.0514997981142
 20
571.1485934006334
 30
0.0
 10
23.96815840686964
 20
571.1909494589287
 30
0.0
 10
23.95126764953159
 20
571.199636855796
 30
0.0
  0
SPLINE
  5
BE
330
7E
100
AcDbEntity
  8
DV1_Default
  6
Continuous
 62
     7
100
AcDbSpline
210
0.0
220
0.0
230
1.0
 70
     8
 71
     3
 72
    15
 73
    11
 74
     0
 42
0.000000001
 43
0.0000000001
 40
0.0
 40
0.0
 40
0.0
 40
0.0
 40
0.0467548497472377
 40
0.2760865655468523
 40
0.4628991128154918
 40
0.6459979856852963
 40
0.7271249861659292
 40
0.8087712848508946
 40
0.9048677290323295
 40
1.0
 40
1.0
 40
1.0
 40
1.0
 10
23.03504478764012
 20
571.3078985602261
 30
0.0
 10
23.05172608450502
 20
571.3025675764067
 30
0.0
 10
23.15468129894565
 20
571.2732698260403
 30
0.0
 10
23.37129219417305
 20
571.2481849128978
 30
0.0
 10
23.71444294451308
 20
571.278948555428
 30
0.0
 10
23.99389439199108
 20
571.3433971737
 30
0.0
 10
24.20737455463479
 20
571.4096508077967
 30
0.0
 10
24.36567210038594
 20
571.4653415419572
 30
0.0
 10
24.52969053276777
 20
571.5292928303272
 30
0.0
 10
24.64036356267523
 20
571.5757167789636
 30
0.0
 10
24.69542107148997
 20
571.5988117187462
 30
0.0
  0
SPLINE
  5
BF
330
7E
100
AcDbEntity
  8
DV1_Default
  6
Continuous
 62
     7
100
AcDbSpline
210
0.0
220
0.0
230
1.0
 70
     8
 71
     3
 72
    17
 73
    13
 74
     0
 42
0.000000001
 43
0.0000000001
 40
0.0
 40
0.0
 40
0.0
 40
0.0
 40
0.0070731108429897
 40
0.0757518234409358
 40
0.1443530829081681
 40
0.3127877387716803
 40
0.5033870325598528
 40
0.6956358216837634
 40
0.7775558108665732
 40
0.8611920007094238
 40
0.9324215603487516
 40
1.0
 40
1.0
 40
1.0
 40
1.0
 10
24.17633526141789
 20
571.5836277165142
 30
0.0
 10
24.17318772701044
 20
571.58045614808
 30
0.0
 10
24.13914669236102
 20
571.5466540536404
 30
0.0
 10
24.06741828475321
 20
571.4857513083434
 30
0.0
 10
23.89057610068497
 20
571.374871506561
 30
0.0
 10
23.58237959740451
 20
571.2736813123272
 30
0.0
 10
23.10855471955685
 20
571.2863613656525
 30
0.0
 10
22.7057439374624
 20
571.4119693669517
 30
0.0
 10
22.4189027519308
 20
571.5468459239812
 30
0.0
 10
22.23906537628085
 20
571.6475913533803
 30
0.0
 10
22.08046533146576
 20
571.7487509420055
 30
0.0
 10
21.98806487741319
 20
571.8133545803854
 30
0.0
 10
21.94455082662159
 20
571.8448509607701
 30
0.0
  0
SPLINE
  5
C0
330
7E
100
AcDbEntity
  8
DV1_Default
  6
Continuous
 62
     7
100
AcDbSpline
210
0.0
220
0.0
230
1.0
 70
     8
 71
     3
 72
    18
 73
    14
 74
     0
 42
0.000000001
 43
0.0000000001
 40
0.0
 40
0.0
 40
0.0
 40
0.0
 40
0.0367201893598384
 40
0.1368394937864031
 40
0.2304202816172575
 40
0.3208145457094585
 40
0.4853092292585995
 40
0.6178819446629924
 40
0.7478923021487426
 40
0.80564848547342
 40
0.8637895957412691
 40
0.9322392161407765
 40
0.9999999999999999
 40
0.9999999999999999
 40
0.9999999999999999
 40
0.9999999999999999
 10
21.53822110207077
 20
572.0350155173126
 30
0.0
 10
21.55116773087032
 20
572.0250468269415
 30
0.0
 10
21.60259922438219
 20
571.9876835855097
 30
0.0
 10
21.70906425068572
 20
571.924990039397
 30
0.0
 10
21.87286007327967
 20
571.85547348755
 30
0.0
 10
22.11026014370423
 20
571.7852121349808
 30
0.0
 10
22.42750728344404
 20
571.740411960043
 30
0.0
 10
22.81305446663949
 20
571.7516582552629
 30
0.0
 10
23.10313485045974
 20
571.8003740759123
 30
0.0
 10
23.31454870310244
 20
571.8548056367342
 30
0.0
 10
23.46678167255461
 20
571.9018984323775
 30
0.0
 10
23.619780713054
 20
571.9570610793783
 30
0.0
 10
23.71800998902388
 20
571.9976867347274
 30
0.0
 10
23.76687624688297
 20
572.017896837372
 30
0.0
  0
SPLINE
  5
C1
330
7E
100
AcDbEntity
  8
DV1_Default
  6
Continuous
 62
     7
100
AcDbSpline
210
0.0
220
0.0
230
1.0
 70
     8
 71
     3
 72
    19
 73
    15
 74
     0
 42
0.000000001
 43
0.0000000001
 40
0.0
 40
0.0
 40
0.0
 40
0.0
 40
0.0338502314441154
 40
0.0678479138659024
 40
0.1020865531017252
 40
0.1640784153781397
 40
0.2260003656909461
 40
0.378035510120277
 40
0.5500772494549782
 40
0.7236078822719326
 40
0.797551794370031
 40
0.8730448105579649
 40
0.9373391586100717
 40
1.0
 40
1.0
 40
1.0
 40
1.0
 10
23.62956389377896
 20
572.1684421805561
 30
0.0
 10
23.60933959515368
 20
572.1508885782777
 30
0.0
 10
23.56880290123474
 20
572.1157049105565
 30
0.0
 10
23.50211908043118
 20
572.0650196216058
 30
0.0
 10
23.41183164438366
 20
572.0034009489221
 30
0.0
 10
23.29256958324928
 20
571.9351534305484
 30
0.0
 10
23.06512930055511
 20
571.8353926779478
 30
0.0
 10
22.70137408290152
 20
571.7526832857466
 30
0.0
 10
22.19912632016423
 20
571.7922084302874
 30
0.0
 10
21.81371061419586
 20
571.9394951582401
 30
0.0
 10
21.55901123834927
 20
572.0892657970844
 30
0.0
 10
21.40758102821607
 20
572.1991221350252
 30
0.0
 10
21.28026865196672
 20
572.3090187384288
 30
0.0
 10
21.21052679748609
 20
572.3789899913735
 30
0.0
 10
21.17838625333646
 20
572.4134579312778
 30
0.0
  0
SPLINE
  5
C2
330
7E
100
AcDbEntity
  8
DV1_Default
  6
Continuous
 62
     7
100
AcDbSpline
210
0.0
220
0.0
230
1.0
 70
     8
 71
     3
 72
    14
 73
    10
 74
     0
 42
0.000000001
 43
0.0000000001
 40
0.0
 40
0.0
 40
0.0
 40
0.0
 40
0.1417704601219163
 40
0.2776473345192865
 40
0.4088120510949522
 40
0.5365955178411727
 40
0.6974261246913399
 40
0.8502577342572447
 40
1.0
 40
1.0
 40
1.0
 40
1.0
 10
40.07043610633196
 20
572.1684421804567
 30
0.0
 10
40.04384436569739
 20
572.193161394687
 30
0.0
 10
39.99176633829286
 20
572.2415722126856
 30
0.0
 10
39.92570537128333
 20
572.3129591092702
 30
0.0
 10
39.87004314057217
 20
572.3797215928423
 30
0.0
 10
39.82039609884438
 20
572.4467175779874
 30
0.0
 10
39.78017067241953
 20
572.5096783401304
 30
0.0
 10
39.75298391775699
 20
572.563666051571
 30
0.0
 10
39.74969013594799
 20
572.5844473822216
 30
0.0
 10
39.74806006015096
 20
572.5947319566369
 30
0.0
  0
SPLINE
  5
C3
330
7E
100
AcDbEntity
  8
DV1_Default
  6
Continuous
 62
     7
100
AcDbSpline
210
0.0
220
0.0
230
1.0
 70
     8
 71
     3
 72
    10
 73
     6
 74
     0
 42
0.000000001
 43
0.0000000001
 40
0.0
 40
0.0
 40
0.0
 40
0.0
 40
0.0118134252029312
 40
0.5059067126016388
 40
1.0
 40
1.0
 40
1.0
 40
1.0
 10
23.74408786587947
 20
572.2809069426241
 30
0.0
 10
23.74363730908827
 20
572.2804221780513
 30
0.0
 10
23.72434114393236
 20
572.2596849515279
 30
0.0
 10
23.68611374445796
 20
572.220621699428
 30
0.0
 10
23.64824871451895
 20
572.185216702359
 30
0.0
 10
23.62956389377896
 20
572.1684421805561
 30
0.0
  0
SPLINE
  5
C4
330
7E
100
AcDbEntity
  8
DV1_Default
  6
Continuous
 62
     7
100
AcDbSpline
210
0.0
220
0.0
230
1.0
 70
     8
 71
     3
 72
    14
 73
    10
 74
     0
 42
0.000000001
 43
0.0000000001
 40
0.0
 40
0.0
 40
0.0
 40
0.0
 40
0.140042210836317
 40
0.2743682978798206
 40
0.4041133945679774
 40
0.5305538548156795
 40
0.6936047103534965
 40
0.8483926398718147
 40
1.0
 40
1.0
 40
1.0
 40
1.0
 10
23.76687624688297
 20
572.017896837372
 30
0.0
 10
23.80193043621855
 20
572.0326878388328
 30
0.0
 10
23.87060800281825
 20
572.0616661152442
 30
0.0
 10
23.96450405930751
 20
572.1010594402052
 30
0.0
 10
24.04956932872941
 20
572.1345549352706
 30
0.0
 10
24.134035562207
 20
572.1638843528277
 30
0.0
 10
24.21442603847134
 20
572.1843413065076
 30
0.0
 10
24.28720212772147
 20
572.1901102326857
 30
0.0
 10
24.32151845984073
 20
572.1772724392174
 30
0.0
 10
24.33849851370497
 20
572.1709201745338
 30
0.0
  0
SPLINE
  5
C5
330
7E
100
AcDbEntity
  8
DV1_Default
  6
Continuous
 62
     7
100
AcDbSpline
210
0.0
220
0.0
230
1.0
 70
     8
 71
     3
 72
    14
 73
    10
 74
     0
 42
0.000000001
 43
0.0000000001
 40
0.0
 40
0.0
 40
0.0
 40
0.0
 40
0.1400741555377912
 40
0.274428963683736
 40
0.4042004025370756
 40
0.5306658193100792
 40
0.6936755018137909
 40
0.8484271862931424
 40
1.0
 40
1.0
 40
1.0
 40
1.0
 10
24.69542107148997
 20
571.5988117187462
 30
0.0
 10
24.73583154635305
 20
571.6156818191505
 30
0.0
 10
24.81500250188052
 20
571.6487331993525
 30
0.0
 10
24.92817235691702
 20
571.6938293739657
 30
0.0
 10
25.03468214148256
 20
571.7325980587816
 30
0.0
 10
25.1453483649553
 20
571.767288777895
 30
0.0
 10
25.25730026276843
 20
571.7930245680078
 30
0.0
 10
25.36782926710199
 20
571.8038262364867
 30
0.0
 10
25.42971395017638
 20
571.7936361915844
 30
0.0
 10
25.46033518874698
 20
571.7885940425339
 30
0.0
  0
ARC
  5
C6
330
7E
100
AcDbEntity
  8
DV1_Default
  6
Continuous
 62
     7
100
AcDbCircle
 10
29.444216876
 20
569.5641137077
 30
0.0
 40
1.726611480482486
100
AcDbArc
 50
91.156594005
 51
123.3867363662
  0
ARC
  5
C7
330
7E
100
AcDbEntity
  8
DV1_Default
  6
Continuous
 62
     7
100
AcDbCircle
 10
31.9253222804
 20
569.7595037016
 30
0.0
 40
1.465681227773655
100
AcDbArc
 50
92.9457637534
 51
129.5340242241
  0
ARC
  5
C8
330
7E
100
AcDbEntity
  8
DV1_Default
  6
Continuous
 62
     7
100
AcDbCircle
 10
34.3787581797
 20
570.2538468755
 30
0.0
 40
1.040265828641083
100
AcDbArc
 50
94.859486044
 51
140.6274899766
  0
ARC
  5
C9
330
7E
100
AcDbEntity
  8
DV1_Default
  6
Continuous
 62
     7
100
AcDbCircle
 10
36.5765957492
 20
570.8664447203
 30
0.0
 40
0.6244408446830131
100
AcDbArc
 50
97.7524164678
 51
160.4900377626
  0
SPLINE
  5
CA
330
7E
100
AcDbEntity
  8
DV1_Default
  6
Continuous
 62
     7
100
AcDbSpline
210
0.0
220
0.0
230
1.0
 70
     8
 71
     3
 72
    14
 73
    10
 74
     0
 42
0.000000001
 43
0.0000000001
 40
0.0
 40
0.0
 40
0.0
 40
0.0
 40
0.1400386668799515
 40
0.2743615300921296
 40
0.4041036287077802
 40
0.5305412068153215
 40
0.6935967462356915
 40
0.8483887712602992
 40
1.0
 40
1.0
 40
1.0
 40
1.0
 10
37.99636609388798
 20
571.3578425879892
 30
0.0
 10
37.99425240781778
 20
571.3838591653621
 30
0.0
 10
37.99011130766827
 20
571.4348304301907
 30
0.0
 10
37.99734961327229
 20
571.5086892071988
 30
0.0
 10
38.0143382537992
 20
571.5769640739021
 30
0.0
 10
38.04410580121665
 20
571.6452255134849
 30
0.0
 10
38.08982811349117
 20
571.7086639859364
 30
0.0
 10
38.15529504909357
 20
571.7615484364267
 30
0.0
 10
38.21173686618522
 20
571.7796414488275
 30
0.0
 10
38.23966481125898
 20
571.7885940425354
 30
0.0
  0
SPLINE
  5
CB
330
7E
100
AcDbEntity
  8
DV1_Default
  6
Continuous
 62
     7
100
AcDbSpline
210
0.0
220
0.0
230
1.0
 70
     8
 71
     3
 72
    14
 73
    10
 74
     0
 42
0.000000001
 43
0.0000000001
 40
0.0
 40
0.0
 40
0.0
 40
0.0
 40
0.1399947964579116
 40
0.2742781836764332
 40
0.4039840408220359
 40
0.5303872489943652
 40
0.6934994177236947
 40
0.8483412819719908
 40
1.0
 40
1.0
 40
1.0
 40
1.0
 10
39.40307489831897
 20
571.7346206347374
 30
0.0
 10
39.38815445971888
 20
571.7601605475452
 30
0.0
 10
39.35892229607846
 20
571.8101984137619
 30
0.0
 10
39.32832128520057
 20
571.8833933385041
 30
0.0
 10
39.30817065694807
 20
571.9515645212816
 30
0.0
 10
39.29752275317185
 20
572.0203557717803
 30
0.0
 10
39.30002218107035
 20
572.0851406653562
 30
0.0
 10
39.31978547090919
 20
572.1403957844107
 30
0.0
 10
39.34769275773866
 20
572.1608160691034
 30
0.0
 10
39.36150148629897
 20
572.1709201745355
 30
0.0
  0
SPLINE
  5
CC
330
7E
100
AcDbEntity
  8
DV1_Default
  6
Continuous
 62
     7
100
AcDbSpline
210
0.0
220
0.0
230
1.0
 70
     8
 71
     3
 72
    11
 73
     7
 74
     0
 42
0.000000001
 43
0.0000000001
 40
0.0
 40
0.0
 40
0.0
 40
0.0
 40
0.3386991151389889
 40
0.6635734980094661
 40
0.9773685257985818
 40
1.0
 40
1.0
 40
1.0
 40
1.0
 10
39.93312375311694
 20
572.6168417496323
 30
0.0
 10
39.89806956378069
 20
572.6395704394737
 30
0.0
 10
39.82939199718002
 20
572.6841000988361
 30
0.0
 10
39.73549594069002
 20
572.7502933279453
 30
0.0
 10
39.67593489771411
 20
572.7938816771153
 30
0.0
 10
39.64686934765767
 20
572.8154421202299
 30
0.0
 10
39.64491973815415
 20
572.8168895758736
 30
0.0
  0
SPLINE
  5
CD
330
7E
100
AcDbEntity
  8
DV1_Default
  6
Continuous
 62
     7
100
AcDbSpline
210
0.0
220
0.0
230
1.0
 70
     8
 71
     3
 72
    10
 73
     6
 74
     0
 42
0.000000001
 43
0.0000000001
 40
0.0
 40
0.0
 40
0.0
 40
0.0
 40
0.3665568783704919
 40
0.7181469263676844
 40
1.0
 40
1.0
 40
1.0
 40
1.0
 10
39.00457892850994
 20
573.0359268682558
 30
0.0
 10
38.96416845364757
 20
573.0565850592081
 30
0.0
 10
38.88499749812098
 20
573.0970579495348
 30
0.0
 10
38.77800565786288
 20
573.1542665292463
 30
0.0
 10
38.71185099048499
 20
573.1896646648606
 30
0.0
 10
38.68279748665984
 20
573.2051069704344
 30
0.0
  0
SPLINE
  5
CE
330
7E
100
AcDbEntity
  8
DV1_Default
  6
Continuous
 62
     7
100
AcDbSpline
210
0.0
220
0.0
230
1.0
 70
     8
 71
     3
 72
    13
 73
     9
 74
     0
 42
0.000000001
 43
0.0000000001
 40
0.0
 40
0.0
 40
0.0
 40
0.0
 40
0.1680036153090062
 40
0.3291458070041545
 40
0.4847895725515539
 40
0.6364675688384698
 40
0.8319108367888838
 40
1.0
 40
1.0
 40
1.0
 40
1.0
 10
37.37569406949292
 20
573.3846745649806
 30
0.0
 10
37.33388384475846
 20
573.4030747416009
 30
0.0
 10
37.25197096368196
 20
573.4391236145469
 30
0.0
 10
37.13060407299597
 20
573.4931941980693
 30
0.0
 10
37.01307190462064
 20
573.5440348928036
 30
0.0
 10
36.88703278226477
 20
573.5955763302059
 30
0.0
 10
36.75881831730777
 20
573.6423260067934
 30
0.0
 10
36.66993972567945
 20
573.6687069215053
 30
0.0
 10
36.63007697052854
 20
573.6783181595702
 30
0.0
  0
ARC
  5
CF
330
7E
100
AcDbEntity
  8
DV1_Default
  6
Continuous
 62
     7
100
AcDbCircle
 10
33.977841753
 20
571.1536908205
 30
0.0
 40
2.763161031393569
100
AcDbArc
 50
63.6121432665
 51
83.5001185563
  0
ARC
  5
D0
330
7E
100
AcDbEntity
  8
DV1_Default
  6
Continuous
 62
     7
100
AcDbCircle
 10
31.7737230786
 20
571.8987830418
 30
0.0
 40
2.068839272864729
100
AcDbArc
 50
64.7233115398
 51
87.8870584694
  0
ARC
  5
D1
330
7E
100
AcDbEntity
  8
DV1_Default
  6
Continuous
 62
     7
100
AcDbCircle
 10
31.9228402615
 20
571.912096673
 30
0.0
 40
2.055410093572252
100
AcDbArc
 50
92.0308908766
 51
115.2871196547
  0
ARC
  5
D2
330
7E
100
AcDbEntity
  8
DV1_Default
  6
Continuous
 62
     7
100
AcDbCircle
 10
29.7125890152
 20
571.1861126092
 30
0.0
 40
2.729870640462813
100
AcDbArc
 50
96.3773604294
 51
116.510377746
  0
SPLINE
  5
D3
330
7E
100
AcDbEntity
  8
DV1_Default
  6
Continuous
 62
     7
100
AcDbSpline
210
0.0
220
0.0
230
1.0
 70
     8
 71
     3
 72
    15
 73
    11
 74
     0
 42
0.000000001
 43
0.0000000001
 40
0.0
 40
0.0
 40
0.0
 40
0.0
 40
0.0218223227396503
 40
0.1615619909197002
 40
0.3013016590997502
 40
0.4410413272798002
 40
0.5807809954598501
 40
0.7205206636399
 40
0.86026033181995
 40
0.9999999999999999
 40
0.9999999999999999
 40
0.9999999999999999
 40
0.9999999999999999
 10
27.08124025191761
 20
573.6809002279919
 30
0.0
 10
27.07363460674018
 20
573.6790859893043
 30
0.0
 10
27.01763736373451
 20
573.6652373813698
 30
0.0
 10
26.91787929893693
 20
573.634362950136
 30
0.0
 10
26.79190344422893
 20
573.5871829332442
 30
0.0
 10
26.67824257535993
 20
573.5402314371868
 30
0.0
 10
26.57601625621492
 20
573.4958838948245
 30
0.0
 10
26.48381714525293
 20
573.4550645868128
 30
0.0
 10
26.40038872595392
 20
573.4180352860345
 30
0.0
 10
26.34891302475992
 20
573.3954015546855
 30
0.0
 10
26.32430593069992
 20
573.3846745650648
 30
0.0
  0
SPLINE
  5
D4
330
7E
100
AcDbEntity
  8
DV1_Default
  6
Continuous
 62
     7
100
AcDbSpline
210
0.0
220
0.0
230
1.0
 70
     8
 71
     3
 72
    11
 73
     7
 74
     0
 42
0.000000001
 43
0.0000000001
 40
0.0
 40
0.0
 40
0.0
 40
0.0
 40
0.1986229673246405
 40
0.4657486448830936
 40
0.7328743224415468
 40
1.0
 40
1.0
 40
1.0
 40
1.0
 10
25.00355818426403
 20
573.1977972386595
 30
0.0
 10
24.9801029490298
 20
573.1852942049999
 30
0.0
 10
24.92669313963964
 20
573.1566999855977
 30
0.0
 10
24.84831250965894
 20
573.1149068718684
 30
0.0
 10
24.76905889561294
 20
573.0733673723569
 30
0.0
 10
24.71935667190293
 20
573.0479732282635
 30
0.0
 10
24.69542107163793
 20
573.0359268683301
 30
0.0
  0
SPLINE
  5
D5
330
7E
100
AcDbEntity
  8
DV1_Default
  6
Continuous
 62
     7
100
AcDbSpline
210
0.0
220
0.0
230
1.0
 70
     8
 71
     3
 72
    11
 73
     7
 74
     0
 42
0.000000001
 43
0.0000000001
 40
0.0
 40
0.0
 40
0.0
 40
0.0
 40
0.0756209656099894
 40
0.3837473104066596
 40
0.6918736552033298
 40
0.9999999999999999
 40
0.9999999999999999
 40
0.9999999999999999
 40
0.9999999999999999
 10
23.98750113275072
 20
572.7672703422915
 30
0.0
 10
23.98149645111843
 20
572.7629193351628
 30
0.0
 10
23.9511919689757
 20
572.7410478262882
 30
0.0
 10
23.89816387760795
 20
572.7036228087212
 30
0.0
 10
23.83092808450694
 20
572.6580605795837
 30
0.0
 10
23.78782618992695
 20
572.6301195278986
 30
0.0
 10
23.76687624701094
 20
572.6168417497129
 30
0.0
  0
SPLINE
  5
D6
330
7E
100
AcDbEntity
  8
DV1_Default
  6
Continuous
 62
     7
100
AcDbSpline
210
0.0
220
0.0
230
1.0
 70
     8
 71
     3
 72
    14
 73
    10
 74
     0
 42
0.000000001
 43
0.0000000001
 40
0.0
 40
0.0
 40
0.0
 40
0.0
 40
0.1417704601143636
 40
0.2776473345091385
 40
0.4088120510870976
 40
0.5365955178402735
 40
0.6974261246859038
 40
0.8502577342519679
 40
1.0
 40
1.0
 40
1.0
 40
1.0
 10
23.62956389366795
 20
572.4662964065515
 30
0.0
 10
23.65615563430127
 20
572.4795622794358
 30
0.0
 10
23.70823366170422
 20
572.5055425453061
 30
0.0
 10
23.77429462871241
 20
572.5409075821683
 30
0.0
 10
23.8299568594245
 20
572.5707188601625
 30
0.0
 10
23.87960390115443
 20
572.5960729675027
 30
0.0
 10
23.91982932758127
 20
572.6126569164818
 30
0.0
 10
23.94701608224317
 20
572.6152759588845
 30
0.0
 10
23.95030986405198
 20
572.6015331851693
 30
0.0
 10
23.95193993984896
 20
572.5947319566377
 30
0.0
  0
SPLINE
  5
D7
330
7E
100
AcDbEntity
  8
DV1_Default
  6
Continuous
 62
     7
100
AcDbSpline
210
0.0
220
0.0
230
1.0
 70
     8
 71
     3
 72
    21
 73
    17
 74
     0
 42
0.000000001
 43
0.0000000001
 40
0.0
 40
0.0
 40
0.0
 40
0.0
 40
0.0372582060127047
 40
0.0760536351560225
 40
0.116566434887814
 40
0.1849202148032368
 40
0.2559774101995202
 40
0.3415117351821628
 40
0.4262374325531239
 40
0.5166306366256959
 40
0.6029759339686327
 40
0.7457644532635385
 40
0.8833494765539587
 40
0.9413385212045409
 40
0.999396528948082
 40
0.9999999999999999
 40
0.9999999999999999
 40
0.9999999999999999
 40
0.9999999999999999
 10
21.67370148624993
 20
573.3615251334762
 30
0.0
 10
21.69532998199596
 20
573.353969001218
 30
0.0
 10
21.73947933594052
 20
573.3385449809193
 30
0.0
 10
21.81358797832549
 20
573.30743821785
 30
0.0
 10
21.9129349578925
 20
573.2629246348497
 30
0.0
 10
22.04330956427267
 20
573.2017015601089
 30
0.0
 10
22.21931123057272
 20
573.1195967898618
 30
0.0
 10
22.42246014098925
 20
573.0301289504617
 30
0.0
 10
22.6561678505321
 20
572.9376469911535
 30
0.0
 10
22.90189484512177
 20
572.8554886099205
 30
0.0
 10
23.20798004231547
 20
572.7752354890151
 30
0.0
 10
23.55574463790244
 20
572.7240953504913
 30
0.0
 10
23.83427712909419
 20
572.734540167922
 30
0.0
 10
24.00827204912423
 20
572.7683780974684
 30
0.0
 10
24.07829923753023
 20
572.7898650099329
 30
0.0
 10
24.11115379072671
 20
572.8018610672707
 30
0.0
 10
24.11149152613953
 20
572.8019846005174
 30
0.0
  0
SPLINE
  5
D8
330
7E
100
AcDbEntity
  8
DV1_Default
  6
Continuous
 62
     7
100
AcDbSpline
210
0.0
220
0.0
230
1.0
 70
     8
 71
     3
 72
    10
 73
     6
 74
     0
 42
0.000000001
 43
0.0000000001
 40
0.0
 40
0.0
 40
0.0
 40
0.0
 40
0.0601230347915524
 40
0.8186834264241898
 40
1.0
 40
1.0
 40
1.0
 40
1.0
 10
24.26065810745067
 20
572.8527724428399
 30
0.0
 10
24.25760933681195
 20
572.8517776083661
 30
0.0
 10
24.21608042215394
 20
572.8383178816966
 30
0.0
 10
24.16512750490128
 20
572.8233345764844
 30
0.0
 10
24.11701044128744
 20
572.8110300160101
 30
0.0
 10
24.10772195146103
 20
572.8087238135805
 30
0.0
  0
SPLINE
  5
D9
330
7E
100
AcDbEntity
  8
DV1_Default
  6
Continuous
 62
     7
100
AcDbSpline
210
0.0
220
0.0
230
1.0
 70
     8
 71
     3
 72
    17
 73
    13
 74
     0
 42
0.000000001
 43
0.0000000001
 40
0.0
 40
0.0
 40
0.0
 40
0.0
 40
0.0557814297526305
 40
0.1138643257605172
 40
0.1745183972727527
 40
0.276854821367417
 40
0.3832386862385618
 40
0.5112971047906509
 40
0.6381448798553913
 40
0.7734778092399819
 40
0.9027503817128897
 40
0.9999999999999999
 40
0.9999999999999999
 40
0.9999999999999999
 40
0.9999999999999999
 10
23.33733486950193
 20
573.8755308671141
 30
0.0
 10
23.36629189057889
 20
573.8665834728163
 30
0.0
 10
23.42540066021012
 20
573.8483195268478
 30
0.0
 10
23.51945601345395
 20
573.8125877209142
 30
0.0
 10
23.64122253691804
 20
573.7619928157815
 30
0.0
 10
23.79398836906309
 20
573.6929824815826
 30
0.0
 10
23.9902972848419
 20
573.6006379903183
 30
0.0
 10
24.20612208895412
 20
573.4996470458611
 30
0.0
 10
24.44215146215203
 20
573.3942458279637
 30
0.0
 10
24.67827125379446
 20
573.2988351329278
 30
0.0
 10
24.88895223090234
 20
573.2259684440659
 30
0.0
 10
25.01354611967026
 20
573.1917412593419
 30
0.0
 10
25.0649999411425
 20
573.1794164671913
 30
0.0
  0
SPLINE
  5
DA
330
7E
100
AcDbEntity
  8
DV1_Default
  6
Continuous
 62
     7
100
AcDbSpline
210
0.0
220
0.0
230
1.0
 70
     8
 71
     3
 72
    14
 73
    10
 74
     0
 42
0.000000001
 43
0.0000000001
 40
0.0
 40
0.0
 40
0.0
 40
0.0
 40
0.1424995995726741
 40
0.3362050507134938
 40
0.5340993156955071
 40
0.7031086506279399
 40
0.8455310691642036
 40
0.925445287198537
 40
1.0
 40
1.0
 40
1.0
 40
1.0
 10
25.690874794291
 20
573.175932191137
 30
0.0
 10
25.58378857628309
 20
573.1573027992251
 30
0.0
 10
25.34176873261743
 20
573.1410548864214
 30
0.0
 10
25.04147852911066
 20
573.2416183855701
 30
0.0
 10
24.87897423740473
 20
573.470285857426
 30
0.0
 10
24.86018582632967
 20
573.7305718685396
 30
0.0
 10
24.9253467865124
 20
573.9381354295483
 30
0.0
 10
25.01608467869444
 20
574.0871858172567
 30
0.0
 10
25.08488768338359
 20
574.1529941883257
 30
0.0
 10
25.11809557979792
 20
574.1847567193304
 30
0.0
  0
SPLINE
  5
DB
330
7E
100
AcDbEntity
  8
DV1_Default
  6
Continuous
 62
     7
100
AcDbSpline
210
0.0
220
0.0
230
1.0
 70
     8
 71
     3
 72
    18
 73
    14
 74
     0
 42
0.000000001
 43
0.0000000001
 40
0.0
 40
0.0
 40
0.0
 40
0.0
 40
0.0454791048120592
 40
0.0928346158888917
 40
0.1422864296239527
 40
0.2257222428813387
 40
0.3124579712553286
 40
0.4168651594941447
 40
0.5202852991796462
 40
0.6306234619959407
 40
0.7360205609432886
 40
0.9103148903587024
 40
1.0
 40
1.0
 40
1.0
 40
1.0
 10
25.83424722695792
 20
574.2751084063108
 30
0.0
 10
25.86769825839256
 20
574.2644445927683
 30
0.0
 10
25.93598046551098
 20
574.2426769911804
 30
0.0
 10
26.04077573631562
 20
574.2014761628432
 30
0.0
 10
26.17304244796149
 20
574.1438945386004
 30
0.0
 10
26.3332457218252
 20
574.0662765620486
 30
0.0
 10
26.53064580263144
 20
573.9631038255635
 30
0.0
 10
26.73802006486538
 20
573.8504735654831
 30
0.0
 10
26.95326690213656
 20
573.7326608215019
 30
0.0
 10
27.15666644049737
 20
573.6251619518575
 30
0.0
 10
27.38036936257453
 20
573.5150172776691
 30
0.0
 10
27.55312065220228
 20
573.4468796327689
 30
0.0
 10
27.63703247086824
 20
573.4300047788859
 30
0.0
 10
27.6608815905961
 20
573.4277516546309
 30
0.0
  0
SPLINE
  5
DC
330
7E
100
AcDbEntity
  8
DV1_Default
  6
Continuous
 62
     7
100
AcDbSpline
210
0.0
220
0.0
230
1.0
 70
     8
 71
     3
 72
    19
 73
    15
 74
     0
 42
0.000000001
 43
0.0000000001
 40
0.0
 40
0.0
 40
0.0
 40
0.0
 40
0.0413657317959476
 40
0.1048672595913143
 40
0.260137370540611
 40
0.4219541438619985
 40
0.503510370207082
 40
0.5888882560639954
 40
0.6613951520712943
 40
0.7351526247633839
 40
0.7989163197004517
 40
0.8610466789277007
 40
0.9329855716897971
 40
1.0
 40
1.0
 40
1.0
 40
1.0
 10
28.19038984990602
 20
573.5131836958622
 30
0.0
 10
28.15908287201464
 20
573.5029103561569
 30
0.0
 10
28.08131804864136
 20
573.4791703793791
 30
0.0
 10
27.9002975001329
 20
573.4368741793128
 30
0.0
 10
27.67675853731361
 20
573.4355360722798
 30
0.0
 10
27.54926271614122
 20
573.5416706219739
 30
0.0
 10
27.51798678185305
 20
573.6793015200834
 30
0.0
 10
27.53064038043916
 20
573.7984027482465
 30
0.0
 10
27.57276667990972
 20
573.9249810334044
 30
0.0
 10
27.63525089358224
 20
574.0450900216458
 30
0.0
 10
27.71464779755638
 20
574.1606433225053
 30
0.0
 10
27.81212715536545
 20
574.2725292077821
 30
0.0
 10
27.92955169124424
 20
574.3815826814771
 30
0.0
 10
28.02979248285688
 20
574.4436903358112
 30
0.0
 10
28.07813662671391
 20
574.4736436245622
 30
0.0
  0
SPLINE
  5
DD
330
7E
100
AcDbEntity
  8
DV1_Default
  6
Continuous
 62
     7
100
AcDbSpline
210
0.0
220
0.0
230
1.0
 70
     8
 71
     3
 72
    18
 73
    14
 74
     0
 42
0.000000001
 43
0.0000000001
 40
0.0
 40
0.0
 40
0.0
 40
0.0
 40
0.0421783303388411
 40
0.0860968814596088
 40
0.1319595901537894
 40
0.2093398136529621
 40
0.2897804515596518
 40
0.3866099932816182
 40
0.4825241242202678
 40
0.5848541832541133
 40
0.682601790088616
 40
0.8442462162930074
 40
1.0
 40
1.0
 40
1.0
 40
1.0
 10
28.92002338005191
 20
574.52114431751
 30
0.0
 10
28.95469400181157
 20
574.5086069425982
 30
0.0
 10
29.0254657082245
 20
574.483014917664
 30
0.0
 10
29.13074280533196
 20
574.4360364333992
 30
0.0
 10
29.26056251789785
 20
574.371246601818
 30
0.0
 10
29.41252142085184
 20
574.2850431760348
 30
0.0
 10
29.59168977143482
 20
574.1715136141505
 30
0.0
 10
29.77031425411087
 20
574.0482671651928
 30
0.0
 10
29.94370869532346
 20
573.9197655542936
 30
0.0
 10
30.09447781638469
 20
573.8025259240128
 30
0.0
 10
30.2414599627584
 20
573.6821862355857
 30
0.0
 10
30.34677632065241
 20
573.5909583253431
 30
0.0
 10
30.35425235748595
 20
573.5785311157423
 30
0.0
 10
30.34201473469549
 20
573.5849401563087
 30
0.0
  0
SPLINE
  5
DE
330
7E
100
AcDbEntity
  8
DV1_Default
  6
Continuous
 62
     7
100
AcDbSpline
210
0.0
220
0.0
230
1.0
 70
     8
 71
     3
 72
     8
 73
     4
 74
     0
 42
0.000000001
 43
0.0000000001
 40
0.0
 40
0.0
 40
0.0
 40
0.0
 40
1.0
 40
1.0
 40
1.0
 40
1.0
 10
30.55976059122226
 20
573.5888476907163
 30
0.0
 10
30.55389989620014
 20
573.5882930635488
 30
0.0
 10
30.54825120249516
 20
573.5879350937488
 30
0.0
 10
30.54282244155347
 20
573.5877803157395
 30
0.0
  0
SPLINE
  5
DF
330
7E
100
AcDbEntity
  8
DV1_Default
  6
Continuous
 62
     7
100
AcDbSpline
210
0.0
220
0.0
230
1.0
 70
     8
 71
     3
 72
    16
 73
    12
 74
     0
 42
0.000000001
 43
0.0000000001
 40
0.0
 40
0.0
 40
0.0
 40
0.0
 40
0.0582563998701768
 40
0.1188041045150894
 40
0.1819301596716784
 40
0.2478860656245113
 40
0.4050717021020316
 40
0.5638389538279635
 40
0.7266549648802598
 40
0.8805526780426489
 40
1.0
 40
1.0
 40
1.0
 40
1.0
 10
32.29260605904911
 20
574.5895548914917
 30
0.0
 10
32.32539566207814
 20
574.575039326822
 30
0.0
 10
32.39226452857122
 20
574.5454372802454
 30
0.0
 10
32.48835208705061
 20
574.4925148456485
 30
0.0
 10
32.58330821717841
 20
574.4331734941229
 30
0.0
 10
32.7177614317072
 20
574.3381399584114
 30
0.0
 10
32.87856878759705
 20
574.2040694958772
 30
0.0
 10
33.04204440552441
 20
574.0350446051722
 30
0.0
 10
33.16446471450631
 20
573.8788622020747
 30
0.0
 10
33.23323689643178
 20
573.7562292425577
 30
0.0
 10
33.24952127843943
 20
573.69632953288
 30
0.0
 10
33.25138344580852
 20
573.6740393832534
 30
0.0
  0
SPLINE
  5
E0
330
7E
100
AcDbEntity
  8
DV1_Default
  6
Continuous
 62
     7
100
AcDbSpline
210
0.0
220
0.0
230
1.0
 70
     8
 71
     3
 72
     8
 73
     4
 74
     0
 42
0.000000001
 43
0.0000000001
 40
0.0
 40
0.0
 40
0.0
 40
0.0
 40
1.0
 40
1.0
 40
1.0
 40
1.0
 10
33.15720919824109
 20
573.5877822008348
 30
0.0
 10
33.14962398048449
 20
573.58800409813
 30
0.0
 10
33.14161062607258
 20
573.5886201844519
 30
0.0
 10
33.13319295122549
 20
573.5896123385645
 30
0.0
  0
SPLINE
  5
E1
330
7E
100
AcDbEntity
  8
DV1_Default
  6
Continuous
 62
     7
100
AcDbSpline
210
0.0
220
0.0
230
1.0
 70
     8
 71
     3
 72
    20
 73
    16
 74
     0
 42
0.000000001
 43
0.0000000001
 40
0.0
 40
0.0
 40
0.0
 40
0.0
 40
0.0380153852401248
 40
0.077596751598733
 40
0.118932063898058
 40
0.1886307029313058
 40
0.2609186640860296
 40
0.3461849199331613
 40
0.4302152863076963
 40
0.5195839201374924
 40
0.6049754987538429
 40
0.7498390981199134
 40
0.8893159057631304
 40
0.947953998395882
 40
0.9999999999999999
 40
0.9999999999999999
 40
0.9999999999999999
 40
0.9999999999999999
 10
35.62186337317791
 20
574.4736436246252
 30
0.0
 10
35.64934016120651
 20
574.4574099833
 30
0.0
 10
35.70542559824688
 20
574.4242739825564
 30
0.0
 10
35.78254778839644
 20
574.3662436265674
 30
0.0
 10
35.87164029992748
 20
574.2880566523336
 30
0.0
 10
35.96531507380743
 20
574.1867662428624
 30
0.0
 10
36.05822921211884
 20
574.0574068318803
 30
0.0
 10
36.13006830393125
 20
573.9209987267525
 30
0.0
 10
36.17341196950746
 20
573.7825520474008
 30
0.0
 10
36.18104039424622
 20
573.6585987964233
 30
0.0
 10
36.14169397181727
 20
573.5325865313594
 30
0.0
 10
36.02050050623336
 20
573.4410408390478
 30
0.0
 10
35.82863867613316
 20
573.4356575542073
 30
0.0
 10
35.66280383494775
 20
573.4678129165592
 30
0.0
 10
35.58377260642562
 20
573.4898589609044
 30
0.0
 10
35.54565062354497
 20
573.5016652460309
 30
0.0
  0
SPLINE
  5
E2
330
7E
100
AcDbEntity
  8
DV1_Default
  6
Continuous
 62
     7
100
AcDbSpline
210
0.0
220
0.0
230
1.0
 70
     8
 71
     3
 72
     8
 73
     4
 74
     0
 42
0.000000001
 43
0.0000000001
 40
0.0
 40
0.0
 40
0.0
 40
0.0
 40
1.0
 40
1.0
 40
1.0
 40
1.0
 10
38.18761400378312
 20
573.1449212350367
 30
0.0
 10
38.24590403963582
 20
573.1339801836373
 30
0.0
 10
38.3173072088598
 20
573.1314629247181
 30
0.0
 10
38.39985506833621
 20
573.1388509306604
 30
0.0
  0
SPLINE
  5
E3
330
7E
100
AcDbEntity
  8
DV1_Default
  6
Continuous
 62
     7
100
AcDbSpline
210
0.0
220
0.0
230
1.0
 70
     8
 71
     3
 72
    10
 73
     6
 74
     0
 42
0.000000001
 43
0.0000000001
 40
0.0
 40
0.0
 40
0.0
 40
0.0
 40
0.171036475957842
 40
0.506211014432711
 40
0.9999999999999999
 40
0.9999999999999999
 40
0.9999999999999999
 40
0.9999999999999999
 10
39.58115844325381
 20
572.8047250752899
 30
0.0
 10
39.5985045721445
 20
572.7981816019152
 30
0.0
 10
39.65205952606689
 20
572.7797976088109
 30
0.0
 10
39.77045380574327
 20
572.7501482271282
 30
0.0
 10
39.88587319071301
 20
572.736972713739
 30
0.0
 10
39.95944601366362
 20
572.7338015920192
 30
0.0
  0
SPLINE
  5
E4
330
7E
100
AcDbEntity
  8
DV1_Default
  6
Continuous
 62
     7
100
AcDbSpline
210
0.0
220
0.0
230
1.0
 70
     8
 71
     3
 72
    22
 73
    18
 74
     0
 42
0.000000001
 43
0.0000000001
 40
0.0
 40
0.0
 40
0.0
 40
0.0
 40
0.0333754952443043
 40
0.0681511937842085
 40
0.1044946360278564
 40
0.1425513218401605
 40
0.2219175573149354
 40
0.3027882161756407
 40
0.3783774345559343
 40
0.4513927609944144
 40
0.5842621762673005
 40
0.6913468479223577
 40
0.7963617931208629
 40
0.8430139410280554
 40
0.8899770109443491
 40
0.945266706889697
 40
1.0
 40
1.0
 40
1.0
 40
1.0
 10
42.29984410187994
 20
573.2153330330462
 30
0.0
 10
42.29825623364295
 20
573.1967058409346
 30
0.0
 10
42.29501388127707
 20
573.1586699894831
 30
0.0
 10
42.27935903155025
 20
573.0947435378602
 30
0.0
 10
42.25502765486218
 20
573.025391739435
 30
0.0
 10
42.20858641658966
 20
572.9252382044294
 30
0.0
 10
42.12583358980022
 20
572.7948481421239
 30
0.0
 10
41.99093574932655
 20
572.6466143906349
 30
0.0
 10
41.8271399267318
 20
572.5169204373377
 30
0.0
 10
41.58973985630537
 20
572.382952213953
 30
0.0
 10
41.27249271654864
 20
572.2854187911735
 30
0.0
 10
40.88694553335464
 20
572.2703836914592
 30
0.0
 10
40.59686514953486
 20
572.321829917148
 30
0.0
 10
40.38545129689422
 20
572.3894725913634
 30
0.0
 10
40.2332183274429
 20
572.4514868275414
 30
0.0
 10
40.08021928694536
 20
572.5272016073772
 30
0.0
 10
39.98199001097594
 20
572.5870626109187
 30
0.0
 10
39.93312375311694
 20
572.6168417496323
 30
0.0
  0
ARC
  5
E5
330
7E
100
AcDbEntity
  8
DV1_Default
  6
Continuous
 62
     7
100
AcDbCircle
 10
22.6001539186
 20
574.9600395458
 30
0.0
 40
2.697858362003866
100
AcDbArc
 50
233.7845136541
 51
292.430693989
  0
SPLINE
  5
E6
330
7E
100
AcDbEntity
  8
DV1_Default
  6
Continuous
 62
     7
100
AcDbSpline
210
0.0
220
0.0
230
1.0
 70
     8
 71
     3
 72
    18
 73
    14
 74
     0
 42
0.000000001
 43
0.0000000001
 40
0.0
 40
0.0
 40
0.0
 40
0.0
 40
0.0470571210030005
 40
0.0939544863074514
 40
0.1408739400842633
 40
0.1880017679286218
 40
0.2355279679035315
 40
0.3915380558711547
 40
0.5505904907913804
 40
0.7293763574469222
 40
0.8263779358509619
 40
0.9269384106584375
 40
1.0
 40
1.0
 40
1.0
 40
1.0
 10
23.76687624701094
 20
572.6168417497129
 30
0.0
 10
23.73512715458039
 20
572.5972331945723
 30
0.0
 10
23.67173675571049
 20
572.5580826539913
 30
0.0
 10
23.57094583979082
 20
572.5031875285603
 30
0.0
 10
23.46608436109176
 20
572.4522220661938
 30
0.0
 10
23.35656700833699
 20
572.4061406863962
 30
0.0
 10
23.1565033682866
 20
572.3350893602403
 30
0.0
 10
22.84789315804132
 20
572.2694679519257
 30
0.0
 10
22.4252539685471
 20
572.2832476867717
 30
0.0
 10
22.09165637192465
 20
572.3903747851946
 30
0.0
 10
21.8538542293076
 20
572.5298779741448
 30
0.0
 10
21.70957832870065
 20
572.6482373930063
 30
0.0
 10
21.63319057284137
 20
572.7307834132084
 30
0.0
 10
21.60400600773933
 20
572.7662122586347
 30
0.0
  0
ELLIPSE
  5
E7
330
7E
100
AcDbEntity
  8
DV1_Default
  6
Continuous
 62
     7
100
AcDbEllipse
 10
21.7807489782
 20
573.4504541547
 30
0.0
 11
0.04288588610962783
 21
0.1437386544114738
 31
0.0
210
0.0
220
0.0
230
1.0
 40
0.8094409627
 41
3.118858500084726
 42
3.27141884879441
  0
SPLINE
  5
E8
330
7E
100
AcDbEntity
  8
DV1_Default
  6
Continuous
 62
     7
100
AcDbSpline
210
0.0
220
0.0
230
1.0
 70
    12
 71
     3
 72
     9
 73
     5
 74
     0
 42
0.000000001
 43
0.0000000001
 40
0.0
 40
0.0
 40
0.0
 40
0.0
 40
0.7581297891543098
 40
0.9999999999999999
 40
0.9999999999999999
 40
0.9999999999999999
 40
0.9999999999999999
 10
25.49255117125979
 20
571.5594529992248
 30
0.0
 41
1.428316096417732
 10
25.49392900192503
 20
571.5459519371799
 30
0.0
 41
1.428316096417732
 10
25.49504364249715
 20
571.5280108412267
 30
0.0
 41
1.428316096417732
 10
25.49524463519032
 20
571.5099827466896
 30
0.0
 41
1.428316096417732
 10
25.49523995230376
 20
571.5056187522443
 30
0.0
 41
1.428316096417732
  0
ELLIPSE
  5
E9
330
7E
100
AcDbEntity
  8
DV1_Default
  6
Continuous
 62
     7
100
AcDbEllipse
 10
26.2708747693
 20
571.36475127
 30
0.0
 11
-0.06029740997055659
 21
0.13734708715743
 31
0.0
210
0.0
220
0.0
230
1.0
 40
0.0350069354
 41
1.746063741576172
 42
3.709038653858932
  0
SPLINE
  5
EA
330
7E
100
AcDbEntity
  8
DV1_Default
  6
Continuous
 62
     7
100
AcDbSpline
210
0.0
220
0.0
230
1.0
 70
    12
 71
     3
 72
     9
 73
     5
 74
     0
 42
0.000000001
 43
0.0000000001
 40
0.0
 40
0.0
 40
0.0
 40
0.0
 40
0.2158113270882608
 40
1.0
 40
1.0
 40
1.0
 40
1.0
 10
27.57344079135946
 20
571.0022960367247
 30
0.0
 41
1.464061810668239
 10
27.57363201783556
 20
570.9999247019512
 30
0.0
 41
1.464061810668239
 10
27.57442647168334
 20
570.988976249273
 30
0.0
 41
1.464061810668239
 10
27.57479468045279
 20
570.9782175152319
 30
0.0
 41
1.464061810668239
 10
27.57481688609691
 20
570.9699116460323
 30
0.0
 41
1.464061810668239
  0
ELLIPSE
  5
EB
330
7E
100
AcDbEntity
  8
DV1_Default
  6
Continuous
 62
     7
100
AcDbEllipse
 10
37.4291245241
 20
571.3647515803
 30
0.0
 11
0.06029740952378985
 21
0.1373470873554384
 31
0.0
210
0.0
220
0.0
230
1.0
 40
0.0350074043
 41
2.574146653254083
 42
4.537121565594899
  0
SPLINE
  5
EC
330
7E
100
AcDbEntity
  8
DV1_Default
  6
Continuous
 62
     7
100
AcDbSpline
210
0.0
220
0.0
230
1.0
 70
    12
 71
     3
 72
     8
 73
     4
 74
     0
 42
0.000000001
 43
0.0000000001
 40
0.0
 40
0.0
 40
0.0
 40
0.0
 40
1.0
 40
1.0
 40
1.0
 40
1.0
 10
38.20568802241397
 20
571.4745754565896
 30
0.0
 41
1.428315806393635
 10
38.203969810161
 20
571.503899141422
 30
0.0
 41
1.428315806393635
 10
38.20462612355907
 20
571.5332551644407
 30
0.0
 41
1.428315806393635
 10
38.20772837842613
 20
571.5621309071814
 30
0.0
 41
1.428315806393635
  0
ELLIPSE
  5
ED
330
7E
100
AcDbEntity
  8
DV1_Default
  6
Continuous
 62
     7
100
AcDbEllipse
 10
41.9192520856
 20
573.4504544721
 30
0.0
 11
-0.04288568584274664
 21
0.1437387141627611
 31
0.0
210
0.0
220
0.0
230
1.0
 40
0.8094418028
 41
2.953446867544566
 42
3.164139032865467
  0
ELLIPSE
  5
EE
330
7E
100
AcDbEntity
  8
DV1_Default
  6
Continuous
 62
     7
100
AcDbEllipse
 10
39.0737608831
 20
573.1678828368
 30
0.0
 11
0.06687280702188242
 21
0.1342684910200787
 31
0.0
210
0.0
220
0.0
230
1.0
 40
0.175675715
 41
3.023737559328616
 42
3.373790786312687
  0
ELLIPSE
  5
EF
330
7E
100
AcDbEntity
  8
DV1_Default
  6
Continuous
 62
     7
100
AcDbEllipse
 10
37.8024720782
 20
574.3544275969
 30
0.0
 11
-0.03998977614429796
 21
0.144571151352163
 31
0.0
210
0.0
220
0.0
230
1.0
 40
0.3392809336
 41
3.039258789417978
 42
3.151267868004758
  0
ELLIPSE
  5
F0
330
7E
100
AcDbEntity
  8
DV1_Default
  6
Continuous
 62
     7
100
AcDbEllipse
 10
37.4291252307
 20
573.5200027827
 30
0.0
 11
0.05874393121499139
 21
0.1380186601340483
 31
0.0
210
0.0
220
0.0
230
1.0
 40
0.1045061636
 41
2.969882394623889
 42
3.388693591076319
  0
ELLIPSE
  5
F1
330
7E
100
AcDbEntity
  8
DV1_Default
  6
Continuous
 62
     7
100
AcDbEllipse
 10
34.7863462519
 20
574.519371905
 30
0.0
 11
-0.5008601533044734
 21
-8.032161741278188E-6
 31
0.0
210
0.0
220
0.0
230
1.0
 40
0.1736695825
 41
1.516918042290269
 42
3.139527312643836
  0
ELLIPSE
  5
F2
330
7E
100
AcDbEntity
  8
DV1_Default
  6
Continuous
 62
     7
100
AcDbEllipse
 10
35.2383659285
 20
573.7666372114
 30
0.0
 11
0.05527752127149976
 21
0.139443162764874
 31
0.0
210
0.0
220
0.0
230
1.0
 40
0.3812865078
 41
3.019701303713011
 42
3.509576761923275
  0
ELLIPSE
  5
F3
330
7E
100
AcDbEntity
  8
DV1_Default
  6
Continuous
 62
     7
100
AcDbEllipse
 10
31.85
 20
574.6001307335
 30
0.0
 11
0.5008528652620728
 21
0.0
 31
0.0
210
0.0
220
0.0
230
1.0
 40
0.1736746368
 41
3.867504199925119
 42
5.557278063903036
  0
ELLIPSE
  5
F4
330
7E
100
AcDbEntity
  8
DV1_Default
  6
Continuous
 62
     7
100
AcDbEllipse
 10
31.85
 20
574.5823810981
 30
0.0
 11
1.1
 21
0.0
 31
0.0
210
0.0
220
0.0
230
1.0
 40
0.1736481777
 41
4.72090271245577
 42
5.266276193786635
  0
SPLINE
  5
F5
330
7E
100
AcDbEntity
  8
DV1_Default
  6
Continuous
 62
     7
100
AcDbSpline
210
0.0
220
0.0
230
1.0
 70
    12
 71
     3
 72
     8
 73
     4
 74
     0
 42
0.000000001
 43
0.0000000001
 40
0.0
 40
0.0
 40
0.0
 40
0.0
 40
1.0
 40
1.0
 40
1.0
 40
1.0
 10
30.60520210454752
 20
573.7753152627712
 30
0.0
 41
1.464061997747067
 10
30.60153185841263
 20
573.7833843867363
 30
0.0
 41
1.464061997747067
 10
30.59981753661937
 20
573.7931128298414
 30
0.0
 41
1.464061997747067
 10
30.60002733932465
 20
573.8043637256908
 30
0.0
 41
1.464061997747067
  0
ELLIPSE
  5
F6
330
7E
100
AcDbEntity
  8
DV1_Default
  6
Continuous
 62
     7
100
AcDbEllipse
 10
28.9136537481
 20
574.519371905
 30
0.0
 11
0.500860153304473
 21
-8.032161741278188E-6
 31
0.0
210
0.0
220
0.0
230
1.0
 40
0.1736695825
 41
3.733005144366164
 42
4.752117965965629
  0
ELLIPSE
  5
F7
330
7E
100
AcDbEntity
  8
DV1_Default
  6
Continuous
 62
     7
100
AcDbEllipse
 10
28.4616346972
 20
573.7666374594
 30
0.0
 11
-0.05527753434984894
 21
0.1394431575824362
 31
0.0
210
0.0
220
0.0
230
1.0
 40
0.3812861065
 41
3.100173643284205
 42
3.258745305739037
  0
ELLIPSE
  5
F8
330
7E
100
AcDbEntity
  8
DV1_Default
  6
Continuous
 62
     7
100
AcDbEllipse
 10
26.2708754759
 20
573.5200030834
 30
0.0
 11
-0.05874395129012912
 21
0.1380186515914372
 31
0.0
210
0.0
220
0.0
230
1.0
 40
0.1045057197
 41
2.894491700947558
 42
3.325139972286517
  0
ELLIPSE
  5
F9
330
7E
100
AcDbEntity
  8
DV1_Default
  6
Continuous
 62
     7
100
AcDbEllipse
 10
24.6262397504
 20
573.1678831523
 30
0.0
 11
-0.06687283287232747
 21
0.1342684781475145
 31
0.0
210
0.0
220
0.0
230
1.0
 40
0.1756761029
 41
2.899171848672387
 42
3.2594477139477
  0
SPLINE
  5
FA
330
7E
100
AcDbEntity
  8
DV1_Default
  6
Continuous
 62
     7
100
AcDbSpline
210
0.0
220
0.0
230
1.0
 70
     8
 71
     3
 72
    14
 73
    10
 74
     0
 42
0.000000001
 43
0.0000000001
 40
0.0
 40
0.0
 40
0.0
 40
0.0
 40
0.110017561286235
 40
0.1980236774530787
 40
0.2858250846681352
 40
0.38028845471352
 40
0.5737540400393367
 40
0.7237750003402222
 40
1.0
 40
1.0
 40
1.0
 40
1.0
 10
24.58541740798693
 20
573.1929467433944
 30
0.0
 10
24.50628996709128
 20
573.1516964596976
 30
0.0
 10
24.36386627899594
 20
573.0774489234126
 30
0.0
 10
24.14604327340774
 20
572.9921319367938
 30
0.0
 10
23.93543075355019
 20
572.9394466928484
 30
0.0
 10
23.64650386486944
 20
572.9136348859234
 30
0.0
 10
23.34742918644697
 20
572.9870756184821
 30
0.0
 10
23.06043231810408
 20
573.2288593129084
 30
0.0
 10
23.02620337451679
 20
573.4338157728067
 30
0.0
 10
23.02977228494393
 20
573.5727362203619
 30
0.0
  0
ARC
  5
FB
330
7E
100
AcDbEntity
  8
DV1_Default
  6
Continuous
 62
     7
100
AcDbCircle
 10
40.7751038304
 20
573.9907608066
 30
0.0
 40
2.395004725579394
100
AcDbArc
 50
305.0425548656
 51
358.8701308704
  0
ARC
  5
FC
330
7E
100
AcDbEntity
  8
DV1_Default
  6
Continuous
 62
     7
100
AcDbCircle
 10
40.1627880196
 20
573.2196642277
 30
0.0
 40
1.972924927493014
100
AcDbArc
 50
284.5010544182
 51
294.1119927249
  0
ARC
  5
FD
330
7E
100
AcDbEntity
  8
DV1_Default
  6
Continuous
 62
     7
100
AcDbCircle
 10
38.1115610981
 20
574.8234602939
 30
0.0
 40
4.013242530531481
100
AcDbArc
 50
277.8589407095
 51
281.5738845415
  0
LINE
  5
FE
330
7E
100
AcDbEntity
  8
DV1_Default
  6
Continuous
 62
     7
100
AcDbLine
 10
36.1367274954
 20
570.5394898795
 30
0.0
 11
36.3801505166
 21
570.5597227364
 31
0.0
  0
LINE
  5
FF
330
7E
100
AcDbEntity
  8
DV1_Default
  6
Continuous
 62
     7
100
AcDbLine
 10
33.2443332842
 20
570.3833409863
 30
0.0
 11
33.4831450686
 21
570.3897968515
 31
0.0
  0
LINE
  5
100
330
7E
100
AcDbEntity
  8
DV1_Default
  6
Continuous
 62
     7
100
AcDbLine
 10
30.2092964501
 20
570.3892882361
 30
0.0
 11
30.4675399429
 21
570.3830951757
 31
0.0
  0
ARC
  5
101
330
7E
100
AcDbEntity
  8
DV1_Default
  6
Continuous
 62
     7
100
AcDbCircle
 10
28.0376631773
 20
577.686499281
 30
0.0
 40
7.163199633882265
100
AcDbArc
 50
264.2371313877
 51
266.1552853888
  0
ARC
  5
102
330
7E
100
AcDbEntity
  8
DV1_Default
  6
Continuous
 62
     7
100
AcDbCircle
 10
25.5733188763
 20
574.5769223297
 30
0.0
 40
3.767723700074503
100
AcDbArc
 50
257.9953292446
 51
261.8733308519
  0
ARC
  5
103
330
7E
100
AcDbEntity
  8
DV1_Default
  6
Continuous
 62
     7
100
AcDbCircle
 10
23.6693115957
 20
573.5760470718
 30
0.0
 40
2.35251684133773
100
AcDbArc
 50
246.4622499123
 51
254.567119207
  0
ARC
  5
104
330
7E
100
AcDbEntity
  8
DV1_Default
  6
Continuous
 62
     7
100
AcDbCircle
 10
22.9462439781
 20
574.0163275414
 30
0.0
 40
2.427115432778761
100
AcDbArc
 50
180.7599442483
 51
234.9141577001
  0
ARC
  5
105
330
7E
100
AcDbEntity
  8
DV1_Default
  6
Continuous
 62
     7
100
AcDbCircle
 10
38.9885982979
 20
571.3004884741
 30
0.0
 40
1.615419331850512
100
AcDbArc
 50
68.3085581744
 51
73.7106960512
  0
LINE
  5
106
330
7E
100
AcDbEntity
  8
DV1_Default
  6
Continuous
 62
     7
100
AcDbLine
 10
38.007692312
 20
573.1738188712
 30
0.0
 11
38.1910162217
 21
573.1425449615
 31
0.0
  0
LINE
  5
107
330
7E
100
AcDbEntity
  8
DV1_Default
  6
Continuous
 62
     7
100
AcDbLine
 10
35.8069247388
 20
573.4433604318
 30
0.0
 11
36.0112157439
 21
573.4244542696
 31
0.0
  0
ARC
  5
108
330
7E
100
AcDbEntity
  8
DV1_Default
  6
Continuous
 62
     7
100
AcDbCircle
 10
32.997573745
 20
565.326627803
 30
0.0
 40
8.262397295040133
100
AcDbArc
 50
87.4437219798
 51
88.8939687537
  0
LINE
  5
109
330
7E
100
AcDbEntity
  8
DV1_Default
  6
Continuous
 62
     7
100
AcDbLine
 10
30.3392570829
 20
573.5806490314
 30
0.0
 11
30.5446311827
 21
573.5875052775
 31
0.0
  0
LINE
  5
10A
330
7E
100
AcDbEntity
  8
DV1_Default
  6
Continuous
 62
     7
100
AcDbLine
 10
27.6947892961
 20
573.4250469121
 30
0.0
 11
27.8996392614
 21
573.4435170763
 31
0.0
  0
LINE
  5
10B
330
7E
100
AcDbEntity
  8
DV1_Default
  6
Continuous
 62
     7
100
AcDbLine
 10
25.50616437
 20
573.1432978913
 30
0.0
 11
25.6940665789
 21
573.1743084303
 31
0.0
  0
LINE
  5
10C
330
7E
100
AcDbEntity
  8
DV1_Default
  6
Continuous
 62
     7
100
AcDbLine
 10
24.111544502
 20
572.8015303247
 30
0.0
 11
24.2633298811
 21
572.8526115198
 31
0.0
  0
SPLINE
  5
10D
330
7E
100
AcDbEntity
  8
DV1_Default
  6
Continuous
 62
     7
100
AcDbSpline
210
0.0
220
0.0
230
1.0
 70
     8
 71
     3
 72
     8
 73
     4
 74
     0
 42
0.000000001
 43
0.0000000001
 40
0.0
 40
0.0
 40
0.0
 40
0.0
 40
1.0
 40
1.0
 40
1.0
 40
1.0
 10
23.61098566873491
 20
572.4556081136094
 30
0.0
 10
23.64345771016757
 20
572.4708162863599
 30
0.0
 10
23.67164963412969
 20
572.4851952861553
 30
0.0
 10
23.69479516155285
 20
572.498011547125
 30
0.0
  0
SPLINE
  5
10E
330
7E
100
AcDbEntity
  8
DV1_Default
  6
Continuous
 62
     7
100
AcDbSpline
210
0.0
220
0.0
230
1.0
 70
     8
 71
     3
 72
     8
 73
     4
 74
     0
 42
0.000000001
 43
0.0000000001
 40
0.0
 40
0.0
 40
0.0
 40
0.0
 40
1.0
 40
1.0
 40
1.0
 40
1.0
 10
21.65876025750113
 20
573.3158421462546
 30
0.0
 10
21.65695886970555
 20
573.320738869998
 30
0.0
 10
21.68267132241673
 20
573.3179130989523
 30
0.0
 10
21.73589761563466
 20
573.3073648331175
 30
0.0
  0
SPLINE
  5
10F
330
7E
100
AcDbEntity
  8
DV1_Default
  6
Continuous
 62
     7
100
AcDbSpline
210
0.0
220
0.0
230
1.0
 70
     8
 71
     3
 72
    13
 73
     9
 74
     0
 42
0.000000001
 43
0.0000000001
 40
0.0
 40
0.0
 40
0.0
 40
0.0
 40
0.2081431100701056
 40
0.381988325504386
 40
0.6144971314041142
 40
0.743633750002144
 40
0.9191083716999702
 40
1.0
 40
1.0
 40
1.0
 40
1.0
 10
21.74873082932562
 20
573.305778013854
 30
0.0
 10
21.85413622070316
 20
573.2641172994038
 30
0.0
 10
22.02412805771944
 20
573.1984100808639
 30
0.0
 10
22.41073336880063
 20
573.0188842659239
 30
0.0
 10
22.79800144020183
 20
572.8754080087435
 30
0.0
 10
23.20327719891704
 20
572.7710733875126
 30
0.0
 10
23.50517152131184
 20
572.7288880377341
 30
0.0
 10
23.66237131092552
 20
572.7322217451214
 30
0.0
 10
23.71995435857288
 20
572.7338745662656
 30
0.0
  0
ARC
  5
110
330
7E
100
AcDbEntity
  8
DV1_Default
  6
Continuous
 62
     7
100
AcDbCircle
 10
22.6017100447
 20
574.898841343
 30
0.0
 40
2.641189071286396
100
AcDbArc
 50
235.0520769199
 51
291.9860498684
  0
SPLINE
  5
111
330
7E
100
AcDbEntity
  8
DV1_Default
  6
Continuous
 62
     7
100
AcDbSpline
210
0.0
220
0.0
230
1.0
 70
     8
 71
     3
 72
    11
 73
     7
 74
     0
 42
0.000000001
 43
0.0000000001
 40
0.0
 40
0.0
 40
0.0
 40
0.0
 40
0.3106265063557014
 40
0.5793811813531514
 40
0.8072611095602358
 40
1.0
 40
1.0
 40
1.0
 40
1.0
 10
23.74246935703735
 20
572.0000033505846
 30
0.0
 10
23.81758599154049
 20
572.0308030827252
 30
0.0
 10
23.93472136430815
 20
572.0780586644814
 30
0.0
 10
24.06967908813674
 20
572.1287384777418
 30
0.0
 10
24.14818666024498
 20
572.1463644012616
 30
0.0
 10
24.16264482194327
 20
572.1440124887303
 30
0.0
 10
24.16958779996503
 20
572.142222521239
 30
0.0
  0
LINE
  5
112
330
7E
100
AcDbEntity
  8
DV1_Default
  6
Continuous
 62
     7
100
AcDbLine
 10
24.165288209
 20
572.1350615863
 30
0.0
 11
24.1600684548
 21
572.1287896271
 31
0.0
  0
SPLINE
  5
113
330
7E
100
AcDbEntity
  8
DV1_Default
  6
Continuous
 62
     7
100
AcDbSpline
210
0.0
220
0.0
230
1.0
 70
     8
 71
     3
 72
    11
 73
     7
 74
     0
 42
0.000000001
 43
0.0000000001
 40
0.0
 40
0.0
 40
0.0
 40
0.0
 40
0.310093687733799
 40
0.5789824387293828
 40
0.8075529137670894
 40
1.0
 40
1.0
 40
1.0
 40
1.0
 10
24.67754312053087
 20
571.5758584627182
 30
0.0
 10
24.76704619098498
 20
571.6118068393637
 30
0.0
 10
24.90832374927905
 20
571.6670150799637
 30
0.0
 10
25.10151447491737
 20
571.7291108943506
 30
0.0
 10
25.24879462291089
 20
571.7540234306177
 30
0.0
 10
25.3122480856659
 20
571.7452713956459
 30
0.0
 10
25.34571115501116
 20
571.7400007485533
 30
0.0
  0
SPLINE
  5
114
330
7E
100
AcDbEntity
  8
DV1_Default
  6
Continuous
 62
     7
100
AcDbSpline
210
0.0
220
0.0
230
1.0
 70
     8
 71
     3
 72
     8
 73
     4
 74
     0
 42
0.000000001
 43
0.0000000001
 40
0.0
 40
0.0
 40
0.0
 40
0.0
 40
1.0
 40
1.0
 40
1.0
 40
1.0
 10
25.3415467326679
 20
571.7410092109503
 30
0.0
 10
25.42418737481072
 20
571.7233561602584
 30
0.0
 10
25.47477583105793
 20
571.6601406596164
 30
0.0
 10
25.49331210140954
 20
571.5513627090243
 30
0.0
  0
SPLINE
  5
115
330
7E
100
AcDbEntity
  8
DV1_Default
  6
Continuous
 62
     7
100
AcDbSpline
210
0.0
220
0.0
230
1.0
 70
     8
 71
     3
 72
    10
 73
     6
 74
     0
 42
0.000000001
 43
0.0000000001
 40
0.0
 40
0.0
 40
0.0
 40
0.0
 40
0.3721330587907258
 40
0.931382553660408
 40
0.9999999999999999
 40
0.9999999999999999
 40
0.9999999999999999
 40
0.9999999999999999
 10
23.76334751274375
 20
571.2975828808416
 30
0.0
 10
23.86777261623493
 20
571.2420438117034
 30
0.0
 10
24.1480343763849
 20
571.0971508079955
 30
0.0
 10
24.47635830314362
 20
570.9436657857846
 30
0.0
 10
24.65722573858656
 20
570.9237417792741
 30
0.0
 10
24.68011734913573
 20
570.9212321491967
 30
0.0
  0
SPLINE
  5
116
330
7E
100
AcDbEntity
  8
DV1_Default
  6
Continuous
 62
     7
100
AcDbSpline
210
0.0
220
0.0
230
1.0
 70
     8
 71
     3
 72
    10
 73
     6
 74
     0
 42
0.000000001
 43
0.0000000001
 40
0.0
 40
0.0
 40
0.0
 40
0.0
 40
0.515011629546967
 40
0.7611177202689743
 40
1.0
 40
1.0
 40
1.0
 40
1.0
 10
26.32600094820628
 20
571.225138275068
 30
0.0
 10
26.48127677820589
 20
571.293363860907
 30
0.0
 10
26.67538291468525
 20
571.3736510184193
 30
0.0
 10
26.95427029635766
 20
571.438700251419
 30
0.0
 10
27.06786252139327
 20
571.4334557729528
 30
0.0
 10
27.13343830267299
 20
571.4298231444976
 30
0.0
  0
ARC
  5
117
330
7E
100
AcDbEntity
  8
DV1_Default
  6
Continuous
 62
     7
100
AcDbCircle
 10
27.0644804273
 20
570.9205727615
 30
0.0
 40
0.5138949770935862
100
AcDbArc
 50
22.9474543053
 51
83.1429510645
  0
SPLINE
  5
118
330
7E
100
AcDbEntity
  8
DV1_Default
  6
Continuous
 62
     7
100
AcDbSpline
210
0.0
220
0.0
230
1.0
 70
     8
 71
     3
 72
    11
 73
     7
 74
     0
 42
0.000000001
 43
0.0000000001
 40
0.0
 40
0.0
 40
0.0
 40
0.0
 40
0.2695486394068273
 40
0.5095867319830952
 40
0.8827493562792134
 40
1.0
 40
1.0
 40
1.0
 40
1.0
 10
25.85193874580868
 20
571.111173676092
 30
0.0
 10
25.98936924687034
 20
571.0511035908452
 30
0.0
 10
26.21223480278941
 20
570.9542769175554
 30
0.0
 10
26.62473259305687
 20
570.7611354237578
 30
0.0
 10
26.96466896167316
 20
570.6168088209018
 30
0.0
 10
27.14746145681343
 20
570.5944440351483
 30
0.0
 10
27.1979842390726
 20
570.588414139753
 30
0.0
  0
LINE
  5
119
330
7E
100
AcDbEntity
  8
DV1_Default
  6
Continuous
 62
     7
100
AcDbLine
 10
27.5513498492
 20
571.1014661801
 30
0.0
 11
27.5747886299
 21
570.9736815035
 31
0.0
  0
ARC
  5
11A
330
7E
100
AcDbEntity
  8
DV1_Default
  6
Continuous
 62
     7
100
AcDbCircle
 10
28.4182851438
 20
569.2966322967
 30
0.0
 40
1.641257697655938
100
AcDbArc
 50
72.631418909
 51
86.9366737126
  0
ARC
  5
11B
330
7E
100
AcDbEntity
  8
DV1_Default
  6
Continuous
 62
     7
100
AcDbCircle
 10
28.4189451972
 20
569.7763249024
 30
0.0
 40
1.16252834256541
100
AcDbArc
 50
85.5877470006
 51
89.1627656603
  0
SPLINE
  5
11C
330
7E
100
AcDbEntity
  8
DV1_Default
  6
Continuous
 62
     7
100
AcDbSpline
210
0.0
220
0.0
230
1.0
 70
     8
 71
     3
 72
     8
 73
     4
 74
     0
 42
0.000000001
 43
0.0000000001
 40
0.0
 40
0.0
 40
0.0
 40
0.0
 40
1.0
 40
1.0
 40
1.0
 40
1.0
 10
27.56324523695729
 20
570.5389688757715
 30
0.0
 10
27.57331391153713
 20
570.5393241279094
 30
0.0
 10
27.59053187726562
 20
570.5418983775554
 30
0.0
 10
27.61489913414275
 20
570.5466916247094
 30
0.0
  0
SPLINE
  5
11D
330
7E
100
AcDbEntity
  8
DV1_Default
  6
Continuous
 62
     7
100
AcDbSpline
210
0.0
220
0.0
230
1.0
 70
     8
 71
     3
 72
    11
 73
     7
 74
     0
 42
0.000000001
 43
0.0000000001
 40
0.0
 40
0.0
 40
0.0
 40
0.0
 40
0.2544604489963976
 40
0.5083633112212992
 40
0.7576283140559158
 40
1.0
 40
1.0
 40
1.0
 40
1.0
 10
27.56955730563285
 20
570.5422686127498
 30
0.0
 10
27.59648427097953
 20
570.5398018326453
 30
0.0
 10
27.64916963113801
 20
570.5397745222393
 30
0.0
 10
27.88178223608537
 20
570.6379392281538
 30
0.0
 10
28.19079274274254
 20
570.8013743253773
 30
0.0
 10
28.40662752630242
 20
570.917542814283
 30
0.0
 10
28.53182281855595
 20
570.9855751927436
 30
0.0
  0
SPLINE
  5
11E
330
7E
100
AcDbEntity
  8
DV1_Default
  6
Continuous
 62
     7
100
AcDbSpline
210
0.0
220
0.0
230
1.0
 70
     8
 71
     3
 72
    10
 73
     6
 74
     0
 42
0.000000001
 43
0.0000000001
 40
0.0
 40
0.0
 40
0.0
 40
0.0
 40
0.5129807040139694
 40
0.7595711060031176
 40
1.0
 40
1.0
 40
1.0
 40
1.0
 10
28.52630813453714
 20
570.9826571694956
 30
0.0
 10
28.67552115579447
 20
571.0590565396988
 30
0.0
 10
28.86381706258413
 20
571.1498642370027
 30
0.0
 10
29.16537023627171
 20
571.2303084041987
 30
0.0
 10
29.29768929299244
 20
571.2316663776706
 30
0.0
 10
29.3746135527192
 20
571.2318389390479
 30
0.0
  0
ARC
  5
11F
330
7E
100
AcDbEntity
  8
DV1_Default
  6
Continuous
 62
     7
100
AcDbCircle
 10
29.2932219014
 20
570.2807060881
 30
0.0
 40
0.9543827225590291
100
AcDbArc
 50
41.9820688314
 51
85.6866149715
  0
SPLINE
  5
120
330
7E
100
AcDbEntity
  8
DV1_Default
  6
Continuous
 62
     7
100
AcDbSpline
210
0.0
220
0.0
230
1.0
 70
     8
 71
     3
 72
    10
 73
     6
 74
     0
 42
0.000000001
 43
0.0000000001
 40
0.0
 40
0.0
 40
0.0
 40
0.0
 40
0.4367783383103249
 40
0.9048924152023836
 40
1.0
 40
1.0
 40
1.0
 40
1.0
 10
28.90495696811767
 20
570.866533618588
 30
0.0
 10
29.07042907914392
 20
570.802473381158
 30
0.0
 10
29.35755469591051
 20
570.6971127352751
 30
0.0
 10
29.69118247779788
 20
570.5368428714837
 30
0.0
 10
29.83650052584397
 20
570.494999445095
 30
0.0
 10
29.86090337498908
 20
570.4885952797703
 30
0.0
  0
ARC
  5
121
330
7E
100
AcDbEntity
  8
DV1_Default
  6
Continuous
 62
     7
100
AcDbCircle
 10
31.8651438386
 20
569.3247418382
 30
0.0
 40
1.518887373012713
100
AcDbArc
 50
75.2616043171
 51
90.5712727057
  0
ARC
  5
122
330
7E
100
AcDbEntity
  8
DV1_Default
  6
Continuous
 62
     7
100
AcDbCircle
 10
31.8351785819
 20
569.3229265172
 30
0.0
 40
1.520724255368409
100
AcDbArc
 50
89.3476169429
 51
104.732356283
  0
ARC
  5
123
330
7E
100
AcDbEntity
  8
DV1_Default
  6
Continuous
 62
     7
100
AcDbCircle
 10
32.5146203462
 20
568.6429274185
 30
0.0
 40
2.661393066166315
100
AcDbArc
 50
122.9460135864
 51
137.8753648369
  0
SPLINE
  5
124
330
7E
100
AcDbEntity
  8
DV1_Default
  6
Continuous
 62
     7
100
AcDbSpline
210
0.0
220
0.0
230
1.0
 70
     8
 71
     3
 72
    11
 73
     7
 74
     0
 42
0.000000001
 43
0.0000000001
 40
0.0
 40
0.0
 40
0.0
 40
0.0
 40
0.0503950238411062
 40
0.3794241336799944
 40
0.6964376360382001
 40
1.0
 40
1.0
 40
1.0
 40
1.0
 10
30.48832422597809
 20
570.3907008646826
 30
0.0
 10
30.49525848922321
 20
570.3916735412278
 30
0.0
 10
30.54082623355072
 20
570.3983645049058
 30
0.0
 10
30.73111874194177
 20
570.4877282661157
 30
0.0
 10
31.06042500321082
 20
570.6593858846602
 30
0.0
 10
31.32354905172713
 20
570.7498455248774
 30
0.0
 10
31.47484776812986
 20
570.8023911326409
 30
0.0
  0
ARC
  5
125
330
7E
100
AcDbEntity
  8
DV1_Default
  6
Continuous
 62
     7
100
AcDbCircle
 10
31.9081906179
 20
569.7950085878
 30
0.0
 40
1.369923872100917
100
AcDbArc
 50
92.2194243278
 51
127.9734874754
  0
ARC
  5
126
330
7E
100
AcDbEntity
  8
DV1_Default
  6
Continuous
 62
     7
100
AcDbCircle
 10
31.7926435306
 20
569.7986298062
 30
0.0
 40
1.366272947290701
100
AcDbArc
 50
52.1596571293
 51
87.8098172508
  0
SPLINE
  5
127
330
7E
100
AcDbEntity
  8
DV1_Default
  6
Continuous
 62
     7
100
AcDbSpline
210
0.0
220
0.0
230
1.0
 70
     8
 71
     3
 72
    11
 73
     7
 74
     0
 42
0.000000001
 43
0.0000000001
 40
0.0
 40
0.0
 40
0.0
 40
0.0
 40
0.2997972317903193
 40
0.6125017764506062
 40
0.9373013132078001
 40
1.0
 40
1.0
 40
1.0
 40
1.0
 10
32.24143826916978
 20
570.7979250610757
 30
0.0
 10
32.39109442515236
 20
570.7448371131161
 30
0.0
 10
32.65092451064233
 20
570.6536724828653
 30
0.0
 10
32.97727641002952
 20
570.4835154461691
 30
0.0
 10
33.16730938393158
 20
570.3956224285143
 30
0.0
 10
33.21312966296642
 20
570.3902159231218
 30
0.0
 10
33.22159408501897
 20
570.389296313709
 30
0.0
  0
ARC
  5
128
330
7E
100
AcDbEntity
  8
DV1_Default
  6
Continuous
 62
     7
100
AcDbCircle
 10
31.1660771602
 20
568.6174960868
 30
0.0
 40
2.693239849638723
100
AcDbArc
 50
42.2551103685
 51
56.9995914566
  0
SPLINE
  5
129
330
7E
100
AcDbEntity
  8
DV1_Default
  6
Continuous
 62
     7
100
AcDbSpline
210
0.0
220
0.0
230
1.0
 70
     8
 71
     3
 72
     8
 73
     4
 74
     0
 42
0.000000001
 43
0.0000000001
 40
0.0
 40
0.0
 40
0.0
 40
0.0
 40
1.0
 40
1.0
 40
1.0
 40
1.0
 10
33.19450294389262
 20
570.3947271751019
 30
0.0
 10
33.22735274668587
 20
570.3862442482299
 30
0.0
 10
33.24507288694184
 20
570.3829184282474
 30
0.0
 10
33.24766336466052
 20
570.3847497151546
 30
0.0
  0
SPLINE
  5
12A
330
7E
100
AcDbEntity
  8
DV1_Default
  6
Continuous
 62
     7
100
AcDbSpline
210
0.0
220
0.0
230
1.0
 70
     8
 71
     3
 72
     8
 73
     4
 74
     0
 42
0.000000001
 43
0.0000000001
 40
0.0
 40
0.0
 40
0.0
 40
0.0
 40
1.0
 40
1.0
 40
1.0
 40
1.0
 10
33.18053149008139
 20
570.4280431707275
 30
0.0
 10
33.16840990515691
 20
570.4315663312406
 30
0.0
 10
33.15813643274971
 20
570.4347412313067
 30
0.0
 10
33.14864496680826
 20
570.4403016895246
 30
0.0
  0
ARC
  5
12B
330
7E
100
AcDbEntity
  8
DV1_Default
  6
Continuous
 62
     7
100
AcDbCircle
 10
35.281453189
 20
569.7795761795
 30
0.0
 40
1.159271448267563
100
AcDbArc
 50
90.8825274877
 51
94.3260832843
  0
ARC
  5
12C
330
7E
100
AcDbEntity
  8
DV1_Default
  6
Continuous
 62
     7
100
AcDbCircle
 10
35.2817972682
 20
569.2962527555
 30
0.0
 40
1.641646006182166
100
AcDbArc
 50
92.9843744208
 51
107.3675567725
  0
SPLINE
  5
12D
330
7E
100
AcDbEntity
  8
DV1_Default
  6
Continuous
 62
     7
100
AcDbSpline
210
0.0
220
0.0
230
1.0
 70
     8
 71
     3
 72
    10
 73
     6
 74
     0
 42
0.000000001
 43
0.0000000001
 40
0.0
 40
0.0
 40
0.0
 40
0.0
 40
0.0688765147393066
 40
0.5141536402349697
 40
1.0
 40
1.0
 40
1.0
 40
1.0
 10
33.7178190959843
 20
570.4486805941496
 30
0.0
 10
33.7385055593042
 20
570.4520693989821
 30
0.0
 10
33.87198102064304
 20
570.4735426970981
 30
0.0
 10
34.25555446220579
 20
570.661714024373
 30
0.0
 10
34.59782195663031
 20
570.7865007127906
 30
0.0
 10
34.81212535088427
 20
570.8719803228972
 30
0.0
  0
ARC
  5
12E
330
7E
100
AcDbEntity
  8
DV1_Default
  6
Continuous
 62
     7
100
AcDbCircle
 10
34.4067924543
 20
570.280677197
 30
0.0
 40
0.9544128005268705
100
AcDbArc
 50
94.3143151508
 51
138.0172998526
  0
SPLINE
  5
12F
330
7E
100
AcDbEntity
  8
DV1_Default
  6
Continuous
 62
     7
100
AcDbSpline
210
0.0
220
0.0
230
1.0
 70
     8
 71
     3
 72
    10
 73
     6
 74
     0
 42
0.000000001
 43
0.0000000001
 40
0.0
 40
0.0
 40
0.0
 40
0.0
 40
0.2405114686108086
 40
0.4870813442948638
 40
1.0
 40
1.0
 40
1.0
 40
1.0
 10
34.32538314048686
 20
571.23183859897
 30
0.0
 10
34.40233437129307
 20
571.2316662537587
 30
0.0
 10
34.53467157203847
 20
571.2303085906531
 30
0.0
 10
34.83622185606947
 20
571.1498448563491
 30
0.0
 10
35.02449756995531
 20
571.0590470528894
 30
0.0
 10
35.17369323879124
 20
570.9826564095006
 30
0.0
  0
SPLINE
  5
130
330
7E
100
AcDbEntity
  8
DV1_Default
  6
Continuous
 62
     7
100
AcDbSpline
210
0.0
220
0.0
230
1.0
 70
     8
 71
     3
 72
    10
 73
     6
 74
     0
 42
0.000000001
 43
0.0000000001
 40
0.0
 40
0.0
 40
0.0
 40
0.0
 40
0.277255719599254
 40
0.6382419024216888
 40
1.0
 40
1.0
 40
1.0
 40
1.0
 10
35.5535861920965
 20
570.7792423784955
 30
0.0
 10
35.64392225667854
 20
570.7309981390327
 30
0.0
 10
35.81901803399645
 20
570.6382027428627
 30
0.0
 10
36.04278200600208
 20
570.5421200606875
 30
0.0
 10
36.09783382297419
 20
570.5402421020957
 30
0.0
 10
36.12666840176158
 20
570.5413931138695
 30
0.0
  0
ARC
  5
131
330
7E
100
AcDbEntity
  8
DV1_Default
  6
Continuous
 62
     7
100
AcDbCircle
 10
46.4245925292
 20
591.5877154472
 30
0.0
 40
23.47703836163625
100
AcDbArc
 50
241.3046962413
 51
242.4160056572
  0
SPLINE
  5
132
330
7E
100
AcDbEntity
  8
DV1_Default
  6
Continuous
 62
     7
100
AcDbSpline
210
0.0
220
0.0
230
1.0
 70
     8
 71
     3
 72
     8
 73
     4
 74
     0
 42
0.000000001
 43
0.0000000001
 40
0.0
 40
0.0
 40
0.0
 40
0.0
 40
0.9999999999999999
 40
0.9999999999999999
 40
0.9999999999999999
 40
0.9999999999999999
 10
36.08396815767555
 20
570.5459046184311
 30
0.0
 10
36.11590168621528
 20
570.5392785039758
 30
0.0
 10
36.13726287684425
 20
570.5371093153158
 30
0.0
 10
36.14805172956247
 20
570.539397052451
 30
0.0
  0
SPLINE
  5
133
330
7E
100
AcDbEntity
  8
DV1_Default
  6
Continuous
 62
     7
100
AcDbSpline
210
0.0
220
0.0
230
1.0
 70
     8
 71
     3
 72
    11
 73
     7
 74
     0
 42
0.000000001
 43
0.0000000001
 40
0.0
 40
0.0
 40
0.0
 40
0.0
 40
0.1929134610675422
 40
0.5621795093170875
 40
0.7997272321995552
 40
1.0
 40
1.0
 40
1.0
 40
1.0
 10
36.42363832021979
 20
570.5763863121065
 30
0.0
 10
36.50742509421781
 20
570.5862166304127
 30
0.0
 10
36.71914638579091
 20
570.6123240782845
 30
0.0
 10
37.09168201341469
 20
570.7675980328659
 30
0.0
 10
37.47354536051559
 20
570.9481003816315
 30
0.0
 10
37.66849164474066
 20
571.0329519074123
 30
0.0
 10
37.76533533821312
 20
571.0748465146771
 30
0.0
  0
LINE
  5
134
330
7E
100
AcDbEntity
  8
DV1_Default
  6
Continuous
 62
     7
100
AcDbLine
 10
36.1251716421
 20
570.9698633389
 30
0.0
 11
36.14602371
 21
571.0986898788
 31
0.0
  0
ARC
  5
135
330
7E
100
AcDbEntity
  8
DV1_Default
  6
Continuous
 62
     7
100
AcDbCircle
 10
36.6355320291
 20
570.920556009
 30
0.0
 40
0.5139131897528194
100
AcDbArc
 50
96.8583398502
 51
157.0515513721
  0
SPLINE
  5
136
330
7E
100
AcDbEntity
  8
DV1_Default
  6
Continuous
 62
     7
100
AcDbSpline
210
0.0
220
0.0
230
1.0
 70
     8
 71
     3
 72
    10
 73
     6
 74
     0
 42
0.000000001
 43
0.0000000001
 40
0.0
 40
0.0
 40
0.0
 40
0.0
 40
0.2389642743475237
 40
0.4850500401939527
 40
1.0
 40
1.0
 40
1.0
 40
1.0
 10
36.56656059458012
 20
571.4298228456754
 30
0.0
 10
36.63215967102411
 20
571.4334569966069
 30
0.0
 10
36.74576802708867
 20
571.4387026603132
 30
0.0
 10
37.02465543085648
 20
571.3736337634641
 30
0.0
 10
37.21874201624777
 20
571.2933553729271
 30
0.0
 10
37.37400069497527
 20
571.2251375370745
 30
0.0
  0
SPLINE
  5
137
330
7E
100
AcDbEntity
  8
DV1_Default
  6
Continuous
 62
     7
100
AcDbSpline
210
0.0
220
0.0
230
1.0
 70
     8
 71
     3
 72
    12
 73
     8
 74
     0
 42
0.000000001
 43
0.0000000001
 40
0.0
 40
0.0
 40
0.0
 40
0.0
 40
0.0962839568476776
 40
0.3291065513560695
 40
0.6195379874053086
 40
0.9635335853633226
 40
1.0
 40
1.0
 40
1.0
 40
1.0
 10
38.70101661827101
 20
570.8791025636681
 30
0.0
 10
38.74036361887465
 20
570.8760217822021
 30
0.0
 10
38.85633472210944
 20
570.8674879523116
 30
0.0
 10
39.12734105869076
 20
570.9361497269665
 30
0.0
 10
39.49261577537374
 20
571.0643826927869
 30
0.0
 10
39.77680649712596
 20
571.2114078356581
 30
0.0
 10
39.92238238046118
 20
571.2889665484671
 30
0.0
 10
39.93622252947338
 20
571.2963634505701
 30
0.0
  0
SPLINE
  5
138
330
7E
100
AcDbEntity
  8
DV1_Default
  6
Continuous
 62
     7
100
AcDbSpline
210
0.0
220
0.0
230
1.0
 70
     8
 71
     3
 72
     8
 73
     4
 74
     0
 42
0.000000001
 43
0.0000000001
 40
0.0
 40
0.0
 40
0.0
 40
0.0
 40
1.0
 40
1.0
 40
1.0
 40
1.0
 10
38.206687190544
 20
571.551369819615
 30
0.0
 10
38.22523968808861
 20
571.6601648182177
 30
0.0
 10
38.27582937781538
 20
571.7233782052964
 30
0.0
 10
38.35845625972432
 20
571.7410099808513
 30
0.0
  0
SPLINE
  5
139
330
7E
100
AcDbEntity
  8
DV1_Default
  6
Continuous
 62
     7
100
AcDbSpline
210
0.0
220
0.0
230
1.0
 70
     8
 71
     3
 72
    11
 73
     7
 74
     0
 42
0.000000001
 43
0.0000000001
 40
0.0
 40
0.0
 40
0.0
 40
0.0
 40
0.1925270395402048
 40
0.421085781498211
 40
0.6899552831773222
 40
1.0
 40
1.0
 40
1.0
 40
1.0
 10
38.35429202388093
 20
571.7400013753143
 30
0.0
 10
38.38777164465559
 20
571.745273631992
 30
0.0
 10
38.45124075634017
 20
571.7540259065798
 30
0.0
 10
38.59852969899858
 20
571.7290970907568
 30
0.0
 10
38.79170796424921
 20
571.6670003169899
 30
0.0
 10
38.93296886363788
 20
571.6117995851127
 30
0.0
 10
39.02245842942876
 20
571.5758578490584
 30
0.0
  0
LINE
  5
13A
330
7E
100
AcDbEntity
  8
DV1_Default
  6
Continuous
 62
     7
100
AcDbLine
 10
39.5399303211
 20
572.1288079932
 30
0.0
 11
39.5347147719
 21
572.1350757182
 31
0.0
  0
SPLINE
  5
13B
330
7E
100
AcDbEntity
  8
DV1_Default
  6
Continuous
 62
     7
100
AcDbSpline
210
0.0
220
0.0
230
1.0
 70
     8
 71
     3
 72
    11
 73
     7
 74
     0
 42
0.000000001
 43
0.0000000001
 40
0.0
 40
0.0
 40
0.0
 40
0.0
 40
0.1928166736818084
 40
0.4206858575788562
 40
0.689421827015663
 40
1.0
 40
1.0
 40
1.0
 40
1.0
 10
39.53042282238185
 20
572.1422284048565
 30
0.0
 10
39.53737455439236
 20
572.1440188111116
 30
0.0
 10
39.55184696536188
 20
572.1463707190998
 30
0.0
 10
39.63035210010923
 20
572.12872588689
 30
0.0
 10
39.76530653574642
 20
572.0780456484846
 30
0.0
 10
39.88242700838178
 20
572.030796560844
 30
0.0
 10
39.95753200443524
 20
572.0000028252441
 30
0.0
  0
ARC
  5
13C
330
7E
100
AcDbEntity
  8
DV1_Default
  6
Continuous
 62
     7
100
AcDbCircle
 10
41.0982943968
 20
574.9029534057
 30
0.0
 40
2.644316649804884
100
AcDbArc
 50
253.9817808477
 51
304.8029015895
  0
SPLINE
  5
13D
330
7E
100
AcDbEntity
  8
DV1_Default
  6
Continuous
 62
     7
100
AcDbSpline
210
0.0
220
0.0
230
1.0
 70
     8
 71
     3
 72
     8
 73
     4
 74
     0
 42
0.000000001
 43
0.0000000001
 40
0.0
 40
0.0
 40
0.0
 40
0.0
 40
1.0
 40
1.0
 40
1.0
 40
1.0
 10
40.06633308533945
 20
572.4667260135972
 30
0.0
 10
40.07365245536368
 20
572.4630655245721
 30
0.0
 10
40.08122085110575
 20
572.4593577606445
 30
0.0
 10
40.08901502596256
 20
572.455607819314
 30
0.0
  0
SPLINE
  5
13E
330
7E
100
AcDbEntity
  8
DV1_Default
  6
Continuous
 62
     7
100
AcDbSpline
210
0.0
220
0.0
230
1.0
 70
     8
 71
     3
 72
     8
 73
     4
 74
     0
 42
0.000000001
 43
0.0000000001
 40
0.0
 40
0.0
 40
0.0
 40
0.0
 40
1.0
 40
1.0
 40
1.0
 40
1.0
 10
41.96407736179693
 20
573.3073563427196
 30
0.0
 10
42.0172232779703
 20
573.3179611481831
 30
0.0
 10
42.04305042156942
 20
573.3207235786316
 30
0.0
 10
42.04155879259427
 20
573.3156436340649
 30
0.0
  0
LINE
  5
13F
330
7E
100
AcDbEntity
  8
DV1_Default
  6
Continuous
 62
     7
100
AcDbLine
 10
42.0584301153
 20
573.2426929913
 30
0.0
 11
42.0288429913
 21
573.2144306773
 31
0.0
  0
SPLINE
  5
140
330
7E
100
AcDbEntity
  8
DV1_Default
  6
Continuous
 62
     7
100
AcDbSpline
210
0.0
220
0.0
230
1.0
 70
     8
 71
     3
 72
    14
 73
    10
 74
     0
 42
0.000000001
 43
0.0000000001
 40
0.0
 40
0.0
 40
0.0
 40
0.0
 40
0.0011750334883272
 40
0.14174026173271
 40
0.2440359382504827
 40
0.3721752186539
 40
0.5432564363406123
 40
0.7545658040576102
 40
1.0
 40
1.0
 40
1.0
 40
1.0
 10
39.97220934467298
 20
572.7319768048404
 30
0.0
 10
39.97293474025754
 20
572.731867033944
 30
0.0
 10
40.04849401138371
 20
572.7204377637516
 30
0.0
 10
40.23892241208176
 20
572.7370431903009
 30
0.0
 10
40.50786233364309
 20
572.7756603226311
 30
0.0
 10
40.815107940177
 20
572.8512612125118
 30
0.0
 10
41.1868708676535
 20
572.977168006302
 30
0.0
 10
41.60551516204003
 20
573.1655152235371
 30
0.0
 10
41.815264019542
 20
573.2498939548102
 30
0.0
 10
41.94258017369661
 20
573.3029781018689
 30
0.0
  0
ARC
  5
141
330
7E
100
AcDbEntity
  8
DV1_Default
  6
Continuous
 62
     7
100
AcDbCircle
 10
40.4475562589
 20
573.3480166123
 30
0.0
 40
0.4855171403648778
100
AcDbArc
 50
78.2120499293
 51
106.2540068621
  0
LINE
  5
142
330
7E
100
AcDbEntity
  8
DV1_Default
  6
Continuous
 62
     7
100
AcDbLine
 10
40.5445896943
 20
573.8238026039
 30
0.0
 11
40.6607263534
 21
573.7565873104
 31
0.0
  0
ARC
  5
143
330
7E
100
AcDbEntity
  8
DV1_Default
  6
Continuous
 62
     7
100
AcDbCircle
 10
40.1964362128
 20
575.2549693397
 30
0.0
 40
2.51563172102906
100
AcDbArc
 50
241.9657587084
 51
257.5252083383
  0
LINE
  5
144
330
7E
100
AcDbEntity
  8
DV1_Default
  6
Continuous
 62
     7
100
AcDbLine
 10
40.6743008358
 20
573.7418612819
 30
0.0
 11
40.7047628056
 21
573.5946978611
 31
0.0
  0
SPLINE
  5
145
330
7E
100
AcDbEntity
  8
DV1_Default
  6
Continuous
 62
     7
100
AcDbSpline
210
0.0
220
0.0
230
1.0
 70
     8
 71
     3
 72
    12
 73
     8
 74
     0
 42
0.000000001
 43
0.0000000001
 40
0.0
 40
0.0
 40
0.0
 40
0.0
 40
0.2291186193939871
 40
0.3714872616818806
 40
0.5495681032119144
 40
0.7609980084940821
 40
1.0
 40
1.0
 40
1.0
 40
1.0
 10
38.40623120535318
 20
573.1381599236593
 30
0.0
 10
38.55018102413258
 20
573.1601015678677
 30
0.0
 10
38.7531133886526
 20
573.1928767350532
 30
0.0
 10
39.12601202079467
 20
573.3242664612228
 30
0.0
 10
39.48761616705176
 20
573.4730220187267
 30
0.0
 10
39.91281296170924
 20
573.6742035343511
 30
0.0
 10
40.16212630867184
 20
573.7616888605395
 30
0.0
 10
40.3143007950282
 20
573.8158566315527
 30
0.0
  0
ARC
  5
146
330
7E
100
AcDbEntity
  8
DV1_Default
  6
Continuous
 62
     7
100
AcDbCircle
 10
38.0721118885
 20
573.3846259362
 30
0.0
 40
0.8565990535746743
100
AcDbArc
 50
83.1256411081
 51
105.6623865906
  0
ARC
  5
147
330
7E
100
AcDbEntity
  8
DV1_Default
  6
Continuous
 62
     7
100
AcDbCircle
 10
38.1283688035
 20
573.7256751485
 30
0.0
 40
0.5115547001605969
100
AcDbArc
 50
55.4069844228
 51
85.0185171963
  0
ARC
  5
148
330
7E
100
AcDbEntity
  8
DV1_Default
  6
Continuous
 62
     7
100
AcDbCircle
 10
38.2612400778
 20
575.1335433325
 30
0.0
 40
1.963071077265153
100
AcDbArc
 50
242.959219839
 51
264.7904230528
  0
ARC
  5
149
330
7E
100
AcDbEntity
  8
DV1_Default
  6
Continuous
 62
     7
100
AcDbCircle
 10
38.0816331933
 20
573.7203623597
 30
0.0
 40
0.543926454731647
100
AcDbArc
 50
2.1751604131
 51
52.1007949598
  0
SPLINE
  5
14A
330
7E
100
AcDbEntity
  8
DV1_Default
  6
Continuous
 62
     7
100
AcDbSpline
210
0.0
220
0.0
230
1.0
 70
     8
 71
     3
 72
     8
 73
     4
 74
     0
 42
0.000000001
 43
0.0000000001
 40
0.0
 40
0.0
 40
0.0
 40
0.0
 40
1.0
 40
1.0
 40
1.0
 40
1.0
 10
36.05834091310616
 20
573.4322756164295
 30
0.0
 10
36.06834658397371
 20
573.4337257970566
 30
0.0
 10
36.07813669645291
 20
573.4351763978661
 30
0.0
 10
36.08787249824709
 20
573.4367171995405
 30
0.0
  0
SPLINE
  5
14B
330
7E
100
AcDbEntity
  8
DV1_Default
  6
Continuous
 62
     7
100
AcDbSpline
210
0.0
220
0.0
230
1.0
 70
     8
 71
     3
 72
    13
 73
     9
 74
     0
 42
0.000000001
 43
0.0000000001
 40
0.0
 40
0.0
 40
0.0
 40
0.0
 40
0.1017086997535015
 40
0.2521287387269887
 40
0.3655103152101807
 40
0.6184523213555733
 40
0.7952057749232464
 40
0.9999999999999999
 40
0.9999999999999999
 40
0.9999999999999999
 40
0.9999999999999999
 10
36.11662211747689
 20
573.4416157189414
 30
0.0
 10
36.14930389041204
 20
573.4476456886924
 30
0.0
 10
36.23320756733411
 20
573.4675320083547
 30
0.0
 10
36.4187403473597
 20
573.543907578231
 30
0.0
 10
36.70208307027438
 20
573.6801090948024
 30
0.0
 10
37.03891788115982
 20
573.8566902872394
 30
0.0
 10
37.45698730007567
 20
574.0726498177407
 30
0.0
 10
37.69140449155879
 20
574.1567219521066
 30
0.0
 10
37.83822804335362
 20
574.209228455552
 30
0.0
  0
ARC
  5
14C
330
7E
100
AcDbEntity
  8
DV1_Default
  6
Continuous
 62
     7
100
AcDbCircle
 10
35.1108882512
 20
573.4229135136
 30
0.0
 40
1.079374987645534
100
AcDbArc
 50
86.5118544288
 51
107.1643355833
  0
ARC
  5
14D
330
7E
100
AcDbEntity
  8
DV1_Default
  6
Continuous
 62
     7
100
AcDbCircle
 10
35.1454342609
 20
573.6472234022
 30
0.0
 40
0.8536792118004317
100
AcDbArc
 50
64.3853734773
 51
88.0636974451
  0
ARC
  5
14E
330
7E
100
AcDbEntity
  8
DV1_Default
  6
Continuous
 62
     7
100
AcDbCircle
 10
36.0058746598
 20
575.4823992167
 30
0.0
 40
2.028643513676059
100
AcDbArc
 50
245.8842682771
 51
256.8756091128
  0
SPLINE
  5
14F
330
7E
100
AcDbEntity
  8
DV1_Default
  6
Continuous
 62
     7
100
AcDbSpline
210
0.0
220
0.0
230
1.0
 70
     8
 71
     3
 72
    11
 73
     7
 74
     0
 42
0.000000001
 43
0.0000000001
 40
0.0
 40
0.0
 40
0.0
 40
0.0
 40
0.319195512896913
 40
0.5962532705621029
 40
0.8235690777913147
 40
1.0
 40
1.0
 40
1.0
 40
1.0
 10
35.50054755931581
 20
574.4241342349205
 30
0.0
 10
35.60987652251698
 20
574.3533062494265
 30
0.0
 10
35.78116524452698
 20
574.2405132233825
 30
0.0
 10
35.93098129006243
 20
574.0366769295777
 30
0.0
 10
35.99671553321467
 20
573.8899288140273
 30
0.0
 10
36.00272361950926
 20
573.836352311614
 30
0.0
 10
36.0047557932464
 20
573.8094071557208
 30
0.0
  0
ARC
  5
150
330
7E
100
AcDbEntity
  8
DV1_Default
  6
Continuous
 62
     7
100
AcDbCircle
 10
34.2505109324
 20
572.6373795176
 30
0.0
 40
1.238748260149563
100
AcDbArc
 50
86.8664368955
 51
118.6307567129
  0
ARC
  5
151
330
7E
100
AcDbEntity
  8
DV1_Default
  6
Continuous
 62
     7
100
AcDbCircle
 10
30.7399589062
 20
578.9022806173
 30
0.0
 40
5.94338781939835
100
AcDbArc
 50
296.6637016642
 51
299.5553624269
  0
ARC
  5
152
330
7E
100
AcDbEntity
  8
DV1_Default
  6
Continuous
 62
     7
100
AcDbCircle
 10
36.495956724
 20
570.2049090023
 30
0.0
 40
4.578174901027508
100
AcDbArc
 50
111.8233395746
 51
132.1544330794
  0
ARC
  5
153
330
7E
100
AcDbEntity
  8
DV1_Default
  6
Continuous
 62
     7
100
AcDbCircle
 10
31.8374301213
 20
573.5179367637
 30
0.0
 40
1.07390832074753
100
AcDbArc
 50
89.3293433902
 51
110.3285828292
  0
ARC
  5
154
330
7E
100
AcDbEntity
  8
DV1_Default
  6
Continuous
 62
     7
100
AcDbCircle
 10
31.8622538303
 20
573.516563367
 30
0.0
 40
1.075305922237683
100
AcDbArc
 50
69.6818297036
 51
90.7813313581
  0
SPLINE
  5
155
330
7E
100
AcDbEntity
  8
DV1_Default
  6
Continuous
 62
     7
100
AcDbSpline
210
0.0
220
0.0
230
1.0
 70
     8
 71
     3
 72
    10
 73
     6
 74
     0
 42
0.000000001
 43
0.0000000001
 40
0.0
 40
0.0
 40
0.0
 40
0.0
 40
0.3954997245547777
 40
0.8025756566553315
 40
1.0
 40
1.0
 40
1.0
 40
1.0
 10
32.6522966895846
 20
573.748092624211
 30
0.0
 10
32.73486671437207
 20
573.7133003532044
 30
0.0
 10
32.87280415207086
 20
573.6570238986914
 30
0.0
 10
33.04061712258773
 20
573.5997942776594
 30
0.0
 10
33.10017966529061
 20
573.5970204932985
 30
0.0
 10
33.12271387970465
 20
573.5961320722223
 30
0.0
  0
SPLINE
  5
156
330
7E
100
AcDbEntity
  8
DV1_Default
  6
Continuous
 62
     7
100
AcDbSpline
210
0.0
220
0.0
230
1.0
 70
     8
 71
     3
 72
    12
 73
     8
 74
     0
 42
0.000000001
 43
0.0000000001
 40
0.0
 40
0.0
 40
0.0
 40
0.0
 40
0.2439576180117515
 40
0.4951468036195174
 40
0.7478607520832085
 40
0.8743345799084712
 40
1.0
 40
1.0
 40
1.0
 40
1.0
 10
32.21668615646891
 20
574.5323010135746
 30
0.0
 10
32.36344536867797
 20
574.4605408558571
 30
0.0
 10
32.61560183003383
 20
574.3357670611922
 30
0.0
 10
32.92031246100802
 20
574.062636031979
 30
0.0
 10
33.08186997819639
 20
573.8644941131372
 30
0.0
 10
33.13767192499868
 20
573.7418325575214
 30
0.0
 10
33.13059009789833
 20
573.7093028761791
 30
0.0
 10
33.12534237278292
 20
573.6909441247319
 30
0.0
  0
SPLINE
  5
157
330
7E
100
AcDbEntity
  8
DV1_Default
  6
Continuous
 62
     7
100
AcDbSpline
210
0.0
220
0.0
230
1.0
 70
     8
 71
     3
 72
    12
 73
     8
 74
     0
 42
0.000000001
 43
0.0000000001
 40
0.0
 40
0.0
 40
0.0
 40
0.0
 40
0.1256171832374494
 40
0.2520610625104456
 40
0.5046438720990656
 40
0.7557279053659843
 40
1.0
 40
1.0
 40
1.0
 40
1.0
 10
30.57531959216933
 20
573.6896872179967
 30
0.0
 10
30.56959094581851
 20
573.7075345175515
 30
0.0
 10
30.56167302926463
 20
573.739193562167
 30
0.0
 10
30.61499941047262
 20
573.8597843481315
 30
0.0
 10
30.77306754897633
 20
574.0557976784385
 30
0.0
 10
31.07343383105508
 20
574.3272362236596
 30
0.0
 10
31.32234449546468
 20
574.4534856138604
 30
0.0
 10
31.46743547853525
 20
574.5262163093117
 30
0.0
  0
SPLINE
  5
158
330
7E
100
AcDbEntity
  8
DV1_Default
  6
Continuous
 62
     7
100
AcDbSpline
210
0.0
220
0.0
230
1.0
 70
     8
 71
     3
 72
    10
 73
     6
 74
     0
 42
0.000000001
 43
0.0000000001
 40
0.0
 40
0.0
 40
0.0
 40
0.0
 40
0.2214315122039352
 40
0.6163203429463888
 40
1.0
 40
1.0
 40
1.0
 40
1.0
 10
30.56893355497186
 20
573.5952557819687
 30
0.0
 10
30.59481866008055
 20
573.5962890847384
 30
0.0
 10
30.65705690595398
 20
573.5992988236105
 30
0.0
 10
30.82806443256012
 20
573.6572925253049
 30
0.0
 10
30.96546233480628
 20
573.7134355335608
 30
0.0
 10
31.04753351225466
 20
573.7479978359927
 30
0.0
  0
ARC
  5
159
330
7E
100
AcDbEntity
  8
DV1_Default
  6
Continuous
 62
     7
100
AcDbCircle
 10
28.5540313647
 20
573.6489318285
 30
0.0
 40
0.8519064635945668
100
AcDbArc
 50
92.0578340523
 51
115.6339990155
  0
ARC
  5
15A
330
7E
100
AcDbEntity
  8
DV1_Default
  6
Continuous
 62
     7
100
AcDbCircle
 10
28.5890148951
 20
573.4223546302
 30
0.0
 40
1.079937204377768
100
AcDbArc
 50
72.839339155
 51
93.6002196809
  0
ARC
  5
15B
330
7E
100
AcDbEntity
  8
DV1_Default
  6
Continuous
 62
     7
100
AcDbCircle
 10
32.0574692771
 20
577.2137212969
 30
0.0
 40
4.029077158771314
100
AcDbArc
 50
239.9138840822
 51
244.0722439841
  0
ARC
  5
15C
330
7E
100
AcDbEntity
  8
DV1_Default
  6
Continuous
 62
     7
100
AcDbCircle
 10
27.1833719919
 20
570.17087813
 30
0.0
 40
4.616104440508678
100
AcDbArc
 50
47.9629103124
 51
68.3121411137
  0
ARC
  5
15D
330
7E
100
AcDbEntity
  8
DV1_Default
  6
Continuous
 62
     7
100
AcDbCircle
 10
30.3562719294
 20
573.8057159935
 30
0.0
 40
0.2234934983003724
100
AcDbArc
 50
251.6928764753
 51
265.7497617732
  0
ARC
  5
15E
330
7E
100
AcDbEntity
  8
DV1_Default
  6
Continuous
 62
     7
100
AcDbCircle
 10
29.4494740487
 20
572.6373134745
 30
0.0
 40
1.23881349467914
100
AcDbArc
 50
61.3700376542
 51
93.1325295403
  0
ARC
  5
15F
330
7E
100
AcDbEntity
  8
DV1_Default
  6
Continuous
 62
     7
100
AcDbCircle
 10
27.456398187
 20
576.16894743
 30
0.0
 40
2.753544227673258
100
AcDbArc
 50
285.515707277
 51
293.1624852446
  0
SPLINE
  5
160
330
7E
100
AcDbEntity
  8
DV1_Default
  6
Continuous
 62
     7
100
AcDbSpline
210
0.0
220
0.0
230
1.0
 70
     8
 71
     3
 72
    11
 73
     7
 74
     0
 42
0.000000001
 43
0.0000000001
 40
0.0
 40
0.0
 40
0.0
 40
0.0
 40
0.1716976601944245
 40
0.3972012959781475
 40
0.6756939429732378
 40
1.0
 40
1.0
 40
1.0
 40
1.0
 10
27.69523954931201
 20
573.8112230393108
 30
0.0
 10
27.69720635897145
 20
573.8365480663641
 30
0.0
 10
27.7030082532374
 20
573.8874559160689
 30
0.0
 10
27.7651789637445
 20
574.0302244653847
 30
0.0
 10
27.91054084012112
 20
574.2316393510192
 30
0.0
 10
28.07843381053267
 20
574.3454909928481
 30
0.0
 10
28.1862247713137
 20
574.4173906783944
 30
0.0
  0
ARC
  5
161
330
7E
100
AcDbEntity
  8
DV1_Default
  6
Continuous
 62
     7
100
AcDbCircle
 10
25.5710052787
 20
573.727015352
 30
0.0
 40
0.5100979710687024
100
AcDbArc
 50
95.1338483232
 51
124.6179458694
  0
ARC
  5
162
330
7E
100
AcDbEntity
  8
DV1_Default
  6
Continuous
 62
     7
100
AcDbCircle
 10
25.6279384275
 20
573.3849792779
 30
0.0
 40
0.8562453373762554
100
AcDbArc
 50
74.3345644035
 51
97.0006782461
  0
SPLINE
  5
163
330
7E
100
AcDbEntity
  8
DV1_Default
  6
Continuous
 62
     7
100
AcDbSpline
210
0.0
220
0.0
230
1.0
 70
     8
 71
     3
 72
     8
 73
     4
 74
     0
 42
0.000000001
 43
0.0000000001
 40
0.0
 40
0.0
 40
0.0
 40
0.0
 40
0.9999999999999999
 40
0.9999999999999999
 40
0.9999999999999999
 40
0.9999999999999999
 10
27.64545644164946
 20
573.4299247339214
 30
0.0
 10
27.654955762829
 20
573.4253245440481
 30
0.0
 10
27.66743335432932
 20
573.425253804655
 30
0.0
 10
27.68288921615042
 20
573.429712515742
 30
0.0
  0
SPLINE
  5
164
330
7E
100
AcDbEntity
  8
DV1_Default
  6
Continuous
 62
     7
100
AcDbSpline
210
0.0
220
0.0
230
1.0
 70
     8
 71
     3
 72
    13
 73
     9
 74
     0
 42
0.000000001
 43
0.0000000001
 40
0.0
 40
0.0
 40
0.0
 40
0.0
 40
0.190683392817256
 40
0.3555118828706424
 40
0.5914266288105323
 40
0.6971349883289473
 40
0.8372642109947951
 40
1.0
 40
1.0
 40
1.0
 40
1.0
 10
25.84609130645095
 20
574.2135516165882
 30
0.0
 10
25.99248551156881
 20
574.1625065377519
 30
0.0
 10
26.22648129673014
 20
574.0806280059161
 30
0.0
 10
26.64444162702613
 20
573.8654457894035
 30
0.0
 10
26.98209157619352
 20
573.6882940365358
 30
0.0
 10
27.26729981276724
 20
573.5501975923419
 30
0.0
 10
27.49086088840336
 20
573.4568996253507
 30
0.0
 10
27.58710978893969
 20
573.4394142682336
 30
0.0
 10
27.64545644164946
 20
573.4299247339216
 30
0.0
  0
ARC
  5
165
330
7E
100
AcDbEntity
  8
DV1_Default
  6
Continuous
 62
     7
100
AcDbCircle
 10
25.4496129148
 20
575.1357308795
 30
0.0
 40
1.961419704486621
100
AcDbArc
 50
276.3715452864
 51
297.288114006
  0
ARC
  5
166
330
7E
100
AcDbEntity
  8
DV1_Default
  6
Continuous
 62
     7
100
AcDbCircle
 10
25.6196062494
 20
573.7195470575
 30
0.0
 40
0.545369371156939
100
AcDbArc
 50
127.9848712047
 51
177.3525452563
  0
LINE
  5
167
330
7E
100
AcDbEntity
  8
DV1_Default
  6
Continuous
 62
     7
100
AcDbLine
 10
23.0392740198
 20
573.7565879141
 30
0.0
 11
23.1543318424
 21
573.8235499172
 31
0.0
  0
ARC
  5
168
330
7E
100
AcDbEntity
  8
DV1_Default
  6
Continuous
 62
     7
100
AcDbCircle
 10
23.2524359393
 20
573.3479127927
 30
0.0
 40
0.4856180375584647
100
AcDbArc
 50
73.7404610681
 51
101.7821603501
  0
SPLINE
  5
169
330
7E
100
AcDbEntity
  8
DV1_Default
  6
Continuous
 62
     7
100
AcDbSpline
210
0.0
220
0.0
230
1.0
 70
     8
 71
     3
 72
    12
 73
     8
 74
     0
 42
0.000000001
 43
0.0000000001
 40
0.0
 40
0.0
 40
0.0
 40
0.0
 40
0.2382562706374624
 40
0.4431780519331245
 40
0.7326975207133499
 40
0.8698041555178282
 40
1.0
 40
1.0
 40
1.0
 40
1.0
 10
23.38591380929128
 20
573.8158439863889
 30
0.0
 10
23.51570863166203
 20
573.7713953622044
 30
0.0
 10
23.72422758208789
 20
573.7004189595582
 30
0.0
 10
24.14170442118615
 20
573.5051042735739
 30
0.0
 10
24.50978322135175
 20
573.34824870206
 30
0.0
 10
24.84082973657425
 20
573.2293262142042
 30
0.0
 10
24.97843067869843
 20
573.2006008358619
 30
0.0
 10
25.05680591240347
 20
573.1845504743808
 30
0.0
  0
ARC
  5
16A
330
7E
100
AcDbEntity
  8
DV1_Default
  6
Continuous
 62
     7
100
AcDbCircle
 10
23.4793074307
 20
575.3053234658
 30
0.0
 40
2.571869592182635
100
AcDbArc
 50
284.1408944661
 51
298.4061855576
  0
LINE
  5
16B
330
7E
100
AcDbEntity
  8
DV1_Default
  6
Continuous
 62
     7
100
AcDbLine
 10
22.9951934985
 20
573.5922465146
 30
0.0
 11
23.0260128641
 21
573.742150574
 31
0.0
  0
ENDBLK
  5
16D
330
7E
100
AcDbEntity
  8
0
100
AcDbBlockEnd
  0
BLOCK
  5
1DB
330
16E
100
AcDbEntity
  8
0
100
AcDbBlockBegin
  2
SE1
 70
     0
 10
0.0
 20
0.0
 30
0.0
  3
SE1
  1
SE1
  0
LINE
  5
171
330
16E
100
AcDbEntity
  8
DV2_Default
  6
Continuous
 62
     7
100
AcDbLine
 10
196.2482851892
 20
513.5071954883
 30
0.0
 11
247.2482851892
 21
513.5071954883
 31
0.0
  0
LINE
  5
172
330
16E
100
AcDbEntity
  8
DV2_Default
  6
Continuous
 62
     7
100
AcDbLine
 10
196.2482851892
 20
403.5071954883
 30
0.0
 11
247.2482851892
 21
403.5071954883
 31
0.0
  0
LINE
  5
173
330
16E
100
AcDbEntity
  8
DV2_Default
  6
Continuous
 62
     7
100
AcDbLine
 10
196.2482851892
 20
513.5071954883
 30
0.0
 11
196.2482851892
 21
403.5071954883
 31
0.0
  0
LINE
  5
174
330
16E
100
AcDbEntity
  8
DV2_Default
  6
Continuous
 62
     7
100
AcDbLine
 10
247.2482851892
 20
403.5071954883
 30
0.0
 11
247.2482851892
 21
513.5071954883
 31
0.0
  0
LINE
  5
175
330
16E
100
AcDbEntity
  8
DV2_Default
  6
Continuous
 62
     7
100
AcDbLine
 10
270.8271567448
 20
534.1109287667
 30
0.0
 11
262.3466757832
 21
539.4101214091
 31
0.0
  0
LINE
  5
176
330
16E
100
AcDbEntity
  8
DV2_Default
  6
Continuous
 62
     7
100
AcDbLine
 10
247.2482851892
 20
496.3768464605
 30
0.0
 11
270.8271567448
 21
534.1109287667
 31
0.0
  0
LINE
  5
177
330
16E
100
AcDbEntity
  8
DV2_Default
  6
Continuous
 62
     7
100
AcDbLine
 10
262.3466757832
 20
539.4101214091
 30
0.0
 11
246.1607312506
 21
513.5071954883
 31
0.0
  0
LINE
  5
178
330
16E
100
AcDbEntity
  8
DV2_Default
  6
Continuous
 62
     7
100
AcDbLine
 10
385.6255631219
 20
640.6865661428
 30
0.0
 11
413.2001802063
 21
645.5487151175
 31
0.0
  0
LINE
  5
179
330
16E
100
AcDbEntity
  8
DV2_Default
  6
Continuous
 62
     7
100
AcDbLine
 10
235.7482852094
 20
513.5071959825
 30
0.0
 11
235.7482990347
 21
650.571258302
 31
0.0
  0
LINE
  5
17A
330
16E
100
AcDbEntity
  8
DV2_Default
  6
Continuous
 62
     7
100
AcDbLine
 10
207.7483043091
 20
650.5746724833
 30
0.0
 11
207.748285217
 21
513.5071953679
 31
0.0
  0
SPLINE
  5
17B
330
16E
100
AcDbEntity
  8
DV2_Default
  6
Continuous
 62
     7
100
AcDbSpline
210
0.0
220
0.0
230
1.0
 70
     8
 71
     3
 72
    57
 73
    53
 74
     0
 42
0.000000001
 43
0.0000000001
 40
0.0
 40
0.0
 40
0.0
 40
0.0
 40
0.0145572108706439
 40
0.0288818792181603
 40
0.0429582403271497
 40
0.0567594572976398
 40
0.0702598315082142
 40
0.0834349379982847
 40
0.0962629844410658
 40
0.1247215435129588
 40
0.150953718704761
 40
0.1747773369540991
 40
0.1931810403755516
 40
0.2096621392487148
 40
0.2242602225287012
 40
0.2384451023183488
 40
0.2527536603855713
 40
0.2671726716843046
 40
0.2816871829286982
 40
0.3072750944593315
 40
0.3330405431214072
 40
0.3588855322428307
 40
0.384608962451963
 40
0.4101023080738984
 40
0.4352928548904803
 40
0.4601182527345833
 40
0.4844882099436568
 40
0.5162315652085557
 40
0.5486776517708455
 40
0.5819889616647105
 40
0.6155343369755176
 40
0.6481796291257109
 40
0.6796806152369673
 40
0.6927854073408485
 40
0.7056330026605845
 40
0.7191649291388419
 40
0.7348802471792477
 40
0.7527914506872558
 40
0.7728769285910175
 40
0.7950899556241375
 40
0.8162206604235925
 40
0.8388624908943053
 40
0.8629258092401193
 40
0.8883026216165533
 40
0.9014449976807215
 40
0.9148644486658662
 40
0.9285402631985744
 40
0.9424516925749863
 40
0.956575850270786
 40
0.9708893331511316
 40
0.9853679576510468
 40
1.0
 40
1.0
 40
1.0
 40
1.0
 10
235.7482990346776
 20
650.5712583019957
 30
0.0
 10
235.7608143718419
 20
651.7350179429378
 30
0.0
 10
235.7877635035723
 20
653.6804261398153
 30
0.0
 10
235.9960106948788
 20
656.8579707788056
 30
0.0
 10
236.320333349508
 20
659.8928637310222
 30
0.0
 10
236.7640647455826
 20
662.8723766160062
 30
0.0
 10
237.3150499677801
 20
665.7618732861257
 30
0.0
 10
237.9639679327229
 20
668.5597956250167
 30
0.0
 10
239.0069187665559
 20
672.3788795032856
 30
0.0
 10
240.5879042388135
 20
677.0314659921305
 30
0.0
 10
242.8603865116176
 20
682.2719779614526
 30
0.0
 10
245.1738338501453
 20
686.6818864314391
 30
0.0
 10
247.3888799737387
 20
690.3312779771087
 30
0.0
 10
249.4139827661967
 20
693.305155759194
 30
0.0
 10
251.3895406237052
 20
695.9370012697659
 30
0.0
 10
253.3748242091954
 20
698.3604747800141
 30
0.0
 10
255.451385207051
 20
700.6888159083771
 30
0.0
 10
257.6425453715176
 20
702.9433054283971
 30
0.0
 10
260.5256276118037
 20
705.6633860589887
 30
0.0
 10
264.1999995102169
 20
708.7397533872377
 30
0.0
 10
268.7667210493476
 20
712.0088318155277
 30
0.0
 10
273.5807005025399
 20
714.9209051972845
 30
0.0
 10
278.5842058593634
 20
717.4497259559812
 30
0.0
 10
283.7212215378647
 20
719.5733721620035
 30
0.0
 10
288.941500336647
 20
721.2831544020561
 30
0.0
 10
294.1945163588953
 20
722.582569184272
 30
0.0
 10
299.997664469614
 20
723.5756766894427
 30
0.0
 10
306.4201403638137
 20
724.130866912754
 30
0.0
 10
313.5171072870285
 20
724.0670308111372
 30
0.0
 10
320.7051878783838
 20
723.2974740934935
 30
0.0
 10
327.7963197880871
 20
721.8176292226832
 30
0.0
 10
334.5813110955551
 20
719.6886590808783
 30
0.0
 10
339.7624673760515
 20
717.5022515712342
 30
0.0
 10
343.4953182577726
 20
715.6289780059832
 30
0.0
 10
346.0091507995032
 20
714.243202818089
 30
0.0
 10
348.6286430530461
 20
712.6609435057885
 30
0.0
 10
351.4843089552901
 20
710.7632284427865
 30
0.0
 10
354.626179097645
 20
708.4431843658083
 30
0.0
 10
357.9964571239396
 20
705.647816790666
 30
0.0
 10
361.3539069024067
 20
702.4836520133193
 30
0.0
 10
364.6290859333395
 20
698.9761850117025
 30
0.0
 10
367.7560299625983
 20
695.159390567185
 30
0.0
 10
370.7883541908737
 20
690.881886309285
 30
0.0
 10
373.1433730883816
 20
686.9850109708362
 30
0.0
 10
374.9080904584308
 20
683.6470528217822
 30
0.0
 10
376.1726102650584
 20
681.00926784982
 30
0.0
 10
377.3521209907229
 20
678.2710178746001
 30
0.0
 10
378.4367254006179
 20
675.4403510166595
 30
0.0
 10
379.4189179428687
 20
672.5178411459029
 30
0.0
 10
380.2827189005193
 20
669.5366973297287
 30
0.0
 10
381.0491927795863
 20
666.4102525047766
 30
0.0
 10
381.4166218034376
 20
664.4838087081766
 30
0.0
 10
381.6321969503165
 20
663.3340340115247
 30
0.0
  0
SPLINE
  5
17C
330
16E
100
AcDbEntity
  8
DV2_Default
  6
Continuous
 62
     7
100
AcDbSpline
210
0.0
220
0.0
230
1.0
 70
     8
 71
     3
 72
    56
 73
    52
 74
     0
 42
0.000000001
 43
0.0000000001
 40
0.0
 40
0.0
 40
0.0
 40
0.0
 40
0.0253048931864664
 40
0.0498742189432002
 40
0.0735621095914535
 40
0.0962379536208534
 40
0.1177867093276886
 40
0.1381100580319831
 40
0.1571240225364491
 40
0.1747627991656414
 40
0.1909725254429779
 40
0.2057118165917959
 40
0.2189513414163403
 40
0.2313223215868689
 40
0.2437841345170469
 40
0.2563358638927351
 40
0.2689689383933683
 40
0.2816752310215865
 40
0.3072649239503102
 40
0.3330270424311886
 40
0.3588746298577199
 40
0.3845972778121049
 40
0.410087871376477
 40
0.4352817065011961
 40
0.4601052855063265
 40
0.4844752018033994
 40
0.5082594268605566
 40
0.5323336405716843
 40
0.5569276991378315
 40
0.5819913449517468
 40
0.6072266294068369
 40
0.6319995891876561
 40
0.6561850430143772
 40
0.679700167088147
 40
0.6911826944686054
 40
0.7024681684347883
 40
0.7138602779070843
 40
0.7267671019627109
 40
0.7413603095992727
 40
0.7576315362852525
 40
0.7755592888113938
 40
0.7951137063307113
 40
0.8162450657295723
 40
0.8388851214330686
 40
0.8629506234829212
 40
0.8883279932065077
 40
0.9094884657370258
 40
0.9313266018128423
 40
0.9537556628107022
 40
0.9766809162262166
 40
1.0
 40
1.0
 40
1.0
 40
1.0
 10
409.2061307700277
 20
668.2000438393836
 30
0.0
 10
408.6694223531056
 20
670.9417628187257
 30
0.0
 10
407.7533600792859
 20
675.4918618268723
 30
0.0
 10
405.6140775359632
 20
682.7169837377793
 30
0.0
 10
403.1332410477749
 20
689.3568103453109
 30
0.0
 10
400.3081354552299
 20
695.5758266069835
 30
0.0
 10
397.2463917934396
 20
701.2875843653383
 30
0.0
 10
394.0279887106966
 20
706.4873654439118
 30
0.0
 10
390.7391732188699
 20
711.1690653946779
 30
0.0
 10
387.4556165882246
 20
715.3397473672654
 30
0.0
 10
384.2485635947453
 20
719.0159418578108
 30
0.0
 10
381.1826261720112
 20
722.2225506547715
 30
0.0
 10
378.2646141913754
 20
725.0322426834039
 30
0.0
 10
375.4127266899827
 20
727.5768386929132
 30
0.0
 10
372.5210901741095
 20
729.9692951904955
 30
0.0
 10
369.5217216981526
 20
732.2686806319256
 30
0.0
 10
366.4189664982258
 20
734.4693377142202
 30
0.0
 10
362.1413788484829
 20
737.2694506475377
 30
0.0
 10
356.5649241379585
 20
740.4830615337987
 30
0.0
 10
349.5680040810988
 20
743.8286457683623
 30
0.0
 10
342.3248544899503
 20
746.6389179590074
 30
0.0
 10
334.9133957303711
 20
748.876906904618
 30
0.0
 10
327.4176769606992
 20
750.5306985448273
 30
0.0
 10
319.9089175501656
 20
751.6077192863809
 30
0.0
 10
312.4531888573704
 20
752.1130494891257
 30
0.0
 10
305.1223653993518
 20
752.0767111205938
 30
0.0
 10
297.8882226081095
 20
751.5221122023112
 30
0.0
 10
290.6892320384295
 20
750.4525245198146
 30
0.0
 10
283.4603386364594
 20
748.8386505143548
 30
0.0
 10
276.2582377157401
 20
746.6624712885874
 30
0.0
 10
269.2208172533081
 20
743.9506001228192
 30
0.0
 10
262.4853603444338
 20
740.7590613675525
 30
0.0
 10
256.1479137852665
 20
737.1764194438813
 30
0.0
 10
251.1932252363339
 20
733.8903321318435
 30
0.0
 10
247.4604383842038
 20
731.12412583682
 30
0.0
 10
244.7754041140218
 20
728.9910239058808
 30
0.0
 10
242.0543399291972
 20
726.6766937078546
 30
0.0
 10
239.172860196439
 20
724.0419720903291
 30
0.0
 10
236.0535579661455
 20
720.9464223867639
 30
0.0
 10
232.7398628332463
 20
717.3380769192632
 30
0.0
 10
229.2939926325464
 20
713.1836053045222
 30
0.0
 10
225.7917251074479
 20
708.4527381313646
 30
0.0
 10
222.3245596502547
 20
703.1208442718909
 30
0.0
 10
218.9902343792591
 20
697.1786806096667
 30
0.0
 10
215.8890877304719
 20
690.6357869928992
 30
0.0
 10
213.331160511898
 20
684.0189899571282
 30
0.0
 10
211.3026252077356
 20
677.4609942156476
 30
0.0
 10
209.7633943724712
 20
671.0630104772753
 30
0.0
 10
208.6248939947527
 20
664.4467793004894
 30
0.0
 10
207.8886764628986
 20
657.451531053039
 30
0.0
 10
207.7928428865807
 20
653.1488033629665
 30
0.0
 10
207.7483043091488
 20
650.5746724833406
 30
0.0
  0
LINE
  5
17D
330
16E
100
AcDbEntity
  8
DV2_Default
  6
Continuous
 62
     7
100
AcDbLine
 10
381.6321969503
 20
663.3340340115
 30
0.0
 11
385.6255631219
 21
640.6865661428
 31
0.0
  0
LINE
  5
17E
330
16E
100
AcDbEntity
  8
DV2_Default
  6
Continuous
 62
     7
100
AcDbLine
 10
413.2001802063
 20
645.5487151175
 30
0.0
 11
409.20613077
 21
668.2000438394
 31
0.0
  0
LINE
  5
17F
330
16E
100
AcDbEntity
  8
DV2_Default
  6
Continuous
 62
     7
100
AcDbLine
 10
397.8156651941
 20
571.5530618813
 30
0.0
 11
425.3902822785
 21
576.415210856
 31
0.0
  0
LINE
  5
180
330
16E
100
AcDbEntity
  8
DV2_Default
  6
Continuous
 62
     7
100
AcDbLine
 10
385.6602927575
 20
640.4896045922
 30
0.0
 11
413.2349098418
 21
645.3517535669
 31
0.0
  0
ARC
  5
181
330
16E
100
AcDbEntity
  8
DV2_Default
  6
Continuous
 62
     7
100
AcDbCircle
 10
433.8996114022
 20
611.9665268148
 30
0.0
 40
16.62353949584508
100
AcDbArc
 50
192.5292334075
 51
218.898890208
  0
LINE
  5
182
330
16E
100
AcDbEntity
  8
DV2_Default
  6
Continuous
 62
     7
100
AcDbLine
 10
414.581016483
 20
625.889832216
 30
0.0
 11
417.6719540455
 21
608.3602542124
 31
0.0
  0
ARC
  5
183
330
16E
100
AcDbEntity
  8
DV2_Default
  6
Continuous
 62
     7
100
AcDbCircle
 10
431.0634442261
 20
628.0512301579
 30
0.0
 40
16.62353949584549
100
AcDbArc
 50
161.1011097916
 51
187.4707665921
  0
LINE
  5
184
330
16E
100
AcDbEntity
  8
DV2_Default
  6
Continuous
 62
     7
100
AcDbLine
 10
415.3400478497
 20
633.4129226549
 30
0.0
 11
413.2349098418
 21
645.3517535669
 31
0.0
  0
LINE
  5
185
330
16E
100
AcDbEntity
  8
DV2_Default
  6
Continuous
 62
     7
100
AcDbLine
 10
425.3902822785
 20
576.415210856
 30
0.0
 11
420.9582586899
 21
601.5504656583
 31
0.0
  0
LINE
  5
186
330
16E
100
AcDbEntity
  8
DV2_Default
  6
Continuous
 62
     7
100
AcDbLine
 10
385.6602927575
 20
640.4896045922
 30
0.0
 11
397.8156651941
 21
571.5530618813
 31
0.0
  0
LINE
  5
187
330
16E
100
AcDbEntity
  8
DV2_Default
  6
Continuous
 62
     7
100
AcDbLine
 10
389.198349942
 20
641.3165448555
 30
0.0
 11
389.2330795776
 21
641.1195833049
 31
0.0
  0
LINE
  5
188
330
16E
100
AcDbEntity
  8
DV2_Default
  6
Continuous
 62
     7
100
AcDbLine
 10
386.9933564882
 20
640.9277450173
 30
0.0
 11
387.0280861237
 21
640.7307834667
 31
0.0
  0
LINE
  5
189
330
16E
100
AcDbEntity
  8
DV2_Default
  6
Continuous
 62
     7
100
AcDbLine
 10
409.7683865512
 20
644.7405119815
 30
0.0
 11
409.7336569157
 21
644.9374735321
 31
0.0
  0
LINE
  5
18A
330
16E
100
AcDbEntity
  8
DV2_Default
  6
Continuous
 62
     7
100
AcDbLine
 10
386.9058132008
 20
640.9123087738
 30
0.0
 11
386.9405428364
 21
640.7153472231
 31
0.0
  0
ARC
  5
18B
330
16E
100
AcDbEntity
  8
DV2_Default
  6
Continuous
 62
     7
100
AcDbCircle
 10
437.9027676877
 20
612.0733065291
 30
0.0
 40
20.46144593508791
100
AcDbArc
 50
190.4021059989
 51
197.5553422856
  0
ARC
  5
18C
330
16E
100
AcDbEntity
  8
DV2_Default
  6
Continuous
 62
     7
100
AcDbCircle
 10
435.9728232834
 20
628.5011206027
 30
0.0
 40
21.4214034698962
100
AcDbArc
 50
173.2200610261
 51
188.083538664
  0
LINE
  5
18D
330
16E
100
AcDbEntity
  8
DV2_Default
  6
Continuous
 62
     7
100
AcDbLine
 10
420.7798131551
 20
603.1383576236
 30
0.0
 11
415.8312390767
 21
631.2031158274
 31
0.0
  0
ARC
  5
18E
330
16E
100
AcDbEntity
  8
DV2_Default
  6
Continuous
 62
     7
100
AcDbCircle
 10
419.7932939345
 20
602.9744215655
 30
0.0
 40
0.999999159555859
100
AcDbArc
 50
311.3830537489
 51
9.9996577159
  0
ARC
  5
18F
330
16E
100
AcDbEntity
  8
DV2_Default
  6
Continuous
 62
     7
100
AcDbCircle
 10
414.84728249
 20
631.0246452413
 30
0.0
 40
0.9999993707187033
100
AcDbArc
 50
9.5564215758
 51
91.036495344
  0
ARC
  5
190
330
16E
100
AcDbEntity
  8
DV2_Default
  6
Continuous
 62
     7
100
AcDbCircle
 10
403.269925013
 20
573.7406705484
 30
0.0
 40
3.606547901709386
100
AcDbArc
 50
232.782705673
 51
233.9830037803
  0
ARC
  5
191
330
16E
100
AcDbEntity
  8
DV2_Default
  6
Continuous
 62
     7
100
AcDbCircle
 10
402.435218996
 20
572.4565766959
 30
0.0
 40
2.078627408599177
100
AcDbArc
 50
231.7791467423
 51
271.3951540942
  0
SPLINE
  5
192
330
16E
100
AcDbEntity
  8
DV2_Default
  6
Continuous
 62
     7
100
AcDbSpline
210
0.0
220
0.0
230
1.0
 70
     8
 71
     3
 72
    13
 73
     9
 74
     0
 42
0.000000001
 43
0.0000000001
 40
0.0
 40
0.0
 40
0.0
 40
0.0
 40
0.177419088871321
 40
0.4392849025961822
 40
0.7034169704598983
 40
0.8159674642361437
 40
0.9308758590853673
 40
1.0
 40
1.0
 40
1.0
 40
1.0
 10
403.3054256563639
 20
570.5383158443074
 30
0.0
 10
403.1988070639412
 20
570.4949992816581
 30
0.0
 10
402.9238507024459
 20
570.407028030132
 30
0.0
 10
402.4766370855259
 20
570.3680878734432
 30
0.0
 10
402.1289835851452
 20
570.4376446491082
 30
0.0
 10
401.9123714835723
 20
570.5280312029637
 30
0.0
 10
401.8008044960148
 20
570.5927041839699
 30
0.0
 10
401.7415907055816
 20
570.6362427982185
 30
0.0
 10
401.7208822286175
 20
570.6528832269797
 30
0.0
  0
SPLINE
  5
193
330
16E
100
AcDbEntity
  8
DV2_Default
  6
Continuous
 62
     7
100
AcDbSpline
210
0.0
220
0.0
230
1.0
 70
     8
 71
     3
 72
    18
 73
    14
 74
     0
 42
0.000000001
 43
0.0000000001
 40
0.0
 40
0.0
 40
0.0
 40
0.0
 40
0.049738977790472
 40
0.1015268707673623
 40
0.1556096103623852
 40
0.2468026638356579
 40
0.3413835623799742
 40
0.4529451414457875
 40
0.5628896941678728
 40
0.6798187865741377
 40
0.7915443367778426
 40
0.9810825278493859
 40
1.0
 40
1.0
 40
1.0
 40
1.0
 10
401.8065493745654
 20
570.9394522400066
 30
0.0
 10
401.8303153128612
 20
570.9308268538716
 30
0.0
 10
401.8788261880946
 20
570.9132207730354
 30
0.0
 10
401.9607486491297
 20
570.8812834953968
 30
0.0
 10
402.0706670279494
 20
570.8380856734077
 30
0.0
 10
402.2146050704144
 20
570.7826838341177
 30
0.0
 10
402.4062646280781
 20
570.7147807983883
 30
0.0
 10
402.6232957580156
 20
570.6486111961317
 30
0.0
 10
402.8675113509573
 20
570.5901665238632
 30
0.0
 10
403.1196340140597
 20
570.5500233741026
 30
0.0
 10
403.4316995960995
 20
570.5295065055694
 30
0.0
 10
403.6624556887199
 20
570.5490150875482
 30
0.0
 10
403.7984790560013
 20
570.5785748026497
 30
0.0
 10
403.810701288271
 20
570.5813923936363
 30
0.0
  0
SPLINE
  5
194
330
16E
100
AcDbEntity
  8
DV2_Default
  6
Continuous
 62
     7
100
AcDbSpline
210
0.0
220
0.0
230
1.0
 70
     8
 71
     3
 72
    16
 73
    12
 74
     0
 42
0.000000001
 43
0.0000000001
 40
0.0
 40
0.0
 40
0.0
 40
0.0
 40
0.0429340466358344
 40
0.0860551131745655
 40
0.1294817980353733
 40
0.2081093699101745
 40
0.2866482687196192
 40
0.4794825183540643
 40
0.6976921950387269
 40
0.9177903144173967
 40
1.0
 40
1.0
 40
1.0
 40
1.0
 10
404.850984944045
 20
571.0749897007022
 30
0.0
 10
404.8241471323591
 20
571.0562179769722
 30
0.0
 10
404.7703546039824
 20
571.0185927602357
 30
0.0
 10
404.687205958202
 20
570.9631147941756
 30
0.0
 10
404.5791417604128
 20
570.8943315121551
 30
0.0
 10
404.4441607047827
 20
570.8154362347766
 30
0.0
 10
404.2027040293854
 20
570.6928656336067
 30
0.0
 10
403.8530098847608
 20
570.5677999209476
 30
0.0
 10
403.4383107181586
 20
570.5376568815122
 30
0.0
 10
403.1824726051519
 20
570.6205559934882
 30
0.0
 10
403.0765216440237
 20
570.6960077195783
 30
0.0
 10
403.0508853462127
 20
570.7181230265367
 30
0.0
  0
SPLINE
  5
195
330
16E
100
AcDbEntity
  8
DV2_Default
  6
Continuous
 62
     7
100
AcDbSpline
210
0.0
220
0.0
230
1.0
 70
     8
 71
     3
 72
    18
 73
    14
 74
     0
 42
0.000000001
 43
0.0000000001
 40
0.0
 40
0.0
 40
0.0
 40
0.0
 40
0.0491979407939408
 40
0.1004205256803688
 40
0.1539041503928851
 40
0.2444440654080759
 40
0.3385793920278683
 40
0.4522613837891533
 40
0.5647921193467828
 40
0.685533727894431
 40
0.8007601425320752
 40
0.9893050578939923
 40
1.0
 40
1.0
 40
1.0
 40
1.0
 10
403.4449084285729
 20
571.2283391453151
 30
0.0
 10
403.4754788503773
 20
571.2211255888376
 30
0.0
 10
403.5378777593223
 20
571.2064016162124
 30
0.0
 10
403.6379404732845
 20
571.178502349701
 30
0.0
 10
403.7680940831068
 20
571.13991402041
 30
0.0
 10
403.9319672040769
 20
571.089123672201
 30
0.0
 10
404.1427953962801
 20
571.0247860311636
 30
0.0
 10
404.3737591457883
 20
570.9599430837395
 30
0.0
 10
404.6249972261903
 20
570.9004217853197
 30
0.0
 10
404.8736869950552
 20
570.8577182410154
 30
0.0
 10
405.1614330403983
 20
570.8331716647971
 30
0.0
 10
405.35113631927
 20
570.8470751633299
 30
0.0
 10
405.4531939070877
 20
570.8701758900659
 30
0.0
 10
405.4586194982718
 20
570.8714564714714
 30
0.0
  0
SPLINE
  5
196
330
16E
100
AcDbEntity
  8
DV2_Default
  6
Continuous
 62
     7
100
AcDbSpline
210
0.0
220
0.0
230
1.0
 70
     8
 71
     3
 72
    15
 73
    11
 74
     0
 42
0.000000001
 43
0.0000000001
 40
0.0
 40
0.0
 40
0.0
 40
0.0
 40
0.051369583250173
 40
0.1029629314506036
 40
0.1549219448377361
 40
0.2489979967295585
 40
0.3429679533975655
 40
0.5736896257707731
 40
0.8347724034823972
 40
1.0
 40
1.0
 40
1.0
 40
1.0
 10
406.4551233819701
 20
571.3578425880999
 30
0.0
 10
406.4277516605876
 20
571.3389767216873
 30
0.0
 10
406.3728889871127
 20
571.3011628094986
 30
0.0
 10
406.2903426819192
 20
571.2457910523347
 30
0.0
 10
406.1851500695328
 20
571.1775141082998
 30
0.0
 10
406.0575656491284
 20
571.0999230572753
 30
0.0
 10
405.8378360015761
 20
570.9811835173238
 30
0.0
 10
405.5407743299947
 20
570.8653983297227
 30
0.0
 10
405.2728075849433
 20
570.85554392247
 30
0.0
 10
405.157541413531
 20
570.9109906418507
 30
0.0
 10
405.1219722164796
 20
570.9395592941765
 30
0.0
  0
SPLINE
  5
197
330
16E
100
AcDbEntity
  8
DV2_Default
  6
Continuous
 62
     7
100
AcDbSpline
210
0.0
220
0.0
230
1.0
 70
     8
 71
     3
 72
    17
 73
    13
 74
     0
 42
0.000000001
 43
0.0000000001
 40
0.0
 40
0.0
 40
0.0
 40
0.0
 40
0.0511299559905328
 40
0.1044264508901298
 40
0.160150562525127
 40
0.2185287012324191
 40
0.338740291507946
 40
0.4609313281826786
 40
0.57466002430675
 40
0.6843961291044096
 40
0.8849181854242627
 40
1.0
 40
1.0
 40
1.0
 40
1.0
 10
405.9038870768107
 20
571.6619234259764
 30
0.0
 10
405.9399568570976
 20
571.6552698570891
 30
0.0
 10
406.0136248090207
 20
571.6416807864317
 30
0.0
 10
406.1278355832824
 20
571.6145662862684
 30
0.0
 10
406.2473519659229
 20
571.583029512474
 30
0.0
 10
406.4143300366031
 20
571.5354044215236
 30
0.0
 10
406.6273118482919
 20
571.4712227712405
 30
0.0
 10
406.8725957785654
 20
571.3978105374952
 30
0.0
 10
407.1004173792489
 20
571.3361759879031
 30
0.0
 10
407.360531101227
 20
571.2775372174335
 30
0.0
 10
407.5858825686399
 20
571.2511760629715
 30
0.0
 10
407.7070845627277
 20
571.2646540023508
 30
0.0
 10
407.7443563742293
 20
571.2738870966385
 30
0.0
  0
SPLINE
  5
198
330
16E
100
AcDbEntity
  8
DV2_Default
  6
Continuous
 62
     7
100
AcDbSpline
210
0.0
220
0.0
230
1.0
 70
     8
 71
     3
 72
    15
 73
    11
 74
     0
 42
0.000000001
 43
0.0000000001
 40
0.0
 40
0.0
 40
0.0
 40
0.0
 40
0.0594701257530676
 40
0.1191993022678945
 40
0.1793518062306127
 40
0.2882628442976882
 40
0.3970510568115683
 40
0.6641555572112212
 40
0.966408848749219
 40
0.9999999999999999
 40
0.9999999999999999
 40
0.9999999999999999
 40
0.9999999999999999
 10
408.5919378685104
 20
571.7346206348457
 30
0.0
 10
408.5669465885347
 20
571.7161745044788
 30
0.0
 10
408.5168551670324
 20
571.6792018927445
 30
0.0
 10
408.443674666084
 20
571.6254815795653
 30
0.0
 10
408.3524830654462
 20
571.5596733916568
 30
0.0
 10
408.2457063949109
 20
571.4857513083434
 30
0.0
 10
408.0705515375423
 20
571.374871506561
 30
0.0
 10
407.856262186497
 20
571.2736813123272
 30
0.0
 10
407.7377470199624
 20
571.2824266678992
 30
0.0
 10
407.7007462636625
 20
571.3162647329276
 30
0.0
 10
407.6973332548063
 20
571.3199263099684
 30
0.0
  0
SPLINE
  5
199
330
16E
100
AcDbEntity
  8
DV2_Default
  6
Continuous
 62
     7
100
AcDbSpline
210
0.0
220
0.0
230
1.0
 70
     8
 71
     3
 72
    17
 73
    13
 74
     0
 42
0.000000001
 43
0.0000000001
 40
0.0
 40
0.0
 40
0.0
 40
0.0
 40
0.0512446093023897
 40
0.1046390854562391
 40
0.1604406693711708
 40
0.2188727609899933
 40
0.3407313791005348
 40
0.4648998831747372
 40
0.5809592835231022
 40
0.6930667398573563
 40
0.8970739380839229
 40
1.0
 40
1.0
 40
1.0
 40
1.0
 10
408.9427833562724
 20
572.197762831678
 30
0.0
 10
408.9797377052129
 20
572.1913904709108
 30
0.0
 10
409.0551967501623
 20
572.178378409508
 30
0.0
 10
409.1686998158622
 20
572.151661038032
 30
0.0
 10
409.2848595511853
 20
572.1201370817448
 30
0.0
 10
409.4442317544514
 20
572.0715626541115
 30
0.0
 10
409.6410122182149
 20
572.0044266795506
 30
0.0
 10
409.8561683380104
 20
571.924990039397
 30
0.0
 10
410.0443729328411
 20
571.85547348755
 30
0.0
 10
410.2430283342003
 20
571.7852121349808
 30
0.0
 10
410.3843687792312
 20
571.746144819461
 30
0.0
 10
410.4377871870689
 20
571.7467981484438
 30
0.0
 10
410.4498653449873
 20
571.7503128651094
 30
0.0
  0
SPLINE
  5
19A
330
16E
100
AcDbEntity
  8
DV2_Default
  6
Continuous
 62
     7
100
AcDbSpline
210
0.0
220
0.0
230
1.0
 70
     8
 71
     3
 72
    21
 73
    17
 74
     0
 42
0.000000001
 43
0.0000000001
 40
0.0
 40
0.0
 40
0.0
 40
0.0
 40
0.0297248742041624
 40
0.0595792294066986
 40
0.0896451758061126
 40
0.1440820357398582
 40
0.1984575039419979
 40
0.3319639926711659
 40
0.4830388551291094
 40
0.6354211583215851
 40
0.7003534613372479
 40
0.766646077775746
 40
0.8231048175348132
 40
0.8781291275138338
 40
0.9411920915254438
 40
1.0
 40
1.0
 40
1.0
 40
1.0
 10
411.0522621136619
 20
572.1684421805561
 30
0.0
 10
411.0323326120098
 20
572.1508885782777
 30
0.0
 10
410.9923867961675
 20
572.1157049105565
 30
0.0
 10
410.9364187729461
 20
572.0650196216058
 30
0.0
 10
410.8689870938335
 20
572.0034009489221
 30
0.0
 10
410.7943924802763
 20
571.9351534305484
 30
0.0
 10
410.6822968843827
 20
571.8353926779478
 30
0.0
 10
410.5728173699139
 20
571.7526832857466
 30
0.0
 10
410.5532261084924
 20
571.7922084302874
 30
0.0
 10
410.6464010733691
 20
571.9394951582401
 30
0.0
 10
410.7665728533783
 20
572.0892657970844
 30
0.0
 10
410.864902049677
 20
572.1991221350252
 30
0.0
 10
410.9731248238657
 20
572.3090187384288
 30
0.0
 10
411.0937948595895
 20
572.418570847985
 30
0.0
 10
411.2302338791041
 20
572.5291314505982
 30
0.0
 10
411.3395941575212
 20
572.5969600138316
 30
0.0
 10
411.3923651692711
 20
572.629690196663
 30
0.0
  0
ARC
  5
19B
330
16E
100
AcDbEntity
  8
DV2_Default
  6
Continuous
 62
     7
100
AcDbCircle
 10
412.2062787326
 20
570.9701476926
 30
0.0
 40
1.663629777535752
100
AcDbArc
 50
102.4379253467
 51
130.4308233159
  0
ARC
  5
19C
330
16E
100
AcDbEntity
  8
DV2_Default
  6
Continuous
 62
     7
100
AcDbCircle
 10
409.9388852649
 20
570.1538243184
 30
0.0
 40
2.076820715095704
100
AcDbArc
 50
103.7740610933
 51
130.4332848631
  0
SPLINE
  5
19D
330
16E
100
AcDbEntity
  8
DV2_Default
  6
Continuous
 62
     7
100
AcDbSpline
210
0.0
220
0.0
230
1.0
 70
     8
 71
     3
 72
    10
 73
     6
 74
     0
 42
0.000000001
 43
0.0000000001
 40
0.0
 40
0.0
 40
0.0
 40
0.0
 40
0.130172138897117
 40
0.5650860694485585
 40
1.0
 40
1.0
 40
1.0
 40
1.0
 10
406.6252349224815
 20
571.4735215795515
 30
0.0
 10
406.6170356036489
 20
571.4680518571178
 30
0.0
 10
406.5819955363933
 20
571.4445781801539
 30
0.0
 10
406.5240379599299
 20
571.4051799247424
 30
0.0
 10
406.4774130818298
 20
571.3731632715503
 30
0.0
 10
406.4551233819701
 20
571.3578425880999
 30
0.0
  0
ARC
  5
19E
330
16E
100
AcDbEntity
  8
DV2_Default
  6
Continuous
 62
     7
100
AcDbCircle
 10
416.4926069591
 20
572.8543445613
 30
0.0
 40
0.5513537729847802
100
AcDbArc
 50
149.8789018486
 51
160.7713388613
  0
SPLINE
  5
19F
330
16E
100
AcDbEntity
  8
DV2_Default
  6
Continuous
 62
     7
100
AcDbSpline
210
0.0
220
0.0
230
1.0
 70
     8
 71
     3
 72
     9
 73
     5
 74
     0
 42
0.000000001
 43
0.0000000001
 40
0.0
 40
0.0
 40
0.0
 40
0.0
 40
0.6573730967988927
 40
1.0
 40
1.0
 40
1.0
 40
1.0
 10
417.3386161026334
 20
573.2768959990149
 30
0.0
 10
417.2941506466104
 20
573.2883981599228
 30
0.0
 10
417.2265095212897
 20
573.3058953178748
 30
0.0
 10
417.1586752758231
 20
573.3227924503799
 30
0.0
 10
417.1354316607017
 20
573.3284602679415
 30
0.0
  0
ARC
  5
1A0
330
16E
100
AcDbEntity
  8
DV2_Default
  6
Continuous
 62
     7
100
AcDbCircle
 10
414.4740845787
 20
570.9325899352
 30
0.0
 40
2.097793742154943
100
AcDbArc
 50
69.7023996048
 51
90.836678098
  0
ARC
  5
1A1
330
16E
100
AcDbEntity
  8
DV2_Default
  6
Continuous
 62
     7
100
AcDbCircle
 10
412.0660192742
 20
570.9394624908
 30
0.0
 40
1.669570437830695
100
AcDbArc
 50
69.4141988018
 51
97.5046168477
  0
ELLIPSE
  5
1A2
330
16E
100
AcDbEntity
  8
DV2_Default
  6
Continuous
 62
     7
100
AcDbEllipse
 10
412.727601869
 20
572.5927441441
 30
0.0
 11
0.04926283741030213
 21
0.1416798251342721
 31
0.0
210
0.0
220
0.0
230
1.0
 40
0.5664207965
 41
1.877057295943195
 42
3.840032208230876
  0
ELLIPSE
  5
1A3
330
16E
100
AcDbEntity
  8
DV2_Default
  6
Continuous
 62
     7
100
AcDbEllipse
 10
411.022053645
 20
572.2920102933
 30
0.0
 11
-0.09474926940089555
 21
0.1162866112168481
 31
0.0
210
0.0
220
0.0
230
1.0
 40
0.5664204103
 41
2.443153145242093
 42
4.406128057581127
  0
SPLINE
  5
1A4
330
16E
100
AcDbEntity
  8
DV2_Default
  6
Continuous
 62
     7
100
AcDbSpline
210
0.0
220
0.0
230
1.0
 70
     8
 71
     3
 72
    15
 73
    11
 74
     0
 42
0.000000001
 43
0.0000000001
 40
0.0
 40
0.0
 40
0.0
 40
0.0
 40
0.0311278428568815
 40
0.1661095946756603
 40
0.3893278250499924
 40
0.6044115416999944
 40
0.6950645717329411
 40
0.7858254102903228
 40
0.8934848113560236
 40
1.0
 40
1.0
 40
1.0
 40
1.0
 10
416.191436561307
 20
572.8743893472441
 30
0.0
 10
416.192162198028
 20
572.8685027523197
 30
0.0
 10
416.1940396266742
 20
572.8377863674583
 30
0.0
 10
416.1728541190923
 20
572.7752354890151
 30
0.0
 10
416.057494345886
 20
572.7240953504913
 30
0.0
 10
415.8614893281029
 20
572.734540167922
 30
0.0
 10
415.6833306707948
 20
572.7683780974684
 30
0.0
 10
415.5415853039046
 20
572.8024392145013
 30
0.0
 10
415.3818694200558
 20
572.8469359112554
 30
0.0
 10
415.2616100583929
 20
572.8824538559556
 30
0.0
 10
415.2018016160793
 20
572.9001179522667
 30
0.0
  0
SPLINE
  5
1A5
330
16E
100
AcDbEntity
  8
DV2_Default
  6
Continuous
 62
     7
100
AcDbSpline
210
0.0
220
0.0
230
1.0
 70
     8
 71
     3
 72
    16
 73
    12
 74
     0
 42
0.000000001
 43
0.0000000001
 40
0.0
 40
0.0
 40
0.0
 40
0.0
 40
0.1136186417474726
 40
0.3216509986449382
 40
0.4345691419514661
 40
0.5516164537513529
 40
0.6640639770874572
 40
0.7765303773774961
 40
0.8553682608629168
 40
0.9296541197611642
 40
1.0
 40
1.0
 40
1.0
 40
1.0
 10
416.1618854649733
 20
572.7577829469401
 30
0.0
 10
416.1999474881326
 20
572.7624644679659
 30
0.0
 10
416.3213000217849
 20
572.7931530251433
 30
0.0
 10
416.5286662375067
 20
572.8993484045253
 30
0.0
 10
416.7607776290012
 20
573.050027468625
 30
0.0
 10
416.9514404956816
 20
573.18569758012
 30
0.0
 10
417.1478607765522
 20
573.3320675894093
 30
0.0
 10
417.3266979872001
 20
573.4655288022811
 30
0.0
 10
417.4852503982223
 20
573.5800663480716
 30
0.0
 10
417.620546724197
 20
573.6726499420565
 30
0.0
 10
417.7093936945664
 20
573.725477977453
 30
0.0
 10
417.7526070194873
 20
573.7511724389411
 30
0.0
  0
SPLINE
  5
1A6
330
16E
100
AcDbEntity
  8
DV2_Default
  6
Continuous
 62
     7
100
AcDbSpline
210
0.0
220
0.0
230
1.0
 70
     8
 71
     3
 72
    22
 73
    18
 74
     0
 42
0.000000001
 43
0.0000000001
 40
0.0
 40
0.0
 40
0.0
 40
0.0
 40
0.0327861721148196
 40
0.0669250572937521
 40
0.1025751802268408
 40
0.1627245817187345
 40
0.225252912730913
 40
0.3005207100967991
 40
0.3750769379327911
 40
0.4546204120832842
 40
0.53060184227641
 40
0.6562517183718565
 40
0.7773226645166141
 40
0.8283513908661522
 40
0.8794408027734806
 40
0.9400424408410284
 40
1.0
 40
1.0
 40
1.0
 40
1.0
 10
418.4578787134528
 20
573.8755308671141
 30
0.0
 10
418.4788807447686
 20
573.8665834728163
 30
0.0
 10
418.5217513227728
 20
573.8483195268478
 30
0.0
 10
418.5784697742633
 20
573.8125877209142
 30
0.0
 10
418.6414779688348
 20
573.7619928157815
 30
0.0
 10
418.7026546974315
 20
573.6929824815826
 30
0.0
 10
418.7540950059241
 20
573.6006379903183
 30
0.0
 10
418.7788446651577
 20
573.4996470458611
 30
0.0
 10
418.7670986270426
 20
573.3942458279637
 30
0.0
 10
418.7143783175422
 20
573.2988351329278
 30
0.0
 10
418.5960105629788
 20
573.2025033485488
 30
0.0
 10
418.3807221494582
 20
573.1337430945933
 30
0.0
 10
418.1091699520821
 20
573.1308669059465
 30
0.0
 10
417.8862343113589
 20
573.156809445206
 30
0.0
 10
417.717150177094
 20
573.1860499999357
 30
0.0
 10
417.5341766876285
 20
573.226445753307
 30
0.0
 10
417.4035703793376
 20
573.2601392521499
 30
0.0
 10
417.3386161026334
 20
573.2768959990149
 30
0.0
  0
SPLINE
  5
1A7
330
16E
100
AcDbEntity
  8
DV2_Default
  6
Continuous
 62
     7
100
AcDbSpline
210
0.0
220
0.0
230
1.0
 70
     8
 71
     3
 72
    13
 73
     9
 74
     0
 42
0.000000001
 43
0.0000000001
 40
0.0
 40
0.0
 40
0.0
 40
0.0
 40
0.2083944092178607
 40
0.444392297890962
 40
0.6459435970846219
 40
0.8157887923323468
 40
0.911090122731076
 40
1.0
 40
1.0
 40
1.0
 40
1.0
 10
418.44808902278
 20
573.1615295065624
 30
0.0
 10
418.5559076059407
 20
573.1752261457016
 30
0.0
 10
418.8146454140514
 20
573.249351136055
 30
0.0
 10
419.2225170086738
 20
573.470285857426
 30
0.0
 10
419.5958614058081
 20
573.7305718685396
 30
0.0
 10
419.8680296166741
 20
573.9381354295483
 30
0.0
 10
420.065832163926
 20
574.0871858172567
 30
0.0
 10
420.1641381181129
 20
574.1529941883257
 30
0.0
 10
420.2115856672187
 20
574.1847567193304
 30
0.0
  0
SPLINE
  5
1A8
330
16E
100
AcDbEntity
  8
DV2_Default
  6
Continuous
 62
     7
100
AcDbSpline
210
0.0
220
0.0
230
1.0
 70
     8
 71
     3
 72
    21
 73
    17
 74
     0
 42
0.000000001
 43
0.0000000001
 40
0.0
 40
0.0
 40
0.0
 40
0.0
 40
0.0360564243551002
 40
0.0736004879419933
 40
0.1128065274744148
 40
0.1789555227471517
 40
0.2477207335384606
 40
0.3304961069856394
 40
0.4124889355334744
 40
0.4999664625759931
 40
0.5835266500763064
 40
0.721709455785873
 40
0.8548566068079809
 40
0.9109751864365385
 40
0.9671605047243037
 40
1.0
 40
1.0
 40
1.0
 40
1.0
 10
420.7239955470265
 20
574.2751084063108
 30
0.0
 10
420.7352632811047
 20
574.2644445927683
 30
0.0
 10
420.7582636407072
 20
574.2426769911804
 30
0.0
 10
420.7839657248613
 20
574.2014761628432
 30
0.0
 10
420.8073502663719
 20
574.1438945386004
 30
0.0
 10
420.8197106293869
 20
574.0662765620486
 30
0.0
 10
420.8097409075216
 20
573.9631038255635
 30
0.0
 10
420.7684807276641
 20
573.8504735654831
 30
0.0
 10
420.6863454273455
 20
573.7326608215019
 30
0.0
 10
420.5650696729873
 20
573.6251619518575
 30
0.0
 10
420.368365127573
 20
573.5150172776691
 30
0.0
 10
420.0747375700029
 20
573.4324437189713
 30
0.0
 10
419.7534662326432
 20
573.4208007044858
 30
0.0
 10
419.5064838043742
 20
573.4425031462983
 30
0.0
 10
419.3597911747749
 20
573.4645354662974
 30
0.0
 10
419.2702426687987
 20
573.4816667760147
 30
0.0
 10
419.2373605019422
 20
573.4884292367918
 30
0.0
  0
SPLINE
  5
1A9
330
16E
100
AcDbEntity
  8
DV2_Default
  6
Continuous
 62
     7
100
AcDbSpline
210
0.0
220
0.0
230
1.0
 70
     8
 71
     3
 72
    17
 73
    13
 74
     0
 42
0.000000001
 43
0.0000000001
 40
0.0
 40
0.0
 40
0.0
 40
0.0
 40
0.0137203889373587
 40
0.2294314924586238
 40
0.3381506519303497
 40
0.451964304226636
 40
0.548620183772399
 40
0.6469431542579768
 40
0.7319438418699468
 40
0.8147671986579608
 40
0.9106658970765057
 40
0.9999999999999999
 40
0.9999999999999999
 40
0.9999999999999999
 40
0.9999999999999999
 10
420.0943665777741
 20
573.4523685692881
 30
0.0
 10
420.1033924583607
 20
573.4535125641797
 30
0.0
 10
420.2549205156774
 20
573.4741348631229
 30
0.0
 10
420.4920956201918
 20
573.5416706219739
 30
0.0
 10
420.7893188359974
 20
573.6793015200834
 30
0.0
 10
420.9972513811983
 20
573.7984027482465
 30
0.0
 10
421.1865496956566
 20
573.9249810334044
 30
0.0
 10
421.3470434145898
 20
574.0450900216458
 30
0.0
 10
421.4889495134017
 20
574.1606433225053
 30
0.0
 10
421.6192165650631
 20
574.2725292077821
 30
0.0
 10
421.741445596862
 20
574.3815826814771
 30
0.0
 10
421.8146430449792
 20
574.4436903358112
 30
0.0
 10
421.84994472112
 20
574.4736436245622
 30
0.0
  0
SPLINE
  5
1AA
330
16E
100
AcDbEntity
  8
DV2_Default
  6
Continuous
 62
     7
100
AcDbSpline
210
0.0
220
0.0
230
1.0
 70
     8
 71
     3
 72
    18
 73
    14
 74
     0
 42
0.000000001
 43
0.0000000001
 40
0.0
 40
0.0
 40
0.0
 40
0.0
 40
0.042331421522266
 40
0.0864093801613345
 40
0.1324385529211304
 40
0.2100996369924027
 40
0.2908322436032506
 40
0.3880132394727289
 40
0.4842755019683796
 40
0.5869769799206978
 40
0.6850793731274212
 40
0.8473105066837365
 40
1.0
 40
1.0
 40
1.0
 40
1.0
 10
422.1193345371833
 20
574.52114431751
 30
0.0
 10
422.1199767767235
 20
574.5086069425982
 30
0.0
 10
422.1212877537417
 20
574.483014917664
 30
0.0
 10
422.1142231228719
 20
574.4360364333992
 30
0.0
 10
422.0967278891956
 20
574.371246601818
 30
0.0
 10
422.060397750033
 20
574.2850431760348
 30
0.0
 10
421.9916915527048
 20
574.1715136141505
 30
0.0
 10
421.8902239738356
 20
574.0482671651928
 30
0.0
 10
421.7474690968313
 20
573.9197655542936
 30
0.0
 10
421.5709507437178
 20
573.8025259240128
 30
0.0
 10
421.3164273993837
 20
573.6821862355857
 30
0.0
 10
420.9767040400191
 20
573.5917530457923
 30
0.0
 10
420.6981664765254
 20
573.5788217531174
 30
0.0
 10
420.5655487096216
 20
573.5845139620442
 30
0.0
  0
SPLINE
  5
1AB
330
16E
100
AcDbEntity
  8
DV2_Default
  6
Continuous
 62
     7
100
AcDbSpline
210
0.0
220
0.0
230
1.0
 70
     8
 71
     3
 72
    17
 73
    13
 74
     0
 42
0.000000001
 43
0.0000000001
 40
0.0
 40
0.0
 40
0.0
 40
0.0
 40
0.0597460842472139
 40
0.1805136241766159
 40
0.307022944135225
 40
0.4355257872060433
 40
0.5697127014413275
 40
0.6772923890973588
 40
0.7832442931208012
 40
0.8595972838004478
 40
0.9316548994261061
 40
1.0
 40
1.0
 40
1.0
 40
1.0
 10
420.9538551772671
 20
573.6039998794122
 30
0.0
 10
420.9976667425656
 20
573.609774243809
 30
0.0
 10
421.1303395484813
 20
573.6318423051279
 30
0.0
 10
421.3535333077365
 20
573.6930322974757
 30
0.0
 10
421.6116091147521
 20
573.8014038202075
 30
0.0
 10
421.8531619143598
 20
573.9401231875034
 30
0.0
 10
422.0525866065946
 20
574.0878929437156
 30
0.0
 10
422.2119741300339
 20
574.232042325201
 30
0.0
 10
422.3237918001452
 20
574.350829892776
 30
0.0
 10
422.4056852397065
 20
574.449464456848
 30
0.0
 10
422.4646902253265
 20
574.5275283906726
 30
0.0
 10
422.4933561904165
 20
574.5692470985283
 30
0.0
 10
422.5073101816237
 20
574.5895548914348
 30
0.0
  0
SPLINE
  5
1AC
330
16E
100
AcDbEntity
  8
DV2_Default
  6
Continuous
 62
     7
100
AcDbSpline
210
0.0
220
0.0
230
1.0
 70
     8
 71
     3
 72
     9
 73
     5
 74
     0
 42
0.000000001
 43
0.0000000001
 40
0.0
 40
0.0
 40
0.0
 40
0.0
 40
0.0180575191094034
 40
1.0
 40
1.0
 40
1.0
 40
1.0
 10
416.2871768742288
 20
572.7892241907031
 30
0.0
 10
416.2863490983013
 20
572.7889297370147
 30
0.0
 10
416.240578798345
 20
572.7727271379562
 30
0.0
 10
416.1987459734808
 20
572.7622925270108
 30
0.0
 10
416.1621267188173
 20
572.7577818437626
 30
0.0
  0
SPLINE
  5
1AD
330
16E
100
AcDbEntity
  8
DV2_Default
  6
Continuous
 62
     7
100
AcDbSpline
210
0.0
220
0.0
230
1.0
 70
     8
 71
     3
 72
     8
 73
     4
 74
     0
 42
0.000000001
 43
0.0000000001
 40
0.0
 40
0.0
 40
0.0
 40
0.0
 40
1.0
 40
1.0
 40
1.0
 40
1.0
 10
413.481029445612
 20
572.2876827027854
 30
0.0
 10
413.4704625726725
 20
572.2833232857178
 30
0.0
 10
413.4613197333569
 20
572.2806610572096
 30
0.0
 10
413.4536373565015
 20
572.2797101747029
 30
0.0
  0
SPLINE
  5
1AE
330
16E
100
AcDbEntity
  8
DV2_Default
  6
Continuous
 62
     7
100
AcDbSpline
210
0.0
220
0.0
230
1.0
 70
     8
 71
     3
 72
    22
 73
    18
 74
     0
 42
0.000000001
 43
0.0000000001
 40
0.0
 40
0.0
 40
0.0
 40
0.0
 40
0.0327861721182949
 40
0.0669250572991953
 40
0.1025751802327545
 40
0.1627245817176195
 40
0.2252529127337601
 40
0.3005207100930938
 40
0.3750769379335662
 40
0.4546204120864241
 40
0.5306018422763564
 40
0.656251718373098
 40
0.7773226645159877
 40
0.8283513908651775
 40
0.879440802772313
 40
0.9400424408404727
 40
1.0
 40
1.0
 40
1.0
 40
1.0
 10
412.2641289263503
 20
572.7834056678977
 30
0.0
 10
412.2982950261935
 20
572.7767794540555
 30
0.0
 10
412.368036872892
 20
572.7632536377612
 30
0.0
 10
412.4698611541149
 20
572.7354752065941
 30
0.0
 10
412.5933363576497
 20
572.6955422665865
 30
0.0
 10
412.7338648947046
 20
572.6405237971866
 30
0.0
 10
412.8924276781985
 20
572.5670678885116
 30
0.0
 10
413.0408228377174
 20
572.4878789817969
 30
0.0
 10
413.1713217498987
 20
572.4075593865024
 30
0.0
 10
413.2681618643973
 20
572.3385202294616
 30
0.0
 10
413.3360912317578
 20
572.2750376541048
 30
0.0
 10
413.3324678835727
 20
572.2435996620409
 30
0.0
 10
413.2304430006446
 20
572.270615712898
 30
0.0
 10
413.1134084395207
 20
572.3152314697766
 30
0.0
 10
413.0118883094868
 20
572.3563853813773
 30
0.0
 10
412.8898478494226
 20
572.4075252718494
 30
0.0
 10
412.7907577364513
 20
572.4467759262575
 30
0.0
 10
412.7414773708945
 20
572.4662964065515
 30
0.0
  0
SPLINE
  5
1AF
330
16E
100
AcDbEntity
  8
DV2_Default
  6
Continuous
 62
     7
100
AcDbSpline
210
0.0
220
0.0
230
1.0
 70
     8
 71
     3
 72
    13
 73
     9
 74
     0
 42
0.000000001
 43
0.0000000001
 40
0.0
 40
0.0
 40
0.0
 40
0.0
 40
0.1458766344338077
 40
0.2912580276981743
 40
0.4367078950200086
 40
0.582803719999878
 40
0.7301344948538236
 40
1.0
 40
1.0
 40
1.0
 40
1.0
 10
413.5952624382134
 20
572.6168417497129
 30
0.0
 10
413.5800296949107
 20
572.5972331945723
 30
0.0
 10
413.549615922424
 20
572.5580826539913
 30
0.0
 10
413.5120316684345
 20
572.5031875285603
 30
0.0
 10
413.4805615192296
 20
572.4522220661938
 30
0.0
 10
413.455803731246
 20
572.4061406863962
 30
0.0
 10
413.4326453334353
 20
572.3546352223434
 30
0.0
 10
413.4247154406479
 20
572.3256067556756
 30
0.0
 10
413.4237660593412
 20
572.3113195344137
 30
0.0
  0
SPLINE
  5
1B0
330
16E
100
AcDbEntity
  8
DV2_Default
  6
Continuous
 62
     7
100
AcDbSpline
210
0.0
220
0.0
230
1.0
 70
     8
 71
     3
 72
    16
 73
    12
 74
     0
 42
0.000000001
 43
0.0000000001
 40
0.0
 40
0.0
 40
0.0
 40
0.0
 40
0.1727294781088429
 40
0.3668892811708824
 40
0.4722321011149306
 40
0.5814398497456553
 40
0.6864131952261473
 40
0.7914110167477829
 40
0.8649997808733803
 40
0.9343389492411154
 40
1.0
 40
1.0
 40
1.0
 40
1.0
 10
413.4295380955649
 20
572.286155148132
 30
0.0
 10
413.4402711940472
 20
572.2738210645226
 30
0.0
 10
413.4945129745185
 20
572.2832476867717
 30
0.0
 10
413.6423552700281
 20
572.3903747851946
 30
0.0
 10
413.8112414774106
 20
572.5298779741448
 30
0.0
 10
413.9623966880737
 20
572.658558941667
 30
0.0
 10
414.1297472976049
 20
572.79981319559
 30
0.0
 10
414.2920897696122
 20
572.9303963921692
 30
0.0
 10
414.4431755272481
 20
573.0436423532847
 30
0.0
 10
414.5768904398072
 20
573.1359612992919
 30
0.0
 10
414.66893994394
 20
573.1893607491716
 30
0.0
 10
414.7137107391454
 20
573.2153330328589
 30
0.0
  0
ELLIPSE
  5
1B1
330
16E
100
AcDbEntity
  8
DV2_Default
  6
Continuous
 62
     7
100
AcDbEllipse
 10
415.21171654
 20
573.0307605957
 30
0.0
 11
0.03895706171011537
 21
0.1448528472026145
 31
0.0
210
0.0
220
0.0
230
1.0
 40
0.3163358086
 41
1.71759943277667
 42
3.680574345055563
  0
ELLIPSE
  5
1B2
330
16E
100
AcDbEntity
  8
DV2_Default
  6
Continuous
 62
     7
100
AcDbEllipse
 10
408.5379390545
 20
571.8539938678
 30
0.0
 11
-0.08615025640409946
 21
0.1227930507879116
 31
0.0
210
0.0
220
0.0
230
1.0
 40
0.316335376
 41
2.602610958508199
 42
4.565585870843772
  0
SPLINE
  5
1B3
330
16E
100
AcDbEntity
  8
DV2_Default
  6
Continuous
 62
     7
100
AcDbSpline
210
0.0
220
0.0
230
1.0
 70
    12
 71
     3
 72
     9
 73
     5
 74
     0
 42
0.000000001
 43
0.0000000001
 40
0.0
 40
0.0
 40
0.0
 40
0.0
 40
0.633518215718341
 40
1.0
 40
1.0
 40
1.0
 40
1.0
 10
407.8420275012654
 20
571.4824335388524
 30
0.0
 41
1.464061810669248
 10
407.8332512736659
 20
571.4909749740133
 30
0.0
 41
1.464061810669248
 10
407.8225827811883
 20
571.507765030861
 30
0.0
 41
1.464061810669248
 10
407.8169244084656
 20
571.5291982208033
 30
0.0
 41
1.464061810669248
 10
407.815508900254
 20
571.5376232039063
 30
0.0
 41
1.464061810669248
  0
ARC
  5
1B4
330
16E
100
AcDbEntity
  8
DV2_Default
  6
Continuous
 62
     7
100
AcDbCircle
 10
401.1712200725
 20
570.9935468929
 30
0.0
 40
0.1499999999998488
100
AcDbArc
 50
227.7930485356
 51
236.2818385136
  0
ELLIPSE
  5
1B5
330
16E
100
AcDbEntity
  8
DV2_Default
  6
Continuous
 62
     7
100
AcDbEllipse
 10
420.6135243835
 20
574.3544271227
 30
0.0
 11
0.08916197063491008
 21
0.1206239735372927
 31
0.0
210
0.0
220
0.0
230
1.0
 40
0.9066396235
 41
3.115803908695994
 42
3.240741049920726
  0
LINE
  5
1B6
330
16E
100
AcDbEntity
  8
DV2_Default
  6
Continuous
 62
     7
100
AcDbLine
 10
400.4441538957
 20
572.0165353579
 30
0.0
 11
400.4508150625
 21
571.9822666255
 31
0.0
  0
LINE
  5
1B7
330
16E
100
AcDbEntity
  8
DV2_Default
  6
Continuous
 62
     7
100
AcDbLine
 10
422.7672547244
 20
575.9172570512
 30
0.0
 11
422.7617935769
 21
575.9517373794
 31
0.0
  0
ARC
  5
1B8
330
16E
100
AcDbEntity
  8
DV2_Default
  6
Continuous
 62
     7
100
AcDbCircle
 10
420.7918780432
 20
575.6043881211
 30
0.0
 40
2.000000000000032
100
AcDbArc
 50
332.1782194112
 51
9.0
  0
ARC
  5
1B9
330
16E
100
AcDbEntity
  8
DV2_Default
  6
Continuous
 62
     7
100
AcDbCircle
 10
402.4140694294
 20
572.3638846162
 30
0.0
 40
1.999999999997605
100
AcDbArc
 50
191.0
 51
227.8047146724
  0
LINE
  5
1BA
330
16E
100
AcDbEntity
  8
DV2_Default
  6
Continuous
 62
     7
100
AcDbLine
 10
421.0145467221
 20
573.6127973932
 30
0.0
 11
421.0384018901
 21
573.6170037029
 31
0.0
  0
LINE
  5
1BB
330
16E
100
AcDbEntity
  8
DV2_Default
  6
Continuous
 62
     7
100
AcDbLine
 10
420.105892459
 20
573.4525771305
 30
0.0
 11
420.1722176197
 21
573.4642720458
 31
0.0
  0
LINE
  5
1BC
330
16E
100
AcDbEntity
  8
DV2_Default
  6
Continuous
 62
     7
100
AcDbLine
 10
418.4004892243
 20
573.1518685272
 30
0.0
 11
418.5017402578
 21
573.1697218162
 31
0.0
  0
LINE
  5
1BD
330
16E
100
AcDbEntity
  8
DV2_Default
  6
Continuous
 62
     7
100
AcDbLine
 10
416.0596937737
 20
572.7391231329
 30
0.0
 11
416.1973346684
 21
572.7633929363
 31
0.0
  0
LINE
  5
1BE
330
16E
100
AcDbEntity
  8
DV2_Default
  6
Continuous
 62
     7
100
AcDbLine
 10
413.3128466787
 20
572.2547798782
 30
0.0
 11
413.4704622534
 21
572.2825717566
 31
0.0
  0
LINE
  5
1BF
330
16E
100
AcDbEntity
  8
DV2_Default
  6
Continuous
 62
     7
100
AcDbLine
 10
410.4322407328
 20
571.7468513292
 30
0.0
 11
410.5903123939
 21
571.7747236279
 31
0.0
  0
LINE
  5
1C0
330
16E
100
AcDbEntity
  8
DV2_Default
  6
Continuous
 62
     7
100
AcDbLine
 10
407.7060045812
 20
571.2661423399
 30
0.0
 11
407.8438483162
 21
571.2904479095
 31
0.0
  0
LINE
  5
1C1
330
16E
100
AcDbEntity
  8
DV2_Default
  6
Continuous
 62
     7
100
AcDbLine
 10
405.3993277914
 20
570.859412986
 30
0.0
 11
405.5024531278
 21
570.8775967653
 31
0.0
  0
LINE
  5
1C2
330
16E
100
AcDbEntity
  8
DV2_Default
  6
Continuous
 62
     7
100
AcDbLine
 10
403.7282458592
 20
570.5647561544
 30
0.0
 11
403.7944027191
 21
570.5764213938
 31
0.0
  0
LINE
  5
1C3
330
16E
100
AcDbEntity
  8
DV2_Default
  6
Continuous
 62
     7
100
AcDbLine
 10
402.8626420984
 20
570.4121268568
 30
0.0
 11
402.8856094206
 21
570.4161766154
 31
0.0
  0
ARC
  5
1C4
330
16E
100
AcDbEntity
  8
DV2_Default
  6
Continuous
 62
     7
100
AcDbCircle
 10
412.0281545065
 20
571.4960872499
 30
0.0
 40
1.240483997359046
100
AcDbArc
 50
99.2714925094
 51
117.7938185738
  0
ARC
  5
1C5
330
16E
100
AcDbEntity
  8
DV2_Default
  6
Continuous
 62
     7
100
AcDbCircle
 10
412.0543971841
 20
571.5007241709
 30
0.0
 40
1.240474518137559
100
AcDbArc
 50
82.2060426956
 51
100.7285815046
  0
ARC
  5
1C6
330
16E
100
AcDbEntity
  8
DV2_Default
  6
Continuous
 62
     7
100
AcDbCircle
 10
415.3295990405
 20
572.030196336
 30
0.0
 40
1.287689560393748
100
AcDbArc
 50
99.7890674363
 51
117.5348958595
  0
ARC
  5
1C7
330
16E
100
AcDbEntity
  8
DV2_Default
  6
Continuous
 62
     7
100
AcDbCircle
 10
415.2952101191
 20
572.3640886255
 30
0.0
 40
0.9531346074504122
100
AcDbArc
 50
80.1229746375
 51
101.3041396242
  0
SPLINE
  5
1C8
330
16E
100
AcDbEntity
  8
DV2_Default
  6
Continuous
 62
     7
100
AcDbSpline
210
0.0
220
0.0
230
1.0
 70
     8
 71
     3
 72
    11
 73
     7
 74
     0
 42
0.000000001
 43
0.0000000001
 40
0.0
 40
0.0
 40
0.0
 40
0.0
 40
0.2455566404307901
 40
0.4967776810994497
 40
0.7492199678625355
 40
1.0
 40
1.0
 40
1.0
 40
1.0
 10
415.4390872681898
 20
573.3071642556959
 30
0.0
 10
415.5414992428931
 20
573.2780481179146
 30
0.0
 10
415.7155767867657
 20
573.227336364169
 30
0.0
 10
415.9146590236694
 20
573.0930264785635
 30
0.0
 10
416.0400700298258
 20
572.9588919994698
 30
0.0
 10
416.0402556349721
 20
572.8981374189915
 30
0.0
 10
416.0379112527111
 20
572.8631756217609
 30
0.0
  0
ARC
  5
1C9
330
16E
100
AcDbEntity
  8
DV2_Default
  6
Continuous
 62
     7
100
AcDbCircle
 10
408.6866240398
 20
571.2010590473
 30
0.0
 40
0.9508887574444921
100
AcDbArc
 50
98.8027186847
 51
119.8959930326
  0
ARC
  5
1CA
330
16E
100
AcDbEntity
  8
DV2_Default
  6
Continuous
 62
     7
100
AcDbCircle
 10
408.7693624525
 20
570.8727812424
 30
0.0
 40
1.28835435509803
100
AcDbArc
 50
82.46834278
 51
100.306472823
  0
SPLINE
  5
1CB
330
16E
100
AcDbEntity
  8
DV2_Default
  6
Continuous
 62
     7
100
AcDbSpline
210
0.0
220
0.0
230
1.0
 70
     8
 71
     3
 72
    11
 73
     7
 74
     0
 42
0.000000001
 43
0.0000000001
 40
0.0
 40
0.0
 40
0.0
 40
0.0
 40
0.2504860244554819
 40
0.5027242594188915
 40
0.7539685709035311
 40
1.0
 40
1.0
 40
1.0
 40
1.0
 10
407.8221441780544
 20
571.411540924123
 30
0.0
 10
407.8064328568634
 20
571.4421021330193
 30
0.0
 10
407.7831435224778
 20
571.4967742049864
 30
0.0
 10
407.8511819435718
 20
571.6635465901037
 30
0.0
 10
407.9887099465437
 20
571.8570424855039
 30
0.0
 10
408.1325244561182
 20
571.9653833871887
 30
0.0
 10
408.2175141107494
 20
572.0285448453754
 30
0.0
  0
ARC
  5
1CC
330
16E
100
AcDbEntity
  8
DV2_Default
  6
Continuous
 62
     7
100
AcDbCircle
 10
405.6504094978
 20
571.0840214461
 30
0.0
 40
0.5392062417639977
100
AcDbArc
 50
97.5345111619
 51
124.5244162783
  0
ARC
  5
1CD
330
16E
100
AcDbEntity
  8
DV2_Default
  6
Continuous
 62
     7
100
AcDbCircle
 10
405.7592215435
 20
570.5543818976
 30
0.0
 40
1.079200729226877
100
AcDbArc
 50
81.0088276261
 51
99.7732982032
  0
SPLINE
  5
1CE
330
16E
100
AcDbEntity
  8
DV2_Default
  6
Continuous
 62
     7
100
AcDbSpline
210
0.0
220
0.0
230
1.0
 70
     8
 71
     3
 72
     8
 73
     4
 74
     0
 42
0.000000001
 43
0.0000000001
 40
0.0
 40
0.0
 40
0.0
 40
0.0
 40
1.0
 40
1.0
 40
1.0
 40
1.0
 10
405.2540997017232
 20
571.4271781525557
 30
0.0
 10
405.2781889787548
 20
571.4628617155255
 30
0.0
 10
405.310920019634
 20
571.4985259039428
 30
0.0
 10
405.3522928243609
 20
571.5341707178076
 30
0.0
  0
LINE
  5
1CF
330
16E
100
AcDbEntity
  8
DV2_Default
  6
Continuous
 62
     7
100
AcDbLine
 10
403.135812102
 20
571.1699601094
 30
0.0
 11
403.2262241706
 21
571.2035901607
 31
0.0
  0
ARC
  5
1D0
330
16E
100
AcDbEntity
  8
DV2_Default
  6
Continuous
 62
     7
100
AcDbCircle
 10
403.3276573081
 20
570.5096888034
 30
0.0
 40
0.7012396534716553
100
AcDbArc
 50
76.89750152
 51
98.4062962354
  0
LINE
  5
1D1
330
16E
100
AcDbEntity
  8
DV2_Default
  6
Continuous
 62
     7
100
AcDbLine
 10
403.1208127201
 20
571.0968209377
 30
0.0
 11
403.1241326675
 21
571.1542533669
 31
0.0
  0
SPLINE
  5
1D2
330
16E
100
AcDbEntity
  8
DV2_Default
  6
Continuous
 62
     7
100
AcDbSpline
210
0.0
220
0.0
230
1.0
 70
     8
 71
     3
 72
     8
 73
     4
 74
     0
 42
0.000000001
 43
0.0000000001
 40
0.0
 40
0.0
 40
0.0
 40
0.0
 40
1.0
 40
1.0
 40
1.0
 40
1.0
 10
401.7164482579687
 20
570.9373695485172
 30
0.0
 10
401.7280113620455
 20
570.9432840733928
 30
0.0
 10
401.7733925364484
 20
570.9341550310071
 30
0.0
 10
401.8525917811775
 20
570.90998242136
 30
0.0
  0
ARC
  5
1D3
330
16E
100
AcDbEntity
  8
DV2_Default
  6
Continuous
 62
     7
100
AcDbCircle
 10
422.3249461845
 20
574.7783076476
 30
0.0
 40
0.2559022094401759
100
AcDbArc
 50
320.5326870528
 51
331.4664889464
  0
SPLINE
  5
1D4
330
16E
100
AcDbEntity
  8
DV2_Default
  6
Continuous
 62
     7
100
AcDbSpline
210
0.0
220
0.0
230
1.0
 70
     8
 71
     3
 72
     8
 73
     4
 74
     0
 42
0.000000001
 43
0.0000000001
 40
0.0
 40
0.0
 40
0.0
 40
0.0
 40
1.0
 40
1.0
 40
1.0
 40
1.0
 10
421.8166408238644
 20
574.4301183027001
 30
0.0
 10
421.8824803877827
 20
574.4797643399554
 30
0.0
 10
421.9220660390367
 20
574.5038990032913
 30
0.0
 10
421.9353977776266
 20
574.5025222927075
 30
0.0
  0
ARC
  5
1D5
330
16E
100
AcDbEntity
  8
DV2_Default
  6
Continuous
 62
     7
100
AcDbCircle
 10
420.5683916909
 20
573.5477839474
 30
0.0
 40
0.7031726910500478
100
AcDbArc
 50
101.7207940641
 51
123.0857260473
  0
LINE
  5
1D6
330
16E
100
AcDbEntity
  8
DV2_Default
  6
Continuous
 62
     7
100
AcDbLine
 10
420.424371596
 20
574.2360882138
 30
0.0
 11
420.5218830027
 21
574.2357143438
 31
0.0
  0
LINE
  5
1D7
330
16E
100
AcDbEntity
  8
DV2_Default
  6
Continuous
 62
     7
100
AcDbLine
 10
420.5342936342
 20
574.2280582726
 30
0.0
 11
420.5610963676
 21
574.1723631924
 31
0.0
  0
ARC
  5
1D8
330
16E
100
AcDbEntity
  8
DV2_Default
  6
Continuous
 62
     7
100
AcDbCircle
 10
418.2676979744
 20
572.7590414939
 30
0.0
 40
1.080122545135462
100
AcDbArc
 50
100.3357988557
 51
118.9852265887
  0
ARC
  5
1D9
330
16E
100
AcDbEntity
  8
DV2_Default
  6
Continuous
 62
     7
100
AcDbCircle
 10
418.1884568901
 20
573.2946734637
 30
0.0
 40
0.5393479797914581
100
AcDbArc
 50
75.485499647
 51
102.4661187235
  0
SPLINE
  5
1DA
330
16E
100
AcDbEntity
  8
DV2_Default
  6
Continuous
 62
     7
100
AcDbSpline
210
0.0
220
0.0
230
1.0
 70
     8
 71
     3
 72
     8
 73
     4
 74
     0
 42
0.000000001
 43
0.0000000001
 40
0.0
 40
0.0
 40
0.0
 40
0.0
 40
1.0
 40
1.0
 40
1.0
 40
1.0
 10
418.314391038647
 20
573.8198549260338
 30
0.0
 10
418.4518934850379
 20
573.767972107611
 30
0.0
 10
418.5306026447955
 20
573.6944717847365
 30
0.0
 10
418.5505185179198
 20
573.5993539574105
 30
0.0
  0
ENDBLK
  5
1DC
330
16E
100
AcDbEntity
  8
0
100
AcDbBlockEnd
  0
BLOCK
  5
212
330
1DD
100
AcDbEntity
  8
0
100
AcDbBlockBegin
  2
SE2
 70
     0
 10
0.0
 20
0.0
 30
0.0
  3
SE2
  1
SE2
  0
ARC
  5
1E0
330
1DD
100
AcDbEntity
  8
DV3_Default
  6
Continuous
 62
     7
100
AcDbCircle
 10
31.85
 20
309.9919970893
 30
0.0
 40
25.5
100
AcDbArc
 50
303.3652741301
 51
0.0
  0
ARC
  5
1E1
330
1DD
100
AcDbEntity
  8
DV3_Default
  6
Continuous
 62
     7
100
AcDbCircle
 10
31.85
 20
309.9919970893
 30
0.0
 40
25.5
100
AcDbArc
 50
0.0
 51
236.6503092598
  0
LINE
  5
1E2
330
1DD
100
AcDbEntity
  8
DV3_Default
  6
Continuous
 62
     7
100
AcDbLine
 10
45.85
 20
286.2419970893
 30
0.0
 11
85.5
 21
286.2419970893
 31
0.0
  0
LINE
  5
1E3
330
1DD
100
AcDbEntity
  8
DV3_Default
  6
Continuous
 62
     7
100
AcDbLine
 10
85.5
 20
333.7419970893
 30
0.0
 11
41.1473052517
 21
333.7419970893
 31
0.0
  0
ARC
  5
1E4
330
1DD
100
AcDbEntity
  8
DV3_Default
  6
Continuous
 62
     7
100
AcDbCircle
 10
85.5
 20
296.2419970893
 30
0.0
 40
9.999999999999998
100
AcDbArc
 50
270.0
 51
295.7852938783
  0
ARC
  5
1E5
330
1DD
100
AcDbEntity
  8
DV3_Default
  6
Continuous
 62
     7
100
AcDbCircle
 10
85.5
 20
323.7419970893
 30
0.0
 40
10.0
100
AcDbArc
 50
64.2147061217
 51
90.0
  0
ARC
  5
1E6
330
1DD
100
AcDbEntity
  8
DV3_Default
  6
Continuous
 62
     7
100
AcDbCircle
 10
115.4126655621
 20
296.6018095187
 30
0.0
 40
4.851533314765701
100
AcDbArc
 50
4.276554145
 51
91.9771951984
  0
ELLIPSE
  5
1E7
330
1DD
100
AcDbEntity
  8
DV3_Default
  6
Continuous
 62
     7
100
AcDbEllipse
 10
115.250691316
 20
265.1533660145
 30
0.0
 11
-5.000000000000004
 21
-2.081668171172169E-14
 31
0.0
210
0.0
220
0.0
230
1.0
 40
0.8480480962
 41
0.0
 42
6.283185307179586
  0
ARC
  5
1E8
330
1DD
100
AcDbEntity
  8
DV3_Default
  6
Continuous
 62
     7
100
AcDbCircle
 10
115.1424049516
 20
296.5456915725
 30
0.0
 40
4.905841589658226
100
AcDbArc
 50
88.7984325089
 51
175.6505834962
  0
SPLINE
  5
1E9
330
1DD
100
AcDbEntity
  8
DV3_Default
  6
Continuous
 62
     7
100
AcDbSpline
210
0.0
220
0.0
230
1.0
 70
     8
 71
     3
 72
    26
 73
    22
 74
     0
 42
0.000000001
 43
0.0000000001
 40
0.0
 40
0.0
 40
0.0
 40
0.0
 40
0.0803191288469983
 40
0.0803191288469983
 40
0.1722872159622984
 40
0.1722872159622984
 40
0.2642553030775985
 40
0.2642553030775985
 40
0.4481914773081987
 40
0.4481914773081987
 40
0.540159564423499
 40
0.540159564423499
 40
0.6321276515387991
 40
0.6321276515387991
 40
0.7240957386540994
 40
0.7240957386540994
 40
0.8160638257693995
 40
0.8160638257693995
 40
0.9080319128846999
 40
0.9080319128846999
 40
1.0
 40
1.0
 40
1.0
 40
1.0
 10
117.1104984236199
 20
334.6474027598382
 30
0.0
 10
117.4077856343168
 20
334.6454916622637
 30
0.0
 10
117.7190591025639
 20
334.5262820178135
 30
0.0
 10
118.4191855325035
 20
334.0153929340919
 30
0.0
 10
118.8065813480378
 20
333.5889926685342
 30
0.0
 10
119.589799275193
 20
332.4617288578618
 30
0.0
 10
119.9879258428382
 20
331.7593071986267
 30
0.0
 10
121.2059112839232
 20
329.2157017284275
 30
0.0
 10
122.0159398706526
 20
326.9932401136008
 30
0.0
 10
123.1362403822295
 20
323.1372434605296
 30
0.0
 10
123.5013350006535
 20
321.7453579132278
 30
0.0
 10
124.1847108069708
 20
318.8246195593691
 30
0.0
 10
124.5040068709463
 20
317.3143994287444
 30
0.0
 10
125.0883561826572
 20
314.1960457344986
 30
0.0
 10
125.3583406331118
 20
312.5682926994929
 30
0.0
 10
125.825242280023
 20
309.3350738396371
 30
0.0
 10
126.0233398705022
 20
307.7228174436956
 30
0.0
 10
126.3482057859723
 20
304.5073860132788
 30
0.0
 10
126.4743948851963
 20
302.9045615046539
 30
0.0
 10
126.640068799069
 20
299.8577475750168
 30
0.0
 10
126.6829655069235
 20
298.3941718335756
 30
0.0
 10
126.6826506110028
 20
296.9930464448479
 30
0.0
  0
SPLINE
  5
1EA
330
1DD
100
AcDbEntity
  8
DV3_Default
  6
Continuous
 62
     7
100
AcDbSpline
210
0.0
220
0.0
230
1.0
 70
     8
 71
     3
 72
    18
 73
    14
 74
     0
 42
0.000000001
 43
0.0000000001
 40
0.0
 40
0.0
 40
0.0
 40
0.0
 40
0.1954227411004929
 40
0.1954227411004929
 40
0.3908454822009859
 40
0.3908454822009859
 40
0.5862682233014788
 40
0.5862682233014788
 40
0.7816909644019717
 40
0.7816909644019717
 40
0.9771137055024647
 40
0.9771137055024647
 40
1.0
 40
1.0
 40
1.0
 40
1.0
 10
126.6826506110028
 20
296.9930464448479
 30
0.0
 10
126.6829055398442
 20
295.6126429104079
 30
0.0
 10
126.641248280381
 20
294.3237729976843
 30
0.0
 10
126.4745628255177
 20
291.9349667078645
 30
0.0
 10
126.3487733287318
 20
290.8605847772441
 30
0.0
 10
126.028134684465
 20
288.9935276157775
 30
0.0
 10
125.8263568124335
 20
288.1831675098609
 30
0.0
 10
125.358630825533
 20
286.8693060461627
 30
0.0
 10
125.0945448738275
 20
286.3679877825234
 30
0.0
 10
124.5068666642185
 20
285.6655614592988
 30
0.0
 10
124.1816544304685
 20
285.4680143242565
 30
0.0
 10
123.8006858088173
 20
285.4253198363252
 30
0.0
 10
123.7604980383956
 20
285.4229614097955
 30
0.0
 10
123.7200612651624
 20
285.4227217081759
 30
0.0
  0
SPLINE
  5
1EB
330
1DD
100
AcDbEntity
  8
DV3_Default
  6
Continuous
 62
     7
100
AcDbSpline
210
0.0
220
0.0
230
1.0
 70
     8
 71
     3
 72
    22
 73
    18
 74
     0
 42
0.000000001
 43
0.0000000001
 40
0.0
 40
0.0
 40
0.0
 40
0.0
 40
0.2017530695273316
 40
0.2017530695273316
 40
0.3026296042909974
 40
0.3026296042909974
 40
0.4035061390546631
 40
0.4035061390546631
 40
0.5043826738183289
 40
0.5043826738183289
 40
0.6052592085819948
 40
0.6052592085819948
 40
0.8070122781093263
 40
0.8070122781093263
 40
0.9078888128729922
 40
0.9078888128729922
 40
1.0
 40
1.0
 40
1.0
 40
1.0
 10
127.9721129447937
 20
297.7904562404226
 30
0.0
 10
127.9721947186344
 20
300.4222465841136
 30
0.0
 10
127.81042224788
 20
303.3702203167022
 30
0.0
 10
127.3590220686749
 20
307.8818109533913
 30
0.0
 10
127.1710054769105
 20
309.4269975298598
 30
0.0
 10
126.7356589181266
 20
312.4710887003453
 30
0.0
 10
126.4896574630489
 20
313.9669788035756
 30
0.0
 10
125.9422390973309
 20
316.9075711921576
 30
0.0
 10
125.6397194021393
 20
318.3530763243627
 30
0.0
 10
125.0044804704398
 20
321.0730451146525
 30
0.0
 10
124.6689105945565
 20
322.3637755565094
 30
0.0
 10
123.6073560692131
 20
326.0251897802534
 30
0.0
 10
122.8586419555503
 20
328.0744772988416
 30
0.0
 10
121.7208763610817
 20
330.4481886538861
 30
0.0
 10
121.3462294813304
 20
331.1079213726341
 30
0.0
 10
120.6382685352152
 20
332.1237616997389
 30
0.0
 10
120.3011275214327
 20
332.5023228184507
 30
0.0
 10
119.9774838775107
 20
332.7589912683249
 30
0.0
  0
SPLINE
  5
1EC
330
1DD
100
AcDbEntity
  8
DV3_Default
  6
Continuous
 62
     7
100
AcDbSpline
210
0.0
220
0.0
230
1.0
 70
     8
 71
     3
 72
    14
 73
    10
 74
     0
 42
0.000000001
 43
0.0000000001
 40
0.0
 40
0.0
 40
0.0
 40
0.0
 40
0.4851413196610763
 40
0.4851413196610763
 40
0.7277119794916146
 40
0.7277119794916146
 40
0.970282639322153
 40
0.970282639322153
 40
1.0
 40
1.0
 40
1.0
 40
1.0
 10
127.9721129447937
 20
297.7904562404226
 30
0.0
 10
127.9721947469653
 20
295.1580608863723
 30
0.0
 10
127.8104333242534
 20
292.8852694046516
 30
0.0
 10
127.3590372791844
 20
290.2604335256114
 30
0.0
 10
127.1710214920675
 20
289.5013811661282
 30
0.0
 10
126.7356759908859
 20
288.2776483233127
 30
0.0
 10
126.4896745667268
 20
287.8105016873399
 30
0.0
 10
126.1824327172756
 20
287.4451005982814
 30
0.0
 10
126.1484681046044
 20
287.4074038264228
 30
0.0
 10
126.1140962909372
 20
287.3718956699182
 30
0.0
  0
LINE
  5
1ED
330
1DD
100
AcDbEntity
  8
DV3_Default
  6
Continuous
 62
     7
100
AcDbLine
 10
89.9183276993
 20
296.8245264552
 30
0.0
 11
89.9183276993
 21
334.8429860315
 31
0.0
  0
LINE
  5
1EE
330
1DD
100
AcDbEntity
  8
DV3_Default
  6
Continuous
 62
     7
100
AcDbLine
 10
89.9183276993
 20
296.8245264552
 30
0.0
 11
89.9183276993
 21
285.1430542953
 31
0.0
  0
LINE
  5
1EF
330
1DD
100
AcDbEntity
  8
DV3_Default
  6
Continuous
 62
     7
100
AcDbLine
 10
110.250691316
 20
296.9160240977
 30
0.0
 11
110.250691316
 21
265.1533660145
 31
0.0
  0
LINE
  5
1F0
330
1DD
100
AcDbEntity
  8
DV3_Default
  6
Continuous
 62
     7
100
AcDbLine
 10
120.250691316
 20
265.1533660145
 30
0.0
 11
120.250691316
 21
296.961890235
 31
0.0
  0
ARC
  5
1F1
330
1DD
100
AcDbEntity
  8
DV3_Default
  6
Continuous
 62
     7
100
AcDbCircle
 10
112.5234945896
 20
1586.3235859911
 30
0.0
 40
1251.684741737246
100
AcDbArc
 50
268.9651938461
 51
270.210097239
  0
ARC
  5
1F2
330
1DD
100
AcDbEntity
  8
DV3_Default
  6
Continuous
 62
     7
100
AcDbCircle
 10
176.5977056898
 20
-8140.0498904403
 30
0.0
 40
8425.638821269458
100
AcDbArc
 50
90.4511744305
 51
90.589444936
  0
ARC
  5
1F3
330
1DD
100
AcDbEntity
  8
DV3_Default
  6
Continuous
 62
     7
100
AcDbCircle
 10
176.5977056898
 20
-8140.0498904403
 30
0.0
 40
8425.638821269458
100
AcDbArc
 50
90.3595948295
 51
90.3831688859
  0
ARC
  5
1F4
330
1DD
100
AcDbEntity
  8
DV3_Default
  6
Continuous
 62
     7
100
AcDbCircle
 10
952.6405535447
 20
1384.7197654029
 30
0.0
 40
1341.621839071025
100
AcDbArc
 50
231.536446945
 51
231.6377511144
  0
SPLINE
  5
1F5
330
1DD
100
AcDbEntity
  8
DV3_Default
  6
Continuous
 62
     7
100
AcDbSpline
210
0.0
220
0.0
230
1.0
 70
     8
 71
     3
 72
     8
 73
     4
 74
     0
 42
0.000000001
 43
0.0000000001
 40
0.0
 40
0.0
 40
0.0
 40
0.0
 40
1.0
 40
1.0
 40
1.0
 40
1.0
 10
124.6764842916081
 20
285.8790758699606
 30
0.0
 10
125.1591100806015
 20
286.3806157368212
 30
0.0
 10
125.6412374140355
 20
286.8812222486229
 30
0.0
 10
126.1228662919101
 20
287.3808954053657
 30
0.0
  0
ELLIPSE
  5
1F6
330
1DD
100
AcDbEntity
  8
DV3_Default
  6
Continuous
 62
     7
100
AcDbEllipse
 10
31.85
 20
132.3274106144
 30
0.0
 11
14.00000000000011
 21
-1.498801083243961E-12
 31
0.0
210
0.0
220
0.0
230
1.0
 40
0.984807753
 41
3.141630019864138
 42
6.283185307179586
  0
ELLIPSE
  5
1F7
330
1DD
100
AcDbEntity
  8
DV3_Default
  6
Continuous
 62
     7
100
AcDbEllipse
 10
31.85
 20
132.3274106144
 30
0.0
 11
14.00000000000011
 21
-1.498801083243961E-12
 31
0.0
210
0.0
220
0.0
230
1.0
 40
0.984807753
 41
0.0
 42
0.0000186268269981
  0
LINE
  5
1F8
330
1DD
100
AcDbEntity
  8
DV3_Default
  6
Continuous
 62
     7
100
AcDbLine
 10
17.85
 20
309.9919806066
 30
0.0
 11
17.85
 21
136.3211184183
 31
0.0
  0
LINE
  5
1F9
330
1DD
100
AcDbEntity
  8
DV3_Default
  6
Continuous
 62
     7
100
AcDbLine
 10
45.85
 20
136.3211184183
 30
0.0
 11
45.85
 21
309.9919806066
 31
0.0
  0
LINE
  5
1FA
330
1DD
100
AcDbEntity
  8
DV3_Default
  6
Continuous
 62
     7
100
AcDbLine
 10
17.85
 20
136.3211184183
 30
0.0
 11
17.85
 21
132.3274106144
 31
0.0
  0
LINE
  5
1FB
330
1DD
100
AcDbEntity
  8
DV3_Default
  6
Continuous
 62
     7
100
AcDbLine
 10
45.85
 20
132.3274106144
 30
0.0
 11
45.85
 21
136.3211184183
 31
0.0
  0
ELLIPSE
  5
1FC
330
1DD
100
AcDbEntity
  8
DV3_Default
  6
Continuous
 62
     7
100
AcDbEllipse
 10
31.85
 20
120.1373085422
 30
0.0
 11
-14.00000000000001
 21
-5.273559366969494E-13
 31
0.0
210
0.0
220
0.0
230
1.0
 40
0.984807753
 41
0.0
 42
3.141592653589793
  0
ELLIPSE
  5
1FD
330
1DD
100
AcDbEntity
  8
DV3_Default
  6
Continuous
 62
     7
100
AcDbEllipse
 10
31.85
 20
132.2926809789
 30
0.0
 11
-14.00000000000004
 21
-1.221245327087672E-12
 31
0.0
210
0.0
220
0.0
230
1.0
 40
0.984807753
 41
6.259492772203852
 42
6.283185307179586
  0
ELLIPSE
  5
1FE
330
1DD
100
AcDbEntity
  8
DV3_Default
  6
Continuous
 62
     7
100
AcDbEllipse
 10
31.85
 20
132.2926809789
 30
0.0
 11
-14.00000000000004
 21
-1.221245327087672E-12
 31
0.0
210
0.0
220
0.0
230
1.0
 40
0.984807753
 41
0.0000000000000001
 42
3.15798492200019
  0
LINE
  5
1FF
330
1DD
100
AcDbEntity
  8
DV3_Default
  6
Continuous
 62
     7
100
AcDbLine
 10
39.15
 20
114.068328233
 30
0.0
 11
39.15
 21
117.1592657955
 31
0.0
  0
SPLINE
  5
200
330
1DD
100
AcDbEntity
  8
DV3_Default
  6
Continuous
 62
     7
100
AcDbSpline
210
0.0
220
0.0
230
1.0
 70
     8
 71
     3
 72
    18
 73
    14
 74
     0
 42
0.000000001
 43
0.0000000001
 40
0.0
 40
0.0
 40
0.0
 40
0.0
 40
0.2499999999999997
 40
0.2499999999999997
 40
0.3749999999999997
 40
0.3749999999999997
 40
0.4999999999999998
 40
0.4999999999999998
 40
0.6249999999999998
 40
0.6249999999999998
 40
0.7499999999999999
 40
0.7499999999999999
 40
1.0
 40
1.0
 40
1.0
 40
1.0
 10
24.5499999999999
 20
114.0683282330141
 30
0.0
 10
24.5499999999999
 20
113.7264938653723
 30
0.0
 10
25.36317897123062
 20
112.8693553855112
 30
0.0
 10
27.34291774584983
 20
111.7506717865981
 30
0.0
 10
28.13987064929702
 20
111.405285625655
 30
0.0
 10
29.89313852083272
 20
110.9202167981936
 30
0.0
 10
30.86372562095829
 20
110.779108243941
 30
0.0
 10
32.81287565886198
 20
110.7769617012371
 30
0.0
 10
33.78650074808881
 20
110.9156123442065
 30
0.0
 10
35.55856196019365
 20
111.4038359764311
 30
0.0
 10
36.35384895240075
 20
111.7490830357963
 30
0.0
 10
38.33632313267096
 20
112.8685987368956
 30
0.0
 10
39.14999999999991
 20
113.7262231718273
 30
0.0
 10
39.1499999999999
 20
114.068328233014
 30
0.0
  0
LINE
  5
201
330
1DD
100
AcDbEntity
  8
DV3_Default
  6
Continuous
 62
     7
100
AcDbLine
 10
24.55
 20
117.1592657955
 30
0.0
 11
24.55
 21
114.068328233
 31
0.0
  0
SPLINE
  5
202
330
1DD
100
AcDbEntity
  8
DV3_Default
  6
Continuous
 62
     7
100
AcDbSpline
210
0.0
220
0.0
230
1.0
 70
     8
 71
     3
 72
    18
 73
    14
 74
     0
 42
0.000000001
 43
0.0000000001
 40
0.0
 40
0.0
 40
0.0
 40
0.0
 40
0.25
 40
0.25
 40
0.375
 40
0.375
 40
0.5
 40
0.5
 40
0.625
 40
0.625
 40
0.75
 40
0.75
 40
1.0
 40
1.0
 40
1.0
 40
1.0
 10
39.14999999999991
 20
117.1592657954856
 30
0.0
 10
39.14999999999991
 20
117.5011001631274
 30
0.0
 10
38.33682102876918
 20
117.2919358712817
 30
0.0
 10
36.35708225414997
 20
116.8621731669566
 30
0.0
 10
35.56012935070277
 20
116.7044858553975
 30
0.0
 10
33.80686147916706
 20
116.4758698512574
 30
0.0
 10
32.83627437904149
 20
116.4047634999484
 30
0.0
 10
30.88712434113781
 20
116.4037018462354
 30
0.0
 10
29.91349925191098
 20
116.4736501046041
 30
0.0
 10
28.14143803980614
 20
116.7038516530413
 30
0.0
 10
27.34615104759904
 20
116.8615022878373
 30
0.0
 10
25.36367686732885
 20
117.2917659354035
 30
0.0
 10
24.5499999999999
 20
117.5013708566724
 30
0.0
 10
24.5499999999999
 20
117.1592657954857
 30
0.0
  0
LINE
  5
203
330
1DD
100
AcDbEntity
  8
DV3_Default
  6
Continuous
 62
     7
100
AcDbLine
 10
45.85
 20
120.1373085422
 30
0.0
 11
45.85
 21
132.2926809789
 31
0.0
  0
LINE
  5
204
330
1DD
100
AcDbEntity
  8
DV3_Default
  6
Continuous
 62
     7
100
AcDbLine
 10
17.85
 20
132.2926809789
 30
0.0
 11
17.85
 21
120.1373085422
 31
0.0
  0
ELLIPSE
  5
205
330
1DD
100
AcDbEntity
  8
DV3_Default
  6
Continuous
 62
     7
100
AcDbEllipse
 10
33.9596528463
 20
116.8002366141
 30
0.0
 11
5.000000000043137
 21
-1.882105582495797E-10
 31
0.0
210
0.0
220
0.0
230
1.0
 40
0.984807753
 41
6.138828241149046
 42
6.27445864752076
  0
ELLIPSE
  5
206
330
1DD
100
AcDbEntity
  8
DV3_Default
  6
Continuous
 62
     7
100
AcDbEllipse
 10
29.7403471534
 20
116.8002366132
 30
0.0
 11
-4.999999999759356
 21
4.871381076299031E-10
 31
0.0
210
0.0
220
0.0
230
1.0
 40
0.984807753
 41
0.0087266611042898
 42
0.1443570680192052
  0
LINE
  5
207
330
1DD
100
AcDbEntity
  8
DV3_Default
  6
Continuous
 62
     7
100
AcDbLine
 10
38.5933515416
 20
113.9626732755
 30
0.0
 11
38.9076458486
 21
116.0918830444
 31
0.0
  0
SPLINE
  5
208
330
1DD
100
AcDbEntity
  8
DV3_Default
  6
Continuous
 62
     7
100
AcDbSpline
210
0.0
220
0.0
230
1.0
 70
     8
 71
     3
 72
     8
 73
     4
 74
     0
 42
0.000000001
 43
0.0000000001
 40
0.0
 40
0.0
 40
0.0
 40
0.0
 40
0.9999999999999999
 40
0.9999999999999999
 40
0.9999999999999999
 40
0.9999999999999999
 10
38.5933515416199
 20
113.9626732755496
 30
0.0
 10
38.58762373911212
 20
113.9291263962498
 30
0.0
 10
38.58189593660533
 20
113.8955795169499
 30
0.0
 10
38.5687703206954
 20
113.8594006271694
 30
0.0
  0
LINE
  5
209
330
1DD
100
AcDbEntity
  8
DV3_Default
  6
Continuous
 62
     7
100
AcDbLine
 10
25.1066484577
 20
113.9626732833
 30
0.0
 11
24.7923541528
 21
116.0918830373
 31
0.0
  0
SPLINE
  5
20A
330
1DD
100
AcDbEntity
  8
DV3_Default
  6
Continuous
 62
     7
100
AcDbSpline
210
0.0
220
0.0
230
1.0
 70
     8
 71
     3
 72
    18
 73
    14
 74
     0
 42
0.000000001
 43
0.0000000001
 40
0.0
 40
0.0
 40
0.0
 40
0.0
 40
0.0698874917958271
 40
0.1449711886080265
 40
0.2252460559629383
 40
0.3107046776518032
 40
0.4013354667313111
 40
0.4971207514653097
 40
0.5980349409674337
 40
0.7040431161669742
 40
0.8151207379876209
 40
0.931284163539362
 40
1.0
 40
1.0
 40
1.0
 40
1.0
 10
25.1115392261709
 20
116.9760215082792
 30
0.0
 10
25.11461803653525
 20
116.9860592360936
 30
0.0
 10
25.12100456989907
 20
117.0068810068397
 30
0.0
 10
25.14005724522687
 20
117.036015236267
 30
0.0
 10
25.16808464329703
 20
117.0644035871442
 30
0.0
 10
25.20731708381381
 20
117.0912240303743
 30
0.0
 10
25.25915192332457
 20
117.1159526700848
 30
0.0
 10
25.32530216886549
 20
117.1379690440115
 30
0.0
 10
25.40744557610977
 20
117.1566823420678
 30
0.0
 10
25.50733341461733
 20
117.1714923273284
 30
0.0
 10
25.62673176734329
 20
117.1818527967954
 30
0.0
 10
25.74604172958275
 20
117.1866428236582
 30
0.0
 10
25.82710645162057
 20
117.1875957081313
 30
0.0
 10
25.85812184621215
 20
117.1876853146507
 30
0.0
  0
SPLINE
  5
20B
330
1DD
100
AcDbEntity
  8
DV3_Default
  6
Continuous
 62
     7
100
AcDbSpline
210
0.0
220
0.0
230
1.0
 70
     8
 71
     3
 72
    11
 73
     7
 74
     0
 42
0.000000001
 43
0.0000000001
 40
0.0
 40
0.0
 40
0.0
 40
0.0
 40
0.2560482078631559
 40
0.5286489887933455
 40
0.818016699202729
 40
1.0
 40
1.0
 40
1.0
 40
1.0
 10
38.58846084547191
 20
116.9760218943632
 30
0.0
 10
38.57091544680741
 20
117.0107898244873
 30
0.0
 10
38.53469040411135
 20
117.0825733032937
 30
0.0
 10
38.35920460981381
 20
117.150121783312
 30
0.0
 10
38.11803785658798
 20
117.1815484591276
 30
0.0
 10
37.92011136179581
 20
117.1863873290779
 30
0.0
 10
37.83743515165975
 20
117.1864862131931
 30
0.0
  0
ELLIPSE
  5
20C
330
1DD
100
AcDbEntity
  8
DV3_Default
  6
Continuous
 62
     7
100
AcDbEllipse
 10
37.6037529397
 20
114.104343977
 30
0.0
 11
0.9999999999878917
 21
1.915134717478395E-12
 31
0.0
210
0.0
220
0.0
230
1.0
 40
0.984807753
 41
5.120428169716007
 42
6.13882825147324
  0
LINE
  5
20D
330
1DD
100
AcDbEntity
  8
DV3_Default
  6
Continuous
 62
     7
100
AcDbLine
 10
24.7354531993
 20
117.3300727088
 30
0.0
 11
24.7405460248
 21
116.7553592863
 31
0.0
  0
LINE
  5
20E
330
1DD
100
AcDbEntity
  8
DV3_Default
  6
Continuous
 62
     7
100
AcDbLine
 10
38.9594538399
 20
116.7553440186
 30
0.0
 11
38.9644359546
 21
117.3175639926
 31
0.0
  0
SPLINE
  5
20F
330
1DD
100
AcDbEntity
  8
DV3_Default
  6
Continuous
 62
     7
100
AcDbSpline
210
0.0
220
0.0
230
1.0
 70
     8
 71
     3
 72
    15
 73
    11
 74
     0
 42
0.000000001
 43
0.0000000001
 40
0.0
 40
0.0
 40
0.0
 40
0.0
 40
0.0253851025561054
 40
0.1848025924041429
 40
0.3426442532665195
 40
0.4988983170449084
 40
0.651233605073199
 40
0.800110566333416
 40
0.9458089912649332
 40
1.0
 40
1.0
 40
1.0
 40
1.0
 10
25.23870164954795
 20
113.5835156702293
 30
0.0
 10
25.24997923588482
 20
113.5539324107855
 30
0.0
 10
25.34302530883162
 20
113.339898004233
 30
0.0
 10
25.71473389884761
 20
112.9281386373613
 30
0.0
 10
26.36653149613957
 20
112.4327914179366
 30
0.0
 10
27.17963663215372
 20
111.9778408637018
 30
0.0
 10
28.12704627243779
 20
111.5752986995398
 30
0.0
 10
29.16194610745256
 20
111.2595257030224
 30
0.0
 10
30.03220132484402
 20
111.0887638695271
 30
0.0
 10
30.54632091086992
 20
111.0253188093053
 30
0.0
 10
30.68654395089646
 20
111.0107157504649
 30
0.0
  0
SPLINE
  5
210
330
1DD
100
AcDbEntity
  8
DV3_Default
  6
Continuous
 62
     7
100
AcDbSpline
210
0.0
220
0.0
230
1.0
 70
     8
 71
     3
 72
    16
 73
    12
 74
     0
 42
0.000000001
 43
0.0000000001
 40
0.0
 40
0.0
 40
0.0
 40
0.0
 40
0.0789385047971176
 40
0.2260722982474011
 40
0.3728371569235974
 40
0.4775510136323353
 40
0.5923151853534945
 40
0.7181209728658507
 40
0.8204990995067503
 40
0.9303337270537086
 40
1.0
 40
1.0
 40
1.0
 40
1.0
 10
33.03902221095311
 20
111.0135793140389
 30
0.0
 10
33.23680441411019
 20
111.0346588573834
 30
0.0
 10
33.79825708383314
 20
111.1097671414543
 30
0.0
 10
34.68974777739368
 20
111.2999989570982
 30
0.0
 10
35.5609546353351
 20
111.575045052395
 30
0.0
 10
36.30155134992307
 20
111.87984418441
 30
0.0
 10
36.94499225452275
 20
112.2087829505305
 30
0.0
 10
37.50414516658747
 20
112.5716917508291
 30
0.0
 10
37.96326005602735
 20
112.9527536746881
 30
0.0
 10
38.25224913142811
 20
113.2721266321027
 30
0.0
 10
38.3981454290775
 20
113.4796544393859
 30
0.0
 10
38.44249332314314
 20
113.5564903995992
 30
0.0
  0
ARC
  5
211
330
1DD
100
AcDbEntity
  8
DV3_Default
  6
Continuous
 62
     7
100
AcDbCircle
 10
31.85
 20
309.9919970893
 30
0.0
 40
14.00000000000001
100
AcDbArc
 50
359.9999325435
 51
180.0000674564
  0
ENDBLK
  5
213
330
1DD
100
AcDbEntity
  8
0
100
AcDbBlockEnd
  0
ENDSEC
  0
SECTION
  2
ENTITIES
  0
INSERT
  5
6C
330
1F
100
AcDbEntity
  8
Default
100
AcDbBlockReference
  2
SEANNOT_GROUP
 10
0.0
 20
0.0
 30
0.0
  0
INSERT
  5
73
330
1F
100
AcDbEntity
  8
Default
100
AcDbBlockReference
  2
SEANNOT_GROUP1
 10
0.0
 20
0.0
 30
0.0
  0
INSERT
  5
79
330
1F
100
AcDbEntity
  8
Default
100
AcDbBlockReference
  2
SEANNOT_GROUP2
 10
0.0
 20
0.0
 30
0.0
  0
INSERT
  5
7F
330
1F
100
AcDbEntity
  8
Default
100
AcDbBlockReference
  2
SE
 10
0.0
 20
0.0
 30
0.0
  0
INSERT
  5
16F
330
1F
100
AcDbEntity
  8
Default
100
AcDbBlockReference
  2
SE1
 10
0.0
 20
0.0
 30
0.0
  0
INSERT
  5
1DE
330
1F
100
AcDbEntity
  8
Default
100
AcDbBlockReference
  2
SE2
 10
0.0
 20
0.0
 30
0.0
  0
MTEXT
  5
214
330
1F
100
AcDbEntity
  8
Default
100
AcDbMText
 10
5.9362635081
 20
63.4225120485
 30
0.0
 40
10.0
 41
113.8626497168
 71
     1
 72
     1
  1
{\fSolid Edge ISO|b0||i0||c0|p34;\C7;\H10.;\W1.;Grohe AG\P}{\fSolid Edge ISO|b0||i0||c0|p34;\C7;\H10.;\W1.;\P}{\fSolid Edge ISO|b0||i0||c0|p34;\C7;\H10.;\W1.;ecn:\P}{\fSolid Edge ISO|b0||i0||c0|p34;\C7;\H10.;\W1.;unit: mm}
 73
     1
 44
1.0
1001
ACAD
1000
ACAD_MTEXT_DEFINED_HEIGHT_BEGIN
1070
    46
1040
65.4545454545
1000
ACAD_MTEXT_DEFINED_HEIGHT_END
  0
LINE
  5
215
330
1F
100
AcDbEntity
  8
Default
  6
Continuous
 62
     7
100
AcDbLine
 10
0.0
 20
0.0
 30
0.0
 11
100.0
 21
0.0
 31
0.0
  0
LINE
  5
216
330
1F
100
AcDbEntity
  8
Default
  6
Continuous
 62
     7
100
AcDbLine
 10
0.0
 20
0.0
 30
0.0
 11
0.0
 21
100.0
 31
0.0
  0
MTEXT
  5
217
330
1F
100
AcDbEntity
  8
Default
100
AcDbMText
 10
24.3923665681
 20
-8.2375342018
 30
0.0
 40
10.0
 41
35.00001
 71
     1
 72
     1
  1
{\fSolid Edge ISO|b0||i0||c0|p34;\C7;\H10.;\W1.;100 mm}
 73
     1
 44
1.0
1001
ACAD
1000
ACAD_MTEXT_DEFINED_HEIGHT_BEGIN
1070
    46
1040
16.3636363636
1000
ACAD_MTEXT_DEFINED_HEIGHT_END
  0
MTEXT
  5
218
330
1F
100
AcDbEntity
  8
Default
100
AcDbMText
 10
-20.5695763349
 20
24.6231930421
 30
0.0
 40
10.0
 41
35.00001
 71
     1
 72
     1
  1
{\fSolid Edge ISO|b0||i0||c0|p34;\C7;\H10.;\W1.;100 mm}
 11
6.123233995736766E-17
 21
1.0
 31
0.0
 73
     1
 44
1.0
1001
ACAD
1000
ACAD_MTEXT_DEFINED_HEIGHT_BEGIN
1070
    46
1040
16.3636363636
1000
ACAD_MTEXT_DEFINED_HEIGHT_END
  0
MTEXT
  5
219
330
1F
100
AcDbEntity
  8
Default
100
AcDbMText
 10
28.4878128572
 20
24.8634936442
 30
0.0
 40
10.0
 41
86.691737001
 71
     4
 72
     1
  1
{\fSolid Edge ISO|b0||i0||c0|p34;\C7;\H10.;\W1.;241231}
 73
     1
 44
1.0
1001
ACAD
1000
ACAD_MTEXT_DEFINED_HEIGHT_BEGIN
1070
    46
1040
16.3636363636
1000
ACAD_MTEXT_DEFINED_HEIGHT_END
  0
MTEXT
  5
21A
330
1F
100
AcDbEntity
  8
Default
100
AcDbMText
 10
5.9012241913
 20
41.4970052916
 30
0.0
 40
10.0
 41
109.9146987306
 71
     4
 72
     1
  1
{\fSolid Edge ISO|b0||i0||c0|p34;\C7;\H10.;\W1.;31479001}
 73
     1
 44
1.0
1001
ACAD
1000
ACAD_MTEXT_DEFINED_HEIGHT_BEGIN
1070
    46
1040
16.3636363636
1000
ACAD_MTEXT_DEFINED_HEIGHT_END
  0
ENDSEC
  0
SECTION
  2
OBJECTS
  0
DICTIONARY
  5
C
330
0
100
AcDbDictionary
281
     1
  3
ACAD_GROUP
350
D
  3
ACAD_LAYOUT
350
1A
  3
ACAD_MATERIAL
350
43
  3
ACAD_MLEADERSTYLE
350
21D
  3
ACAD_MLINESTYLE
350
17
  3
ACAD_PLOTSETTINGS
350
19
  3
ACAD_PLOTSTYLENAME
350
E
  3
ACAD_SCALELIST
350
47
  3
ACAD_VISUALSTYLE
350
2A
  3
AcDbVariableDictionary
350
21B
  0
DICTIONARY
  5
D
102
{ACAD_REACTORS
330
C
102
}
330
C
100
AcDbDictionary
281
     1
  0
DICTIONARY
  5
1A
102
{ACAD_REACTORS
330
C
102
}
330
C
100
AcDbDictionary
281
     1
  3
Layout1
350
1E
  3
Model
350
22
  0
DICTIONARY
  5
43
102
{ACAD_REACTORS
330
C
102
}
330
C
100
AcDbDictionary
281
     1
  3
ByBlock
350
45
  3
ByLayer
350
44
  3
Global
350
46
  0
DICTIONARY
  5
21D
102
{ACAD_REACTORS
330
C
102
}
330
C
100
AcDbDictionary
281
     1
  0
DICTIONARY
  5
17
102
{ACAD_REACTORS
330
C
102
}
330
C
100
AcDbDictionary
281
     1
  3
Standard
350
18
  0
DICTIONARY
  5
19
102
{ACAD_REACTORS
330
C
102
}
330
C
100
AcDbDictionary
281
     1
  0
ACDBDICTIONARYWDFLT
  5
E
102
{ACAD_REACTORS
330
C
102
}
330
C
100
AcDbDictionary
281
     1
  3
Normal
350
F
100
AcDbDictionaryWithDefault
340
F
  0
DICTIONARY
  5
47
102
{ACAD_REACTORS
330
C
102
}
330
C
100
AcDbDictionary
281
     1
  3
A0
350
48
  3
A1
350
49
  3
A2
350
4A
  3
A3
350
4B
  3
A4
350
4C
  3
A5
350
4D
  3
A6
350
4E
  3
A7
350
4F
  3
A8
350
50
  3
A9
350
51
  3
B0
350
52
  3
B1
350
53
  3
B2
350
54
  3
B3
350
55
  3
B4
350
56
  3
B5
350
57
  3
B6
350
58
  3
B7
350
59
  3
B8
350
5A
  3
B9
350
5B
  3
C0
350
5C
  3
C1
350
5D
  3
C2
350
5E
  3
C3
350
5F
  3
C4
350
60
  3
C5
350
61
  3
C6
350
62
  3
C7
350
63
  3
C8
350
64
  3
C9
350
65
  3
D0
350
66
  3
D1
350
67
  3
D2
350
68
  0
DICTIONARY
  5
2A
102
{ACAD_REACTORS
330
C
102
}
330
C
100
AcDbDictionary
281
     1
  3
2dWireframe
350
2F
  3
Basic
350
32
  3
Brighten
350
36
  3
ColorChange
350
3A
  3
Conceptual
350
34
  3
Dim
350
35
  3
EdgeColorOff
350
3D
  3
Facepattern
350
39
  3
Flat
350
2B
  3
FlatWithEdges
350
2C
  3
Gouraud
350
2D
  3
GouraudWithEdges
350
2E
  3
Hidden
350
31
  3
JitterOff
350
3B
  3
Linepattern
350
38
  3
OverhangOff
350
3C
  3
Realistic
350
33
  3
Shaded
350
42
  3
Shaded with edges
350
41
  3
Shades of Gray
350
3E
  3
Sketchy
350
3F
  3
Thicken
350
37
  3
Wireframe
350
30
  3
X-Ray
350
40
  0
DICTIONARY
  5
21B
102
{ACAD_REACTORS
330
C
102
}
330
C
100
AcDbDictionary
281
     1
  3
CANNOSCALE
350
224
  3
DIMASSOC
350
222
  3
HIDETEXT
350
223
  3
MSLTSCALE
350
225
  3
PSOLHEIGHT
350
21F
  3
PSOLWIDTH
350
21E
  0
LAYOUT
  5
1E
102
{ACAD_REACTORS
330
1A
102
}
330
1A
100
AcDbPlotSettings
  1

  2
none_device
  4

  6

 40
0.0
 41
0.0
 42
0.0
 43
0.0
 44
0.0
 45
0.0
 46
0.0
 47
0.0
 48
0.0
 49
0.0
140
0.0
141
0.0
142
1.0
143
1.0
 70
   688
 72
     1
 73
     0
 74
     5
  7

 75
    16
147
1.0
148
0.0
149
0.0
100
AcDbLayout
  1
Layout1
 70
     1
 71
     1
 10
0.0
 20
0.0
 11
3000.0
 21
4500.0
 12
0.0
 22
0.0
 32
0.0
 14
0.0
 24
0.0
 34
0.0
 15
3000.0
 25
4500.0
 35
0.0
146
0.0
 13
0.0
 23
0.0
 33
0.0
 16
1.0
 26
0.0
 36
0.0
 17
0.0
 27
1.0
 37
0.0
 76
     0
330
1B
  0
LAYOUT
  5
22
102
{ACAD_REACTORS
330
1A
102
}
330
1A
100
AcDbPlotSettings
  1

  2
none_device
  4
Letter_(8.50_x_11.00_Inches)
  6

 40
6.35
 41
6.35
 42
6.35000508
 43
6.35000508
 44
215.9
 45
279.4
 46
0.0
 47
0.0
 48
0.0
 49
0.0
140
0.0
141
0.0
142
1.0
143
1.0
 70
  1712
 72
     1
 73
     0
 74
     0
  7

 75
     0
147
1.0
148
0.0
149
0.0
100
AcDbLayout
  1
Model
 70
     1
 71
     0
 10
0.0
 20
0.0
 11
3000.0
 21
4500.0
 12
0.0
 22
0.0
 32
0.0
 14
0.0
 24
0.0
 34
0.0
 15
3000.0
 25
4500.0
 35
0.0
146
0.0
 13
0.0
 23
0.0
 33
0.0
 16
1.0
 26
0.0
 36
0.0
 17
0.0
 27
1.0
 37
0.0
 76
     0
330
1F
331
29
  0
MATERIAL
  5
45
102
{ACAD_REACTORS
330
43
102
}
102
{ACAD_XDICTIONARY
360
258
102
}
330
43
100
AcDbMaterial
  1
ByBlock
  0
MATERIAL
  5
44
102
{ACAD_REACTORS
330
43
102
}
102
{ACAD_XDICTIONARY
360
256
102
}
330
43
100
AcDbMaterial
  1
ByLayer
  0
MATERIAL
  5
46
102
{ACAD_REACTORS
330
43
102
}
102
{ACAD_XDICTIONARY
360
25A
102
}
330
43
100
AcDbMaterial
  1
Global
  0
MLINESTYLE
  5
18
102
{ACAD_REACTORS
330
17
102
}
330
17
100
AcDbMlineStyle
  2
Standard
 70
     0
  3

 62
   256
 51
90.0
 52
90.0
 71
     2
 49
0.5
 62
   256
  6
BYLAYER
 49
-0.5
 62
   256
  6
BYLAYER
  0
ACDBPLACEHOLDER
  5
F
102
{ACAD_REACTORS
330
E
102
}
330
E
  0
SCALE
  5
48
102
{ACAD_REACTORS
330
47
102
}
330
47
100
AcDbScale
 70
     0
300
1:1
140
1.0
141
1.0
290
     1
  0
SCALE
  5
49
102
{ACAD_REACTORS
330
47
102
}
330
47
100
AcDbScale
 70
     0
300
1:2
140
1.0
141
2.0
290
     0
  0
SCALE
  5
4A
102
{ACAD_REACTORS
330
47
102
}
330
47
100
AcDbScale
 70
     0
300
1:4
140
1.0
141
4.0
290
     0
  0
SCALE
  5
4B
102
{ACAD_REACTORS
330
47
102
}
330
47
100
AcDbScale
 70
     0
300
1:5
140
1.0
141
5.0
290
     0
  0
SCALE
  5
4C
102
{ACAD_REACTORS
330
47
102
}
330
47
100
AcDbScale
 70
     0
300
1:8
140
1.0
141
8.0
290
     0
  0
SCALE
  5
4D
102
{ACAD_REACTORS
330
47
102
}
330
47
100
AcDbScale
 70
     0
300
1:10
140
1.0
141
10.0
290
     0
  0
SCALE
  5
4E
102
{ACAD_REACTORS
330
47
102
}
330
47
100
AcDbScale
 70
     0
300
1:16
140
1.0
141
16.0
290
     0
  0
SCALE
  5
4F
102
{ACAD_REACTORS
330
47
102
}
330
47
100
AcDbScale
 70
     0
300
1:20
140
1.0
141
20.0
290
     0
  0
SCALE
  5
50
102
{ACAD_REACTORS
330
47
102
}
330
47
100
AcDbScale
 70
     0
300
1:30
140
1.0
141
30.0
290
     0
  0
SCALE
  5
51
102
{ACAD_REACTORS
330
47
102
}
330
47
100
AcDbScale
 70
     0
300
1:40
140
1.0
141
40.0
290
     0
  0
SCALE
  5
52
102
{ACAD_REACTORS
330
47
102
}
330
47
100
AcDbScale
 70
     0
300
1:50
140
1.0
141
50.0
290
     0
  0
SCALE
  5
53
102
{ACAD_REACTORS
330
47
102
}
330
47
100
AcDbScale
 70
     0
300
1:100
140
1.0
141
100.0
290
     0
  0
SCALE
  5
54
102
{ACAD_REACTORS
330
47
102
}
330
47
100
AcDbScale
 70
     0
300
2:1
140
2.0
141
1.0
290
     0
  0
SCALE
  5
55
102
{ACAD_REACTORS
330
47
102
}
330
47
100
AcDbScale
 70
     0
300
4:1
140
4.0
141
1.0
290
     0
  0
SCALE
  5
56
102
{ACAD_REACTORS
330
47
102
}
330
47
100
AcDbScale
 70
     0
300
8:1
140
8.0
141
1.0
290
     0
  0
SCALE
  5
57
102
{ACAD_REACTORS
330
47
102
}
330
47
100
AcDbScale
 70
     0
300
10:1
140
10.0
141
1.0
290
     0
  0
SCALE
  5
58
102
{ACAD_REACTORS
330
47
102
}
330
47
100
AcDbScale
 70
     0
300
100:1
140
100.0
141
1.0
290
     0
  0
SCALE
  5
59
102
{ACAD_REACTORS
330
47
102
}
330
47
100
AcDbScale
 70
     0
300
1/128" = 1'-0"
140
0.0078125
141
12.0
290
     0
  0
SCALE
  5
5A
102
{ACAD_REACTORS
330
47
102
}
330
47
100
AcDbScale
 70
     0
300
1/64" = 1'-0"
140
0.015625
141
12.0
290
     0
  0
SCALE
  5
5B
102
{ACAD_REACTORS
330
47
102
}
330
47
100
AcDbScale
 70
     0
300
1/32" = 1'-0"
140
0.03125
141
12.0
290
     0
  0
SCALE
  5
5C
102
{ACAD_REACTORS
330
47
102
}
330
47
100
AcDbScale
 70
     0
300
1/16" = 1'-0"
140
0.0625
141
12.0
290
     0
  0
SCALE
  5
5D
102
{ACAD_REACTORS
330
47
102
}
330
47
100
AcDbScale
 70
     0
300
3/32" = 1'-0"
140
0.09375
141
12.0
290
     0
  0
SCALE
  5
5E
102
{ACAD_REACTORS
330
47
102
}
330
47
100
AcDbScale
 70
     0
300
1/8" = 1'-0"
140
0.125
141
12.0
290
     0
  0
SCALE
  5
5F
102
{ACAD_REACTORS
330
47
102
}
330
47
100
AcDbScale
 70
     0
300
3/16" = 1'-0"
140
0.1875
141
12.0
290
     0
  0
SCALE
  5
60
102
{ACAD_REACTORS
330
47
102
}
330
47
100
AcDbScale
 70
     0
300
1/4" = 1'-0"
140
0.25
141
12.0
290
     0
  0
SCALE
  5
61
102
{ACAD_REACTORS
330
47
102
}
330
47
100
AcDbScale
 70
     0
300
3/8" = 1'-0"
140
0.375
141
12.0
290
     0
  0
SCALE
  5
62
102
{ACAD_REACTORS
330
47
102
}
330
47
100
AcDbScale
 70
     0
300
1/2" = 1'-0"
140
0.5
141
12.0
290
     0
  0
SCALE
  5
63
102
{ACAD_REACTORS
330
47
102
}
330
47
100
AcDbScale
 70
     0
300
3/4" = 1'-0"
140
0.75
141
12.0
290
     0
  0
SCALE
  5
64
102
{ACAD_REACTORS
330
47
102
}
330
47
100
AcDbScale
 70
     0
300
1" = 1'-0"
140
1.0
141
12.0
290
     0
  0
SCALE
  5
65
102
{ACAD_REACTORS
330
47
102
}
330
47
100
AcDbScale
 70
     0
300
1-1/2" = 1'-0"
140
1.5
141
12.0
290
     0
  0
SCALE
  5
66
102
{ACAD_REACTORS
330
47
102
}
330
47
100
AcDbScale
 70
     0
300
3" = 1'-0"
140
3.0
141
12.0
290
     0
  0
SCALE
  5
67
102
{ACAD_REACTORS
330
47
102
}
330
47
100
AcDbScale
 70
     0
300
6" = 1'-0"
140
6.0
141
12.0
290
     0
  0
SCALE
  5
68
102
{ACAD_REACTORS
330
47
102
}
330
47
100
AcDbScale
 70
     0
300
1'-0" = 1'-0"
140
12.0
141
12.0
290
     0
  0
VISUALSTYLE
  5
2F
102
{ACAD_REACTORS
330
2A
102
}
102
{ACAD_XDICTIONARY
360
22E
102
}
330
2A
100
AcDbVisualStyle
  2
2dWireframe
 70
     4
 71
     0
 72
     2
 73
     0
 90
        0
 40
0.6
 41
30.0
 62
     5
 63
     7
 74
     1
 91
        4
 64
     7
 65
   257
 75
     1
175
     1
 42
1.0
 92
        0
 66
   257
 43
1.0
 76
     1
 77
     6
 78
     2
 67
     7
 79
     5
170
     0
171
     0
290
     0
174
     0
 93
        1
 44
0.0
173
     0
291
     0
 45
0.0
1001
ACAD
1000
AcDbSavedByObjectVersion
1070
     0
  0
VISUALSTYLE
  5
32
102
{ACAD_REACTORS
330
2A
102
}
102
{ACAD_XDICTIONARY
360
234
102
}
330
2A
100
AcDbVisualStyle
  2
Basic
 70
     7
 71
     1
 72
     0
 73
     1
 90
        0
 40
0.6
 41
30.0
 62
     5
 63
     7
 74
     0
 91
        4
 64
     7
 65
   257
 75
     1
175
     1
 42
1.0
 92
        8
 66
     7
 43
1.0
 76
     1
 77
     6
 78
     2
 67
     7
 79
     5
170
     0
171
     0
290
     0
174
     0
 93
        1
 44
0.0
173
     0
291
     1
 45
0.0
1001
ACAD
1000
AcDbSavedByObjectVersion
1070
     0
  0
VISUALSTYLE
  5
36
102
{ACAD_REACTORS
330
2A
102
}
102
{ACAD_XDICTIONARY
360
23C
102
}
330
2A
100
AcDbVisualStyle
  2
Brighten
 70
    12
 71
     2
 72
     2
 73
     0
 90
        0
 40
0.6
 41
30.0
 62
     5
 63
     7
 74
     1
 91
        4
 64
     7
 65
   257
 75
     1
175
     1
 42
1.0
 92
        8
 66
     7
 43
1.0
 76
     1
 77
     6
 78
     2
 67
     7
 79
     5
170
     0
171
     0
290
     0
174
     0
 93
        1
 44
50.0
173
     0
291
     1
 45
0.0
1001
ACAD
1000
AcDbSavedByObjectVersion
1070
     0
  0
VISUALSTYLE
  5
3A
102
{ACAD_REACTORS
330
2A
102
}
102
{ACAD_XDICTIONARY
360
244
102
}
330
2A
100
AcDbVisualStyle
  2
ColorChange
 70
    16
 71
     2
 72
     2
 73
     3
 90
        0
 40
0.6
 41
30.0
 62
     5
 63
     8
 74
     1
 91
        4
 64
     7
 65
   257
 75
     1
175
     1
 42
1.0
 92
        8
 66
     8
 43
1.0
 76
     1
 77
     6
 78
     2
 67
     7
 79
     5
170
     0
171
     0
290
     0
174
     0
 93
        1
 44
0.0
173
     0
291
     1
 45
0.0
1001
ACAD
1000
AcDbSavedByObjectVersion
1070
     0
  0
VISUALSTYLE
  5
34
102
{ACAD_REACTORS
330
2A
102
}
102
{ACAD_XDICTIONARY
360
238
102
}
330
2A
100
AcDbVisualStyle
  2
Conceptual
 70
     9
 71
     3
 72
     2
 73
     0
 90
        0
 40
0.6
 41
30.0
 62
     5
 63
     7
 74
     2
 91
        2
 64
     7
 65
   257
 75
     1
175
     1
 42
179.0
 92
        8
 66
     7
 43
1.0
 76
     1
 77
     6
 78
     2
 67
     7
 79
     3
170
     0
171
     0
290
     0
174
     0
 93
        1
 44
0.0
173
     0
291
     0
 45
0.0
1001
ACAD
1000
AcDbSavedByObjectVersion
1070
     0
  0
VISUALSTYLE
  5
35
102
{ACAD_REACTORS
330
2A
102
}
102
{ACAD_XDICTIONARY
360
23A
102
}
330
2A
100
AcDbVisualStyle
  2
Dim
 70
    11
 71
     2
 72
     2
 73
     0
 90
        0
 40
0.6
 41
30.0
 62
     5
 63
     7
 74
     1
 91
        4
 64
     7
 65
   257
 75
     1
175
     1
 42
1.0
 92
        8
 66
     7
 43
1.0
 76
     1
 77
     6
 78
     2
 67
     7
 79
     5
170
     0
171
     0
290
     0
174
     0
 93
        1
 44
-50.0
173
     0
291
     1
 45
0.0
1001
ACAD
1000
AcDbSavedByObjectVersion
1070
     0
  0
VISUALSTYLE
  5
3D
102
{ACAD_REACTORS
330
2A
102
}
102
{ACAD_XDICTIONARY
360
24A
102
}
330
2A
100
AcDbVisualStyle
  2
EdgeColorOff
 70
    22
 71
     2
 72
     2
 73
     0
 90
        0
 40
0.6
 41
30.0
 62
     5
 63
     7
 74
     1
 91
        4
 64
     7
 65
   257
 75
     1
175
     1
 42
1.0
 92
        8
 66
     7
 43
1.0
 76
     1
 77
     6
 78
     2
 67
     7
 79
     5
170
     0
171
     0
290
     0
174
     0
 93
        1
 44
0.0
173
     0
291
     1
 45
0.0
1001
ACAD
1000
AcDbSavedByObjectVersion
1070
     0
  0
VISUALSTYLE
  5
39
102
{ACAD_REACTORS
330
2A
102
}
102
{ACAD_XDICTIONARY
360
242
102
}
330
2A
100
AcDbVisualStyle
  2
Facepattern
 70
    15
 71
     2
 72
     2
 73
     0
 90
        0
 40
0.6
 41
30.0
 62
     5
 63
     7
 74
     1
 91
        4
 64
     7
 65
   257
 75
     1
175
     1
 42
1.0
 92
        8
 66
     7
 43
1.0
 76
     1
 77
     6
 78
     2
 67
     7
 79
     5
170
     0
171
     0
290
     0
174
     0
 93
        1
 44
0.0
173
     0
291
     1
 45
0.0
1001
ACAD
1000
AcDbSavedByObjectVersion
1070
     0
  0
VISUALSTYLE
  5
2B
102
{ACAD_REACTORS
330
2A
102
}
102
{ACAD_XDICTIONARY
360
226
102
}
330
2A
100
AcDbVisualStyle
  2
Flat
 70
     0
 71
     2
 72
     1
 73
     1
 90
        2
 40
0.6
 41
30.0
 62
     5
 63
     7
 74
     0
 91
        0
 64
     7
 65
   257
 75
     1
175
     1
 42
1.0
 92
        8
 66
     7
 43
1.0
 76
     1
 77
     6
 78
     2
 67
     7
 79
     5
170
     0
171
     0
290
     0
174
     0
 93
       13
 44
0.0
173
     0
291
     1
 45
0.0
1001
ACAD
1000
AcDbSavedByObjectVersion
1070
     0
  0
VISUALSTYLE
  5
2C
102
{ACAD_REACTORS
330
2A
102
}
102
{ACAD_XDICTIONARY
360
228
102
}
330
2A
100
AcDbVisualStyle
  2
FlatWithEdges
 70
     1
 71
     2
 72
     1
 73
     1
 90
        2
 40
0.6
 41
30.0
 62
     5
 63
     7
 74
     1
 91
        0
 64
     7
 65
   257
 75
     1
175
     1
 42
1.0
 92
        0
 66
   257
 43
1.0
 76
     1
 77
     6
 78
     2
 67
     7
 79
     5
170
     0
171
     0
290
     0
174
     0
 93
       13
 44
0.0
173
     0
291
     1
 45
0.0
1001
ACAD
1000
AcDbSavedByObjectVersion
1070
     0
  0
VISUALSTYLE
  5
2D
102
{ACAD_REACTORS
330
2A
102
}
102
{ACAD_XDICTIONARY
360
22A
102
}
330
2A
100
AcDbVisualStyle
  2
Gouraud
 70
     2
 71
     2
 72
     2
 73
     1
 90
        2
 40
0.6
 41
30.0
 62
     5
 63
     7
 74
     0
 91
        0
 64
     7
 65
   257
 75
     1
175
     1
 42
1.0
 92
        0
 66
     7
 43
1.0
 76
     1
 77
     6
 78
     2
 67
     7
 79
     5
170
     0
171
     0
290
     0
174
     0
 93
       13
 44
0.0
173
     0
291
     1
 45
0.0
1001
ACAD
1000
AcDbSavedByObjectVersion
1070
     0
  0
VISUALSTYLE
  5
2E
102
{ACAD_REACTORS
330
2A
102
}
102
{ACAD_XDICTIONARY
360
22C
102
}
330
2A
100
AcDbVisualStyle
  2
GouraudWithEdges
 70
     3
 71
     2
 72
     2
 73
     1
 90
        2
 40
0.6
 41
30.0
 62
     5
 63
     7
 74
     1
 91
        0
 64
     7
 65
   257
 75
     1
175
     1
 42
1.0
 92
        0
 66
   257
 43
1.0
 76
     1
 77
     6
 78
     2
 67
     7
 79
     5
170
     0
171
     0
290
     0
174
     0
 93
       13
 44
0.0
173
     0
291
     1
 45
0.0
1001
ACAD
1000
AcDbSavedByObjectVersion
1070
     0
  0
VISUALSTYLE
  5
31
102
{ACAD_REACTORS
330
2A
102
}
102
{ACAD_XDICTIONARY
360
232
102
}
330
2A
100
AcDbVisualStyle
  2
Hidden
 70
     6
 71
     1
 72
     2
 73
     2
 90
        0
 40
0.6
 41
30.0
 62
     5
 63
     7
 74
     2
 91
        2
 64
     7
 65
   257
 75
     2
175
     1
 42
40.0
 92
        0
 66
   257
 43
1.0
 76
     1
 77
     6
 78
     2
 67
     7
 79
     3
170
     0
171
     0
290
     0
174
     0
 93
        1
 44
0.0
173
     0
291
     0
 45
0.0
1001
ACAD
1000
AcDbSavedByObjectVersion
1070
     0
  0
VISUALSTYLE
  5
3B
102
{ACAD_REACTORS
330
2A
102
}
102
{ACAD_XDICTIONARY
360
246
102
}
330
2A
100
AcDbVisualStyle
  2
JitterOff
 70
    20
 71
     2
 72
     2
 73
     0
 90
        0
 40
0.6
 41
30.0
 62
     5
 63
     7
 74
     1
 91
        4
 64
     7
 65
   257
 75
     1
175
     1
 42
1.0
 92
       10
 66
     7
 43
1.0
 76
     1
 77
     6
 78
     2
 67
     7
 79
     5
170
     0
171
     0
290
     0
174
     0
 93
        1
 44
0.0
173
     0
291
     1
 45
0.0
1001
ACAD
1000
AcDbSavedByObjectVersion
1070
     0
  0
VISUALSTYLE
  5
38
102
{ACAD_REACTORS
330
2A
102
}
102
{ACAD_XDICTIONARY
360
240
102
}
330
2A
100
AcDbVisualStyle
  2
Linepattern
 70
    14
 71
     2
 72
     2
 73
     0
 90
        0
 40
0.6
 41
30.0
 62
     5
 63
     7
 74
     1
 91
        4
 64
     7
 65
   257
 75
     7
175
     7
 42
1.0
 92
        8
 66
     7
 43
1.0
 76
     1
 77
     6
 78
     2
 67
     7
 79
     5
170
     0
171
     0
290
     0
174
     0
 93
        1
 44
0.0
173
     0
291
     1
 45
0.0
1001
ACAD
1000
AcDbSavedByObjectVersion
1070
     0
  0
VISUALSTYLE
  5
3C
102
{ACAD_REACTORS
330
2A
102
}
102
{ACAD_XDICTIONARY
360
248
102
}
330
2A
100
AcDbVisualStyle
  2
OverhangOff
 70
    21
 71
     2
 72
     2
 73
     0
 90
        0
 40
0.6
 41
30.0
 62
     5
 63
     7
 74
     1
 91
        4
 64
     7
 65
   257
 75
     1
175
     1
 42
1.0
 92
        9
 66
     7
 43
1.0
 76
     1
 77
     6
 78
     2
 67
     7
 79
     5
170
     0
171
     0
290
     0
174
     0
 93
        1
 44
0.0
173
     0
291
     1
 45
0.0
1001
ACAD
1000
AcDbSavedByObjectVersion
1070
     0
  0
VISUALSTYLE
  5
33
102
{ACAD_REACTORS
330
2A
102
}
102
{ACAD_XDICTIONARY
360
236
102
}
330
2A
100
AcDbVisualStyle
  2
Realistic
 70
     8
 71
     2
 72
     3
 73
     0
 90
        2
 40
0.6
 41
30.0
 62
     5
 63
     7
 74
     0
 91
        0
 64
     7
 65
   257
 75
     1
175
     1
 42
1.0
 92
        8
 66
   257
 43
1.0
 76
     1
 77
     6
 78
     2
 67
     7
 79
     3
170
     0
171
     0
290
     0
174
     0
 93
       13
 44
0.0
173
     0
291
     0
 45
0.0
1001
ACAD
1000
AcDbSavedByObjectVersion
1070
     0
  0
VISUALSTYLE
  5
42
102
{ACAD_REACTORS
330
2A
102
}
102
{ACAD_XDICTIONARY
360
254
102
}
330
2A
100
AcDbVisualStyle
  2
Shaded
 70
    27
 71
     2
 72
     2
 73
     1
 90
        2
 40
0.6
 41
30.0
 62
     5
 63
     7
 74
     0
 91
        4
 64
     7
 65
   257
 75
     1
175
     1
 42
1.0
 92
        8
 66
   257
 43
1.0
 76
     1
 77
     6
 78
     2
 67
     8
 79
     3
170
     0
171
     0
290
     0
174
     0
 93
        5
 44
0.0
173
     0
291
     0
 45
0.0
1001
ACAD
1000
AcDbSavedByObjectVersion
1070
     0
  0
VISUALSTYLE
  5
41
102
{ACAD_REACTORS
330
2A
102
}
102
{ACAD_XDICTIONARY
360
252
102
}
330
2A
100
AcDbVisualStyle
  2
Shaded with edges
 70
    26
 71
     2
 72
     2
 73
     1
 90
        2
 40
0.6
 41
30.0
 62
     5
 63
     7
 74
     1
 91
       10
 64
     7
 65
   257
 75
     2
175
     1
 42
1.0
 92
        8
 66
   257
 43
1.0
 76
     1
 77
     6
 78
     2
 67
     7
 79
     3
170
     0
171
     0
290
     0
174
     0
 93
        5
 44
0.0
173
     0
291
     0
 45
0.0
1001
ACAD
1000
AcDbSavedByObjectVersion
1070
     0
  0
VISUALSTYLE
  5
3E
102
{ACAD_REACTORS
330
2A
102
}
102
{ACAD_XDICTIONARY
360
24C
102
}
330
2A
100
AcDbVisualStyle
  2
Shades of Gray
 70
    23
 71
     2
 72
     2
 73
     3
 90
        0
 40
0.6
 41
30.0
 62
     5
 63
     7
 74
     2
 91
        2
 64
     7
 65
     7
 75
     1
175
     1
 42
40.0
 92
        8
 66
     7
 43
1.0
 76
     1
 77
     6
 78
     2
 67
     7
 79
     3
170
     0
171
     0
290
     0
174
     0
 93
        1
 44
0.0
173
     0
291
     0
 45
0.0
1001
ACAD
1000
AcDbSavedByObjectVersion
1070
     0
  0
VISUALSTYLE
  5
3F
102
{ACAD_REACTORS
330
2A
102
}
102
{ACAD_XDICTIONARY
360
24E
102
}
330
2A
100
AcDbVisualStyle
  2
Sketchy
 70
    24
 71
     1
 72
     2
 73
     2
 90
        0
 40
0.6
 41
30.0
 62
     5
 63
     7
 74
     2
 91
        2
 64
     7
 65
     7
 75
     1
175
     1
 42
40.0
 92
       11
 66
     7
 43
1.0
 76
     1
 77
     6
 78
     2
 67
     7
 79
     6
170
     0
171
     0
290
     0
174
     0
 93
        1
 44
0.0
173
     0
291
     0
 45
0.0
1001
ACAD
1000
AcDbSavedByObjectVersion
1070
     0
  0
VISUALSTYLE
  5
37
102
{ACAD_REACTORS
330
2A
102
}
102
{ACAD_XDICTIONARY
360
23E
102
}
330
2A
100
AcDbVisualStyle
  2
Thicken
 70
    13
 71
     2
 72
     2
 73
     0
 90
        0
 40
0.6
 41
30.0
 62
     5
 63
     7
 74
     1
 91
        4
 64
     7
 65
   257
 75
     1
175
     1
 42
1.0
 92
       12
 66
     7
 43
1.0
 76
     1
 77
     6
 78
     2
 67
     7
 79
     5
170
     0
171
     0
290
     0
174
     0
 93
        1
 44
0.0
173
     0
291
     1
 45
0.0
1001
ACAD
1000
AcDbSavedByObjectVersion
1070
     0
  0
VISUALSTYLE
  5
30
102
{ACAD_REACTORS
330
2A
102
}
102
{ACAD_XDICTIONARY
360
230
102
}
330
2A
100
AcDbVisualStyle
  2
Wireframe
 70
     5
 71
     0
 72
     2
 73
     0
 90
        0
 40
0.6
 41
30.0
 62
     5
 63
     7
 74
     1
 91
        4
 64
     7
 65
   257
 75
     1
175
     1
 42
1.0
 92
        0
 66
   257
 43
1.0
 76
     1
 77
     6
 78
     2
 67
     7
 79
     3
170
     0
171
     0
290
     0
174
     0
 93
        1
 44
0.0
173
     0
291
     0
 45
0.0
1001
ACAD
1000
AcDbSavedByObjectVersion
1070
     0
  0
VISUALSTYLE
  5
40
102
{ACAD_REACTORS
330
2A
102
}
102
{ACAD_XDICTIONARY
360
250
102
}
330
2A
100
AcDbVisualStyle
  2
X-Ray
 70
    25
 71
     2
 72
     2
 73
     1
 90
        1
 40
0.5
 41
30.0
 62
     5
 63
     7
 74
     1
 91
        0
 64
     7
 65
   257
 75
     1
175
     1
 42
1.0
 92
        8
 66
     7
 43
1.0
 76
     1
 77
     6
 78
     2
 67
     7
 79
     3
170
     0
171
     0
290
     0
174
     0
 93
       13
 44
0.0
173
     0
291
     0
 45
0.0
1001
ACAD
1000
AcDbSavedByObjectVersion
1070
     0
  0
DICTIONARYVAR
  5
224
102
{ACAD_REACTORS
330
21B
102
}
330
21B
100
DictionaryVariables
280
     0
  1
1:1
  0
DICTIONARYVAR
  5
222
102
{ACAD_REACTORS
330
21B
102
}
330
21B
100
DictionaryVariables
280
     0
  1
2
  0
DICTIONARYVAR
  5
223
102
{ACAD_REACTORS
330
21B
102
}
330
21B
100
DictionaryVariables
280
     0
  1
1
  0
DICTIONARYVAR
  5
225
102
{ACAD_REACTORS
330
21B
102
}
330
21B
100
DictionaryVariables
280
     0
  1
1
  0
DICTIONARYVAR
  5
21F
102
{ACAD_REACTORS
330
21B
102
}
330
21B
100
DictionaryVariables
280
     0
  1
80.000000
  0
DICTIONARYVAR
  5
21E
102
{ACAD_REACTORS
330
21B
102
}
330
21B
100
DictionaryVariables
280
     0
  1
5.000000
  0
DICTIONARY
  5
258
330
45
100
AcDbDictionary
280
     1
281
     1
  3
ACAD_XREC_ROUNDTRIP
360
259
  0
DICTIONARY
  5
256
330
44
100
AcDbDictionary
280
     1
281
     1
  3
ACAD_XREC_ROUNDTRIP
360
257
  0
DICTIONARY
  5
25A
330
46
100
AcDbDictionary
280
     1
281
     1
  3
ACAD_XREC_ROUNDTRIP
360
25B
  0
DICTIONARY
  5
22E
330
2F
100
AcDbDictionary
280
     1
281
     1
  3
ACAD_XREC_ROUNDTRIP
360
22F
  0
DICTIONARY
  5
234
330
32
100
AcDbDictionary
280
     1
281
     1
  3
ACAD_XREC_ROUNDTRIP
360
235
  0
DICTIONARY
  5
23C
330
36
100
AcDbDictionary
280
     1
281
     1
  3
ACAD_XREC_ROUNDTRIP
360
23D
  0
DICTIONARY
  5
244
330
3A
100
AcDbDictionary
280
     1
281
     1
  3
ACAD_XREC_ROUNDTRIP
360
245
  0
DICTIONARY
  5
238
330
34
100
AcDbDictionary
280
     1
281
     1
  3
ACAD_XREC_ROUNDTRIP
360
239
  0
DICTIONARY
  5
23A
330
35
100
AcDbDictionary
280
     1
281
     1
  3
ACAD_XREC_ROUNDTRIP
360
23B
  0
DICTIONARY
  5
24A
330
3D
100
AcDbDictionary
280
     1
281
     1
  3
ACAD_XREC_ROUNDTRIP
360
24B
  0
DICTIONARY
  5
242
330
39
100
AcDbDictionary
280
     1
281
     1
  3
ACAD_XREC_ROUNDTRIP
360
243
  0
DICTIONARY
  5
226
330
2B
100
AcDbDictionary
280
     1
281
     1
  3
ACAD_XREC_ROUNDTRIP
360
227
  0
DICTIONARY
  5
228
330
2C
100
AcDbDictionary
280
     1
281
     1
  3
ACAD_XREC_ROUNDTRIP
360
229
  0
DICTIONARY
  5
22A
330
2D
100
AcDbDictionary
280
     1
281
     1
  3
ACAD_XREC_ROUNDTRIP
360
22B
  0
DICTIONARY
  5
22C
330
2E
100
AcDbDictionary
280
     1
281
     1
  3
ACAD_XREC_ROUNDTRIP
360
22D
  0
DICTIONARY
  5
232
330
31
100
AcDbDictionary
280
     1
281
     1
  3
ACAD_XREC_ROUNDTRIP
360
233
  0
DICTIONARY
  5
246
330
3B
100
AcDbDictionary
280
     1
281
     1
  3
ACAD_XREC_ROUNDTRIP
360
247
  0
DICTIONARY
  5
240
330
38
100
AcDbDictionary
280
     1
281
     1
  3
ACAD_XREC_ROUNDTRIP
360
241
  0
DICTIONARY
  5
248
330
3C
100
AcDbDictionary
280
     1
281
     1
  3
ACAD_XREC_ROUNDTRIP
360
249
  0
DICTIONARY
  5
236
330
33
100
AcDbDictionary
280
     1
281
     1
  3
ACAD_XREC_ROUNDTRIP
360
237
  0
DICTIONARY
  5
254
330
42
100
AcDbDictionary
280
     1
281
     1
  3
ACAD_XREC_ROUNDTRIP
360
255
  0
DICTIONARY
  5
252
330
41
100
AcDbDictionary
280
     1
281
     1
  3
ACAD_XREC_ROUNDTRIP
360
253
  0
DICTIONARY
  5
24C
330
3E
100
AcDbDictionary
280
     1
281
     1
  3
ACAD_XREC_ROUNDTRIP
360
24D
  0
DICTIONARY
  5
24E
330
3F
100
AcDbDictionary
280
     1
281
     1
  3
ACAD_XREC_ROUNDTRIP
360
24F
  0
DICTIONARY
  5
23E
330
37
100
AcDbDictionary
280
     1
281
     1
  3
ACAD_XREC_ROUNDTRIP
360
23F
  0
DICTIONARY
  5
230
330
30
100
AcDbDictionary
280
     1
281
     1
  3
ACAD_XREC_ROUNDTRIP
360
231
  0
DICTIONARY
  5
250
330
40
100
AcDbDictionary
280
     1
281
     1
  3
ACAD_XREC_ROUNDTRIP
360
251
  0
XRECORD
  5
259
102
{ACAD_REACTORS
330
258
102
}
330
258
100
AcDbXrecord
280
     1
102
MATERIAL
148
0.0
149
0.0
149
0.0
 93
        0
 94
      127
282
     0
 72
     1
 77
     1
171
     1
175
     1
179
     1
273
     0
  0
XRECORD
  5
257
102
{ACAD_REACTORS
330
256
102
}
330
256
100
AcDbXrecord
280
     1
102
MATERIAL
148
0.0
149
0.0
149
0.0
 93
        0
 94
      127
282
     0
 72
     1
 77
     1
171
     1
175
     1
179
     1
273
     0
  0
XRECORD
  5
25B
102
{ACAD_REACTORS
330
25A
102
}
330
25A
100
AcDbXrecord
280
     1
102
MATERIAL
148
0.0
149
0.0
149
0.0
 93
        0
 94
      127
282
     0
 72
     1
 77
     1
171
     1
175
     1
179
     1
273
     0
  0
XRECORD
  5
22F
102
{ACAD_REACTORS
330
22E
102
}
330
22E
100
AcDbXrecord
280
     1
102
RTVSPropertyOp0
 70
     1
102
RTVSPropertyOp1
 70
     1
102
RTVSPropertyOp2
 70
     1
102
RTVSPropertyOp3
 70
     1
102
RTVSPropertyOp4
 70
     1
102
RTVSPropertyOp5
 70
     1
102
RTVSPropertyOp6
 70
     1
102
RTVSPropertyOp7
 70
     1
102
RTVSPropertyOp8
 70
     1
102
RTVSPropertyOp9
 70
     1
102
RTVSPropertyOp10
 70
     1
102
RTVSPropertyOp11
 70
     1
102
RTVSPropertyOp12
 70
     1
102
RTVSPropertyOp13
 70
     1
102
RTVSPropertyOp14
 70
     1
102
RTVSPropertyOp15
 70
     1
102
RTVSPropertyOp16
 70
     1
102
RTVSPropertyOp17
 70
     1
102
RTVSPropertyOp18
 70
     1
102
RTVSPropertyOp19
 70
     1
102
RTVSPropertyOp20
 70
     1
102
RTVSPropertyOp21
 70
     1
102
RTVSPropertyOp22
 70
     1
102
RTVSPropertyOp23
 70
     1
102
RTVSPropertyOp24
 70
     1
102
RTVSPropertyOp25
 70
     1
102
RTVSPropertyOp26
 70
     1
102
RTVSPropertyOp27
 70
     1
102
RTVSPropertyOp28
 70
     1
102
RTVSPropertyOp29
 70
     1
102
RTVSPropertyOp30
 70
     1
102
RTVSPropertyOp31
 70
     1
102
RTVSPropertyOp32
 70
     1
102
RTVSPropertyOp33
 70
     1
102
RTVSPropertyOp34
 70
     1
102
RTVSPropertyOp35
 70
     1
102
RTVSPropertyOp36
 70
     1
102
RTVSPropertyOp37
 70
     1
102
RTVSPropertyOp38
 70
     1
102
RTVSPropertyOp39
 70
     1
102
RTVSPropertyOp40
 70
     1
102
RTVSPropertyOp41
 70
     1
102
RTVSPropertyOp42
 70
     1
102
RTVSPropertyOp43
 70
     1
102
RTVSPropertyOp44
 70
     1
102
RTVSPropertyOp45
 70
     1
102
RTVSPropertyOp46
 70
     1
102
RTVSPropertyOp47
 70
     1
102
RTVSPropertyOp48
 70
     1
102
RTVSPropertyOp49
 70
     1
102
RTVSPropertyOp50
 70
     1
102
RTVSPropertyOp51
 70
     0
102
RTVSPropertyOp52
 70
     0
102
RTVSPropertyOp53
 70
     1
102
RTVSPropertyOp54
 70
     1
102
RTVSPropertyOp55
 70
     1
102
RTVSPropertyOp56
 70
     1
102
RTVSPropertyOp57
 70
     1
102
RTVSPost2010Prop28
280
     1
102
RTVSPost2010PropOp28
 70
     1
102
RTVSPost2010Prop29
280
     1
102
RTVSPost2010PropOp29
 70
     1
102
RTVSPost2010Prop30
280
     0
102
RTVSPost2010PropOp30
 70
     1
102
RTVSPost2010Prop31
280
     0
102
RTVSPost2010PropOp31
 70
     1
102
RTVSPost2010Prop32
280
     0
102
RTVSPost2010PropOp32
 70
     1
102
RTVSPost2010Prop33
280
     0
102
RTVSPost2010PropOp33
 70
     1
102
RTVSPost2010Prop34
280
     0
102
RTVSPost2010PropOp34
 70
     1
102
RTVSPost2010Prop35
280
     0
102
RTVSPost2010PropOp35
 70
     1
102
RTVSPost2010Prop36
280
     0
102
RTVSPost2010PropOp36
 70
     1
102
RTVSPost2010Prop37
 90
       50
102
RTVSPost2010PropOp37
 70
     1
102
RTVSPost2010Prop38
140
0.0
102
RTVSPost2010PropOp38
 70
     1
102
RTVSPost2010Prop39
140
1.0
102
RTVSPost2010PropOp39
 70
     1
102
RTVSPost2010Prop40
 90
        0
102
RTVSPost2010PropOp40
 70
     1
102
RTVSPost2010Prop41ColorIndex
 90
       18
102
RTVSPost2010Prop41ColorRGB
 90
        0
102
RTVSPost2010PropOp41
 70
     1
102
RTVSPost2010Prop42
 90
       50
102
RTVSPost2010PropOp42
 70
     1
102
RTVSPost2010Prop43
 90
        3
102
RTVSPost2010PropOp43
 70
     1
102
RTVSPost2010Prop44ColorIndex
 90
        5
102
RTVSPost2010Prop44ColorRGB
 90
      255
102
RTVSPost2010PropOp44
 70
     1
102
RTVSPost2010Prop45
280
     0
102
RTVSPost2010PropOp45
 70
     1
102
RTVSPost2010Prop46
 90
       50
102
RTVSPost2010PropOp46
 70
     1
102
RTVSPost2010Prop47
 90
       50
102
RTVSPost2010PropOp47
 70
     1
102
RTVSPost2010Prop48
 90
       50
102
RTVSPost2010PropOp48
 70
     1
102
RTVSPost2010Prop49
280
     0
102
RTVSPost2010PropOp49
 70
     1
102
RTVSPost2010Prop50
 90
       50
102
RTVSPost2010PropOp50
 70
     1
102
RTVSPost2010Prop51ColorIndex
 90
      256
102
RTVSPost2010Prop51ColorRGB
 90
-16777216
102
RTVSPost2010PropOp51
 70
     0
102
RTVSPost2010Prop52
140
1.0
102
RTVSPost2010PropOp52
 70
     0
102
RTVSPost2010Prop53
 90
        2
102
RTVSPost2010PropOp53
 70
     1
102
RTVSPost2010Prop54
  1
strokes_ogs.tif
102
RTVSPost2010PropOp54
 70
     1
102
RTVSPost2010Prop55
280
     0
102
RTVSPost2010PropOp55
 70
     1
102
RTVSPost2010Prop56
140
1.0
102
RTVSPost2010PropOp56
 70
     1
102
RTVSPost2010Prop57
140
1.0
102
RTVSPost2010PropOp57
 70
     1
  0
XRECORD
  5
235
102
{ACAD_REACTORS
330
234
102
}
330
234
100
AcDbXrecord
280
     1
102
RTVSPropertyOp0
 70
     1
102
RTVSPropertyOp1
 70
     1
102
RTVSPropertyOp2
 70
     1
102
RTVSPropertyOp3
 70
     1
102
RTVSPropertyOp4
 70
     1
102
RTVSPropertyOp5
 70
     1
102
RTVSPropertyOp6
 70
     1
102
RTVSPropertyOp7
 70
     1
102
RTVSPropertyOp8
 70
     1
102
RTVSPropertyOp9
 70
     1
102
RTVSPropertyOp10
 70
     1
102
RTVSPropertyOp11
 70
     1
102
RTVSPropertyOp12
 70
     1
102
RTVSPropertyOp13
 70
     1
102
RTVSPropertyOp14
 70
     1
102
RTVSPropertyOp15
 70
     1
102
RTVSPropertyOp16
 70
     1
102
RTVSPropertyOp17
 70
     1
102
RTVSPropertyOp18
 70
     1
102
RTVSPropertyOp19
 70
     1
102
RTVSPropertyOp20
 70
     1
102
RTVSPropertyOp21
 70
     1
102
RTVSPropertyOp22
 70
     1
102
RTVSPropertyOp23
 70
     1
102
RTVSPropertyOp24
 70
     1
102
RTVSPropertyOp25
 70
     1
102
RTVSPropertyOp26
 70
     1
102
RTVSPropertyOp27
 70
     1
102
RTVSPropertyOp28
 70
     1
102
RTVSPropertyOp29
 70
     1
102
RTVSPropertyOp30
 70
     1
102
RTVSPropertyOp31
 70
     1
102
RTVSPropertyOp32
 70
     1
102
RTVSPropertyOp33
 70
     1
102
RTVSPropertyOp34
 70
     1
102
RTVSPropertyOp35
 70
     1
102
RTVSPropertyOp36
 70
     1
102
RTVSPropertyOp37
 70
     1
102
RTVSPropertyOp38
 70
     1
102
RTVSPropertyOp39
 70
     1
102
RTVSPropertyOp40
 70
     1
102
RTVSPropertyOp41
 70
     1
102
RTVSPropertyOp42
 70
     1
102
RTVSPropertyOp43
 70
     1
102
RTVSPropertyOp44
 70
     1
102
RTVSPropertyOp45
 70
     1
102
RTVSPropertyOp46
 70
     1
102
RTVSPropertyOp47
 70
     1
102
RTVSPropertyOp48
 70
     1
102
RTVSPropertyOp49
 70
     1
102
RTVSPropertyOp50
 70
     1
102
RTVSPropertyOp51
 70
     0
102
RTVSPropertyOp52
 70
     0
102
RTVSPropertyOp53
 70
     1
102
RTVSPropertyOp54
 70
     1
102
RTVSPropertyOp55
 70
     1
102
RTVSPropertyOp56
 70
     1
102
RTVSPropertyOp57
 70
     1
102
RTVSPost2010Prop28
280
     0
102
RTVSPost2010PropOp28
 70
     1
102
RTVSPost2010Prop29
280
     1
102
RTVSPost2010PropOp29
 70
     1
102
RTVSPost2010Prop30
280
     1
102
RTVSPost2010PropOp30
 70
     1
102
RTVSPost2010Prop31
280
     0
102
RTVSPost2010PropOp31
 70
     1
102
RTVSPost2010Prop32
280
     0
102
RTVSPost2010PropOp32
 70
     1
102
RTVSPost2010Prop33
280
     0
102
RTVSPost2010PropOp33
 70
     1
102
RTVSPost2010Prop34
280
     0
102
RTVSPost2010PropOp34
 70
     1
102
RTVSPost2010Prop35
280
     0
102
RTVSPost2010PropOp35
 70
     1
102
RTVSPost2010Prop36
280
     0
102
RTVSPost2010PropOp36
 70
     1
102
RTVSPost2010Prop37
 90
       50
102
RTVSPost2010PropOp37
 70
     1
102
RTVSPost2010Prop38
140
0.0
102
RTVSPost2010PropOp38
 70
     1
102
RTVSPost2010Prop39
140
1.0
102
RTVSPost2010PropOp39
 70
     1
102
RTVSPost2010Prop40
 90
        0
102
RTVSPost2010PropOp40
 70
     1
102
RTVSPost2010Prop41ColorIndex
 90
       18
102
RTVSPost2010Prop41ColorRGB
 90
        0
102
RTVSPost2010PropOp41
 70
     1
102
RTVSPost2010Prop42
 90
       50
102
RTVSPost2010PropOp42
 70
     1
102
RTVSPost2010Prop43
 90
        3
102
RTVSPost2010PropOp43
 70
     1
102
RTVSPost2010Prop44ColorIndex
 90
        5
102
RTVSPost2010Prop44ColorRGB
 90
      255
102
RTVSPost2010PropOp44
 70
     1
102
RTVSPost2010Prop45
280
     0
102
RTVSPost2010PropOp45
 70
     1
102
RTVSPost2010Prop46
 90
       50
102
RTVSPost2010PropOp46
 70
     1
102
RTVSPost2010Prop47
 90
       50
102
RTVSPost2010PropOp47
 70
     1
102
RTVSPost2010Prop48
 90
       50
102
RTVSPost2010PropOp48
 70
     1
102
RTVSPost2010Prop49
280
     0
102
RTVSPost2010PropOp49
 70
     1
102
RTVSPost2010Prop50
 90
       50
102
RTVSPost2010PropOp50
 70
     1
102
RTVSPost2010Prop51ColorIndex
 90
      256
102
RTVSPost2010Prop51ColorRGB
 90
-16777216
102
RTVSPost2010PropOp51
 70
     0
102
RTVSPost2010Prop52
140
1.0
102
RTVSPost2010PropOp52
 70
     0
102
RTVSPost2010Prop53
 90
        2
102
RTVSPost2010PropOp53
 70
     1
102
RTVSPost2010Prop54
  1
strokes_ogs.tif
102
RTVSPost2010PropOp54
 70
     1
102
RTVSPost2010Prop55
280
     0
102
RTVSPost2010PropOp55
 70
     1
102
RTVSPost2010Prop56
140
1.0
102
RTVSPost2010PropOp56
 70
     1
102
RTVSPost2010Prop57
140
1.0
102
RTVSPost2010PropOp57
 70
     1
  0
XRECORD
  5
23D
102
{ACAD_REACTORS
330
23C
102
}
330
23C
100
AcDbXrecord
280
     1
102
RTVSPropertyOp0
 70
     1
102
RTVSPropertyOp1
 70
     1
102
RTVSPropertyOp2
 70
     1
102
RTVSPropertyOp3
 70
     1
102
RTVSPropertyOp4
 70
     1
102
RTVSPropertyOp5
 70
     1
102
RTVSPropertyOp6
 70
     1
102
RTVSPropertyOp7
 70
     1
102
RTVSPropertyOp8
 70
     1
102
RTVSPropertyOp9
 70
     1
102
RTVSPropertyOp10
 70
     1
102
RTVSPropertyOp11
 70
     1
102
RTVSPropertyOp12
 70
     1
102
RTVSPropertyOp13
 70
     1
102
RTVSPropertyOp14
 70
     1
102
RTVSPropertyOp15
 70
     1
102
RTVSPropertyOp16
 70
     1
102
RTVSPropertyOp17
 70
     1
102
RTVSPropertyOp18
 70
     1
102
RTVSPropertyOp19
 70
     1
102
RTVSPropertyOp20
 70
     1
102
RTVSPropertyOp21
 70
     1
102
RTVSPropertyOp22
 70
     1
102
RTVSPropertyOp23
 70
     1
102
RTVSPropertyOp24
 70
     1
102
RTVSPropertyOp25
 70
     1
102
RTVSPropertyOp26
 70
     1
102
RTVSPropertyOp27
 70
     1
102
RTVSPropertyOp28
 70
     1
102
RTVSPropertyOp29
 70
     1
102
RTVSPropertyOp30
 70
     1
102
RTVSPropertyOp31
 70
     1
102
RTVSPropertyOp32
 70
     1
102
RTVSPropertyOp33
 70
     1
102
RTVSPropertyOp34
 70
     1
102
RTVSPropertyOp35
 70
     1
102
RTVSPropertyOp36
 70
     1
102
RTVSPropertyOp37
 70
     1
102
RTVSPropertyOp38
 70
     1
102
RTVSPropertyOp39
 70
     1
102
RTVSPropertyOp40
 70
     1
102
RTVSPropertyOp41
 70
     1
102
RTVSPropertyOp42
 70
     1
102
RTVSPropertyOp43
 70
     1
102
RTVSPropertyOp44
 70
     1
102
RTVSPropertyOp45
 70
     1
102
RTVSPropertyOp46
 70
     1
102
RTVSPropertyOp47
 70
     1
102
RTVSPropertyOp48
 70
     1
102
RTVSPropertyOp49
 70
     1
102
RTVSPropertyOp50
 70
     1
102
RTVSPropertyOp51
 70
     0
102
RTVSPropertyOp52
 70
     0
102
RTVSPropertyOp53
 70
     1
102
RTVSPropertyOp54
 70
     1
102
RTVSPropertyOp55
 70
     1
102
RTVSPropertyOp56
 70
     1
102
RTVSPropertyOp57
 70
     1
102
RTVSPost2010Prop28
280
     0
102
RTVSPost2010PropOp28
 70
     1
102
RTVSPost2010Prop29
280
     1
102
RTVSPost2010PropOp29
 70
     1
102
RTVSPost2010Prop30
280
     1
102
RTVSPost2010PropOp30
 70
     1
102
RTVSPost2010Prop31
280
     0
102
RTVSPost2010PropOp31
 70
     1
102
RTVSPost2010Prop32
280
     0
102
RTVSPost2010PropOp32
 70
     1
102
RTVSPost2010Prop33
280
     0
102
RTVSPost2010PropOp33
 70
     1
102
RTVSPost2010Prop34
280
     0
102
RTVSPost2010PropOp34
 70
     1
102
RTVSPost2010Prop35
280
     0
102
RTVSPost2010PropOp35
 70
     1
102
RTVSPost2010Prop36
280
     0
102
RTVSPost2010PropOp36
 70
     1
102
RTVSPost2010Prop37
 90
       50
102
RTVSPost2010PropOp37
 70
     1
102
RTVSPost2010Prop38
140
0.0
102
RTVSPost2010PropOp38
 70
     1
102
RTVSPost2010Prop39
140
1.0
102
RTVSPost2010PropOp39
 70
     1
102
RTVSPost2010Prop40
 90
        0
102
RTVSPost2010PropOp40
 70
     1
102
RTVSPost2010Prop41ColorIndex
 90
       18
102
RTVSPost2010Prop41ColorRGB
 90
        0
102
RTVSPost2010PropOp41
 70
     1
102
RTVSPost2010Prop42
 90
       50
102
RTVSPost2010PropOp42
 70
     1
102
RTVSPost2010Prop43
 90
        3
102
RTVSPost2010PropOp43
 70
     1
102
RTVSPost2010Prop44ColorIndex
 90
        5
102
RTVSPost2010Prop44ColorRGB
 90
      255
102
RTVSPost2010PropOp44
 70
     1
102
RTVSPost2010Prop45
280
     0
102
RTVSPost2010PropOp45
 70
     1
102
RTVSPost2010Prop46
 90
       50
102
RTVSPost2010PropOp46
 70
     1
102
RTVSPost2010Prop47
 90
       50
102
RTVSPost2010PropOp47
 70
     1
102
RTVSPost2010Prop48
 90
       50
102
RTVSPost2010PropOp48
 70
     1
102
RTVSPost2010Prop49
280
     0
102
RTVSPost2010PropOp49
 70
     1
102
RTVSPost2010Prop50
 90
       50
102
RTVSPost2010PropOp50
 70
     1
102
RTVSPost2010Prop51ColorIndex
 90
      256
102
RTVSPost2010Prop51ColorRGB
 90
-16777216
102
RTVSPost2010PropOp51
 70
     0
102
RTVSPost2010Prop52
140
1.0
102
RTVSPost2010PropOp52
 70
     0
102
RTVSPost2010Prop53
 90
        2
102
RTVSPost2010PropOp53
 70
     1
102
RTVSPost2010Prop54
  1
strokes_ogs.tif
102
RTVSPost2010PropOp54
 70
     1
102
RTVSPost2010Prop55
280
     0
102
RTVSPost2010PropOp55
 70
     1
102
RTVSPost2010Prop56
140
1.0
102
RTVSPost2010PropOp56
 70
     1
102
RTVSPost2010Prop57
140
1.0
102
RTVSPost2010PropOp57
 70
     1
  0
XRECORD
  5
245
102
{ACAD_REACTORS
330
244
102
}
330
244
100
AcDbXrecord
280
     1
102
RTVSPropertyOp0
 70
     1
102
RTVSPropertyOp1
 70
     1
102
RTVSPropertyOp2
 70
     1
102
RTVSPropertyOp3
 70
     1
102
RTVSPropertyOp4
 70
     1
102
RTVSPropertyOp5
 70
     1
102
RTVSPropertyOp6
 70
     1
102
RTVSPropertyOp7
 70
     1
102
RTVSPropertyOp8
 70
     1
102
RTVSPropertyOp9
 70
     1
102
RTVSPropertyOp10
 70
     1
102
RTVSPropertyOp11
 70
     1
102
RTVSPropertyOp12
 70
     1
102
RTVSPropertyOp13
 70
     1
102
RTVSPropertyOp14
 70
     1
102
RTVSPropertyOp15
 70
     1
102
RTVSPropertyOp16
 70
     1
102
RTVSPropertyOp17
 70
     1
102
RTVSPropertyOp18
 70
     1
102
RTVSPropertyOp19
 70
     1
102
RTVSPropertyOp20
 70
     1
102
RTVSPropertyOp21
 70
     1
102
RTVSPropertyOp22
 70
     1
102
RTVSPropertyOp23
 70
     1
102
RTVSPropertyOp24
 70
     1
102
RTVSPropertyOp25
 70
     1
102
RTVSPropertyOp26
 70
     1
102
RTVSPropertyOp27
 70
     1
102
RTVSPropertyOp28
 70
     1
102
RTVSPropertyOp29
 70
     1
102
RTVSPropertyOp30
 70
     1
102
RTVSPropertyOp31
 70
     1
102
RTVSPropertyOp32
 70
     1
102
RTVSPropertyOp33
 70
     1
102
RTVSPropertyOp34
 70
     1
102
RTVSPropertyOp35
 70
     1
102
RTVSPropertyOp36
 70
     1
102
RTVSPropertyOp37
 70
     1
102
RTVSPropertyOp38
 70
     1
102
RTVSPropertyOp39
 70
     1
102
RTVSPropertyOp40
 70
     1
102
RTVSPropertyOp41
 70
     1
102
RTVSPropertyOp42
 70
     1
102
RTVSPropertyOp43
 70
     1
102
RTVSPropertyOp44
 70
     1
102
RTVSPropertyOp45
 70
     1
102
RTVSPropertyOp46
 70
     1
102
RTVSPropertyOp47
 70
     1
102
RTVSPropertyOp48
 70
     1
102
RTVSPropertyOp49
 70
     1
102
RTVSPropertyOp50
 70
     1
102
RTVSPropertyOp51
 70
     0
102
RTVSPropertyOp52
 70
     0
102
RTVSPropertyOp53
 70
     1
102
RTVSPropertyOp54
 70
     1
102
RTVSPropertyOp55
 70
     1
102
RTVSPropertyOp56
 70
     1
102
RTVSPropertyOp57
 70
     1
102
RTVSPost2010Prop28
280
     0
102
RTVSPost2010PropOp28
 70
     1
102
RTVSPost2010Prop29
280
     1
102
RTVSPost2010PropOp29
 70
     1
102
RTVSPost2010Prop30
280
     1
102
RTVSPost2010PropOp30
 70
     1
102
RTVSPost2010Prop31
280
     0
102
RTVSPost2010PropOp31
 70
     1
102
RTVSPost2010Prop32
280
     0
102
RTVSPost2010PropOp32
 70
     1
102
RTVSPost2010Prop33
280
     0
102
RTVSPost2010PropOp33
 70
     1
102
RTVSPost2010Prop34
280
     0
102
RTVSPost2010PropOp34
 70
     1
102
RTVSPost2010Prop35
280
     0
102
RTVSPost2010PropOp35
 70
     1
102
RTVSPost2010Prop36
280
     0
102
RTVSPost2010PropOp36
 70
     1
102
RTVSPost2010Prop37
 90
       50
102
RTVSPost2010PropOp37
 70
     1
102
RTVSPost2010Prop38
140
0.0
102
RTVSPost2010PropOp38
 70
     1
102
RTVSPost2010Prop39
140
1.0
102
RTVSPost2010PropOp39
 70
     1
102
RTVSPost2010Prop40
 90
        0
102
RTVSPost2010PropOp40
 70
     1
102
RTVSPost2010Prop41ColorIndex
 90
       18
102
RTVSPost2010Prop41ColorRGB
 90
        0
102
RTVSPost2010PropOp41
 70
     1
102
RTVSPost2010Prop42
 90
       50
102
RTVSPost2010PropOp42
 70
     1
102
RTVSPost2010Prop43
 90
        3
102
RTVSPost2010PropOp43
 70
     1
102
RTVSPost2010Prop44ColorIndex
 90
        5
102
RTVSPost2010Prop44ColorRGB
 90
      255
102
RTVSPost2010PropOp44
 70
     1
102
RTVSPost2010Prop45
280
     0
102
RTVSPost2010PropOp45
 70
     1
102
RTVSPost2010Prop46
 90
       50
102
RTVSPost2010PropOp46
 70
     1
102
RTVSPost2010Prop47
 90
       50
102
RTVSPost2010PropOp47
 70
     1
102
RTVSPost2010Prop48
 90
       50
102
RTVSPost2010PropOp48
 70
     1
102
RTVSPost2010Prop49
280
     0
102
RTVSPost2010PropOp49
 70
     1
102
RTVSPost2010Prop50
 90
       50
102
RTVSPost2010PropOp50
 70
     1
102
RTVSPost2010Prop51ColorIndex
 90
      256
102
RTVSPost2010Prop51ColorRGB
 90
-16777216
102
RTVSPost2010PropOp51
 70
     0
102
RTVSPost2010Prop52
140
1.0
102
RTVSPost2010PropOp52
 70
     0
102
RTVSPost2010Prop53
 90
        2
102
RTVSPost2010PropOp53
 70
     1
102
RTVSPost2010Prop54
  1
strokes_ogs.tif
102
RTVSPost2010PropOp54
 70
     1
102
RTVSPost2010Prop55
280
     0
102
RTVSPost2010PropOp55
 70
     1
102
RTVSPost2010Prop56
140
1.0
102
RTVSPost2010PropOp56
 70
     1
102
RTVSPost2010Prop57
140
1.0
102
RTVSPost2010PropOp57
 70
     1
  0
XRECORD
  5
239
102
{ACAD_REACTORS
330
238
102
}
330
238
100
AcDbXrecord
280
     1
102
RTVSPropertyOp0
 70
     1
102
RTVSPropertyOp1
 70
     1
102
RTVSPropertyOp2
 70
     1
102
RTVSPropertyOp3
 70
     1
102
RTVSPropertyOp4
 70
     1
102
RTVSPropertyOp5
 70
     1
102
RTVSPropertyOp6
 70
     1
102
RTVSPropertyOp7
 70
     1
102
RTVSPropertyOp8
 70
     1
102
RTVSPropertyOp9
 70
     1
102
RTVSPropertyOp10
 70
     1
102
RTVSPropertyOp11
 70
     1
102
RTVSPropertyOp12
 70
     1
102
RTVSPropertyOp13
 70
     1
102
RTVSPropertyOp14
 70
     1
102
RTVSPropertyOp15
 70
     1
102
RTVSPropertyOp16
 70
     1
102
RTVSPropertyOp17
 70
     1
102
RTVSPropertyOp18
 70
     1
102
RTVSPropertyOp19
 70
     1
102
RTVSPropertyOp20
 70
     1
102
RTVSPropertyOp21
 70
     1
102
RTVSPropertyOp22
 70
     1
102
RTVSPropertyOp23
 70
     1
102
RTVSPropertyOp24
 70
     1
102
RTVSPropertyOp25
 70
     1
102
RTVSPropertyOp26
 70
     1
102
RTVSPropertyOp27
 70
     1
102
RTVSPropertyOp28
 70
     1
102
RTVSPropertyOp29
 70
     1
102
RTVSPropertyOp30
 70
     1
102
RTVSPropertyOp31
 70
     1
102
RTVSPropertyOp32
 70
     1
102
RTVSPropertyOp33
 70
     1
102
RTVSPropertyOp34
 70
     1
102
RTVSPropertyOp35
 70
     1
102
RTVSPropertyOp36
 70
     1
102
RTVSPropertyOp37
 70
     1
102
RTVSPropertyOp38
 70
     1
102
RTVSPropertyOp39
 70
     1
102
RTVSPropertyOp40
 70
     1
102
RTVSPropertyOp41
 70
     1
102
RTVSPropertyOp42
 70
     1
102
RTVSPropertyOp43
 70
     1
102
RTVSPropertyOp44
 70
     1
102
RTVSPropertyOp45
 70
     1
102
RTVSPropertyOp46
 70
     1
102
RTVSPropertyOp47
 70
     1
102
RTVSPropertyOp48
 70
     1
102
RTVSPropertyOp49
 70
     1
102
RTVSPropertyOp50
 70
     1
102
RTVSPropertyOp51
 70
     0
102
RTVSPropertyOp52
 70
     0
102
RTVSPropertyOp53
 70
     1
102
RTVSPropertyOp54
 70
     1
102
RTVSPropertyOp55
 70
     1
102
RTVSPropertyOp56
 70
     1
102
RTVSPropertyOp57
 70
     1
102
RTVSPost2010Prop28
280
     0
102
RTVSPost2010PropOp28
 70
     1
102
RTVSPost2010Prop29
280
     1
102
RTVSPost2010PropOp29
 70
     1
102
RTVSPost2010Prop30
280
     1
102
RTVSPost2010PropOp30
 70
     1
102
RTVSPost2010Prop31
280
     0
102
RTVSPost2010PropOp31
 70
     1
102
RTVSPost2010Prop32
280
     0
102
RTVSPost2010PropOp32
 70
     1
102
RTVSPost2010Prop33
280
     0
102
RTVSPost2010PropOp33
 70
     1
102
RTVSPost2010Prop34
280
     0
102
RTVSPost2010PropOp34
 70
     1
102
RTVSPost2010Prop35
280
     0
102
RTVSPost2010PropOp35
 70
     1
102
RTVSPost2010Prop36
280
     0
102
RTVSPost2010PropOp36
 70
     1
102
RTVSPost2010Prop37
 90
       50
102
RTVSPost2010PropOp37
 70
     1
102
RTVSPost2010Prop38
140
0.0
102
RTVSPost2010PropOp38
 70
     1
102
RTVSPost2010Prop39
140
1.0
102
RTVSPost2010PropOp39
 70
     1
102
RTVSPost2010Prop40
 90
        0
102
RTVSPost2010PropOp40
 70
     1
102
RTVSPost2010Prop41ColorIndex
 90
       18
102
RTVSPost2010Prop41ColorRGB
 90
        0
102
RTVSPost2010PropOp41
 70
     1
102
RTVSPost2010Prop42
 90
       50
102
RTVSPost2010PropOp42
 70
     1
102
RTVSPost2010Prop43
 90
        3
102
RTVSPost2010PropOp43
 70
     1
102
RTVSPost2010Prop44ColorIndex
 90
        5
102
RTVSPost2010Prop44ColorRGB
 90
      255
102
RTVSPost2010PropOp44
 70
     1
102
RTVSPost2010Prop45
280
     0
102
RTVSPost2010PropOp45
 70
     1
102
RTVSPost2010Prop46
 90
       50
102
RTVSPost2010PropOp46
 70
     1
102
RTVSPost2010Prop47
 90
       50
102
RTVSPost2010PropOp47
 70
     1
102
RTVSPost2010Prop48
 90
       50
102
RTVSPost2010PropOp48
 70
     1
102
RTVSPost2010Prop49
280
     0
102
RTVSPost2010PropOp49
 70
     1
102
RTVSPost2010Prop50
 90
       50
102
RTVSPost2010PropOp50
 70
     1
102
RTVSPost2010Prop51ColorIndex
 90
      256
102
RTVSPost2010Prop51ColorRGB
 90
-16777216
102
RTVSPost2010PropOp51
 70
     0
102
RTVSPost2010Prop52
140
1.0
102
RTVSPost2010PropOp52
 70
     0
102
RTVSPost2010Prop53
 90
        2
102
RTVSPost2010PropOp53
 70
     1
102
RTVSPost2010Prop54
  1
strokes_ogs.tif
102
RTVSPost2010PropOp54
 70
     1
102
RTVSPost2010Prop55
280
     0
102
RTVSPost2010PropOp55
 70
     1
102
RTVSPost2010Prop56
140
1.0
102
RTVSPost2010PropOp56
 70
     1
102
RTVSPost2010Prop57
140
1.0
102
RTVSPost2010PropOp57
 70
     1
  0
XRECORD
  5
23B
102
{ACAD_REACTORS
330
23A
102
}
330
23A
100
AcDbXrecord
280
     1
102
RTVSPropertyOp0
 70
     1
102
RTVSPropertyOp1
 70
     1
102
RTVSPropertyOp2
 70
     1
102
RTVSPropertyOp3
 70
     1
102
RTVSPropertyOp4
 70
     1
102
RTVSPropertyOp5
 70
     1
102
RTVSPropertyOp6
 70
     1
102
RTVSPropertyOp7
 70
     1
102
RTVSPropertyOp8
 70
     1
102
RTVSPropertyOp9
 70
     1
102
RTVSPropertyOp10
 70
     1
102
RTVSPropertyOp11
 70
     1
102
RTVSPropertyOp12
 70
     1
102
RTVSPropertyOp13
 70
     1
102
RTVSPropertyOp14
 70
     1
102
RTVSPropertyOp15
 70
     1
102
RTVSPropertyOp16
 70
     1
102
RTVSPropertyOp17
 70
     1
102
RTVSPropertyOp18
 70
     1
102
RTVSPropertyOp19
 70
     1
102
RTVSPropertyOp20
 70
     1
102
RTVSPropertyOp21
 70
     1
102
RTVSPropertyOp22
 70
     1
102
RTVSPropertyOp23
 70
     1
102
RTVSPropertyOp24
 70
     1
102
RTVSPropertyOp25
 70
     1
102
RTVSPropertyOp26
 70
     1
102
RTVSPropertyOp27
 70
     1
102
RTVSPropertyOp28
 70
     1
102
RTVSPropertyOp29
 70
     1
102
RTVSPropertyOp30
 70
     1
102
RTVSPropertyOp31
 70
     1
102
RTVSPropertyOp32
 70
     1
102
RTVSPropertyOp33
 70
     1
102
RTVSPropertyOp34
 70
     1
102
RTVSPropertyOp35
 70
     1
102
RTVSPropertyOp36
 70
     1
102
RTVSPropertyOp37
 70
     1
102
RTVSPropertyOp38
 70
     1
102
RTVSPropertyOp39
 70
     1
102
RTVSPropertyOp40
 70
     1
102
RTVSPropertyOp41
 70
     1
102
RTVSPropertyOp42
 70
     1
102
RTVSPropertyOp43
 70
     1
102
RTVSPropertyOp44
 70
     1
102
RTVSPropertyOp45
 70
     1
102
RTVSPropertyOp46
 70
     1
102
RTVSPropertyOp47
 70
     1
102
RTVSPropertyOp48
 70
     1
102
RTVSPropertyOp49
 70
     1
102
RTVSPropertyOp50
 70
     1
102
RTVSPropertyOp51
 70
     0
102
RTVSPropertyOp52
 70
     0
102
RTVSPropertyOp53
 70
     1
102
RTVSPropertyOp54
 70
     1
102
RTVSPropertyOp55
 70
     1
102
RTVSPropertyOp56
 70
     1
102
RTVSPropertyOp57
 70
     1
102
RTVSPost2010Prop28
280
     0
102
RTVSPost2010PropOp28
 70
     1
102
RTVSPost2010Prop29
280
     1
102
RTVSPost2010PropOp29
 70
     1
102
RTVSPost2010Prop30
280
     1
102
RTVSPost2010PropOp30
 70
     1
102
RTVSPost2010Prop31
280
     0
102
RTVSPost2010PropOp31
 70
     1
102
RTVSPost2010Prop32
280
     0
102
RTVSPost2010PropOp32
 70
     1
102
RTVSPost2010Prop33
280
     0
102
RTVSPost2010PropOp33
 70
     1
102
RTVSPost2010Prop34
280
     0
102
RTVSPost2010PropOp34
 70
     1
102
RTVSPost2010Prop35
280
     0
102
RTVSPost2010PropOp35
 70
     1
102
RTVSPost2010Prop36
280
     0
102
RTVSPost2010PropOp36
 70
     1
102
RTVSPost2010Prop37
 90
       50
102
RTVSPost2010PropOp37
 70
     1
102
RTVSPost2010Prop38
140
0.0
102
RTVSPost2010PropOp38
 70
     1
102
RTVSPost2010Prop39
140
1.0
102
RTVSPost2010PropOp39
 70
     1
102
RTVSPost2010Prop40
 90
        0
102
RTVSPost2010PropOp40
 70
     1
102
RTVSPost2010Prop41ColorIndex
 90
       18
102
RTVSPost2010Prop41ColorRGB
 90
        0
102
RTVSPost2010PropOp41
 70
     1
102
RTVSPost2010Prop42
 90
       50
102
RTVSPost2010PropOp42
 70
     1
102
RTVSPost2010Prop43
 90
        3
102
RTVSPost2010PropOp43
 70
     1
102
RTVSPost2010Prop44ColorIndex
 90
        5
102
RTVSPost2010Prop44ColorRGB
 90
      255
102
RTVSPost2010PropOp44
 70
     1
102
RTVSPost2010Prop45
280
     0
102
RTVSPost2010PropOp45
 70
     1
102
RTVSPost2010Prop46
 90
       50
102
RTVSPost2010PropOp46
 70
     1
102
RTVSPost2010Prop47
 90
       50
102
RTVSPost2010PropOp47
 70
     1
102
RTVSPost2010Prop48
 90
       50
102
RTVSPost2010PropOp48
 70
     1
102
RTVSPost2010Prop49
280
     0
102
RTVSPost2010PropOp49
 70
     1
102
RTVSPost2010Prop50
 90
       50
102
RTVSPost2010PropOp50
 70
     1
102
RTVSPost2010Prop51ColorIndex
 90
      256
102
RTVSPost2010Prop51ColorRGB
 90
-16777216
102
RTVSPost2010PropOp51
 70
     0
102
RTVSPost2010Prop52
140
1.0
102
RTVSPost2010PropOp52
 70
     0
102
RTVSPost2010Prop53
 90
        2
102
RTVSPost2010PropOp53
 70
     1
102
RTVSPost2010Prop54
  1
strokes_ogs.tif
102
RTVSPost2010PropOp54
 70
     1
102
RTVSPost2010Prop55
280
     0
102
RTVSPost2010PropOp55
 70
     1
102
RTVSPost2010Prop56
140
1.0
102
RTVSPost2010PropOp56
 70
     1
102
RTVSPost2010Prop57
140
1.0
102
RTVSPost2010PropOp57
 70
     1
  0
XRECORD
  5
24B
102
{ACAD_REACTORS
330
24A
102
}
330
24A
100
AcDbXrecord
280
     1
102
RTVSPropertyOp0
 70
     0
102
RTVSPropertyOp1
 70
     0
102
RTVSPropertyOp2
 70
     0
102
RTVSPropertyOp3
 70
     0
102
RTVSPropertyOp4
 70
     0
102
RTVSPropertyOp5
 70
     0
102
RTVSPropertyOp6
 70
     0
102
RTVSPropertyOp7
 70
     0
102
RTVSPropertyOp8
 70
     0
102
RTVSPropertyOp9
 70
     0
102
RTVSPropertyOp10
 70
     0
102
RTVSPropertyOp11
 70
     0
102
RTVSPropertyOp12
 70
     0
102
RTVSPropertyOp13
 70
     0
102
RTVSPropertyOp14
 70
     2
102
RTVSPropertyOp15
 70
     0
102
RTVSPropertyOp16
 70
     0
102
RTVSPropertyOp17
 70
     0
102
RTVSPropertyOp18
 70
     0
102
RTVSPropertyOp19
 70
     0
102
RTVSPropertyOp20
 70
     0
102
RTVSPropertyOp21
 70
     0
102
RTVSPropertyOp22
 70
     0
102
RTVSPropertyOp23
 70
     0
102
RTVSPropertyOp24
 70
     0
102
RTVSPropertyOp25
 70
     0
102
RTVSPropertyOp26
 70
     0
102
RTVSPropertyOp27
 70
     0
102
RTVSPropertyOp28
 70
     0
102
RTVSPropertyOp29
 70
     0
102
RTVSPropertyOp30
 70
     0
102
RTVSPropertyOp31
 70
     0
102
RTVSPropertyOp32
 70
     0
102
RTVSPropertyOp33
 70
     0
102
RTVSPropertyOp34
 70
     0
102
RTVSPropertyOp35
 70
     0
102
RTVSPropertyOp36
 70
     0
102
RTVSPropertyOp37
 70
     0
102
RTVSPropertyOp38
 70
     0
102
RTVSPropertyOp39
 70
     0
102
RTVSPropertyOp40
 70
     0
102
RTVSPropertyOp41
 70
     0
102
RTVSPropertyOp42
 70
     0
102
RTVSPropertyOp43
 70
     0
102
RTVSPropertyOp44
 70
     0
102
RTVSPropertyOp45
 70
     0
102
RTVSPropertyOp46
 70
     0
102
RTVSPropertyOp47
 70
     0
102
RTVSPropertyOp48
 70
     0
102
RTVSPropertyOp49
 70
     0
102
RTVSPropertyOp50
 70
     0
102
RTVSPropertyOp51
 70
     0
102
RTVSPropertyOp52
 70
     0
102
RTVSPropertyOp53
 70
     0
102
RTVSPropertyOp54
 70
     0
102
RTVSPropertyOp55
 70
     0
102
RTVSPropertyOp56
 70
     0
102
RTVSPropertyOp57
 70
     0
102
RTVSPost2010Prop28
280
     0
102
RTVSPost2010PropOp28
 70
     0
102
RTVSPost2010Prop29
280
     1
102
RTVSPost2010PropOp29
 70
     0
102
RTVSPost2010Prop30
280
     1
102
RTVSPost2010PropOp30
 70
     0
102
RTVSPost2010Prop31
280
     0
102
RTVSPost2010PropOp31
 70
     0
102
RTVSPost2010Prop32
280
     0
102
RTVSPost2010PropOp32
 70
     0
102
RTVSPost2010Prop33
280
     0
102
RTVSPost2010PropOp33
 70
     0
102
RTVSPost2010Prop34
280
     0
102
RTVSPost2010PropOp34
 70
     0
102
RTVSPost2010Prop35
280
     0
102
RTVSPost2010PropOp35
 70
     0
102
RTVSPost2010Prop36
280
     0
102
RTVSPost2010PropOp36
 70
     0
102
RTVSPost2010Prop37
 90
       50
102
RTVSPost2010PropOp37
 70
     0
102
RTVSPost2010Prop38
140
0.0
102
RTVSPost2010PropOp38
 70
     0
102
RTVSPost2010Prop39
140
1.0
102
RTVSPost2010PropOp39
 70
     0
102
RTVSPost2010Prop40
 90
        0
102
RTVSPost2010PropOp40
 70
     0
102
RTVSPost2010Prop41ColorIndex
 90
       18
102
RTVSPost2010Prop41ColorRGB
 90
        0
102
RTVSPost2010PropOp41
 70
     0
102
RTVSPost2010Prop42
 90
       50
102
RTVSPost2010PropOp42
 70
     0
102
RTVSPost2010Prop43
 90
        3
102
RTVSPost2010PropOp43
 70
     0
102
RTVSPost2010Prop44ColorIndex
 90
        5
102
RTVSPost2010Prop44ColorRGB
 90
      255
102
RTVSPost2010PropOp44
 70
     0
102
RTVSPost2010Prop45
280
     0
102
RTVSPost2010PropOp45
 70
     0
102
RTVSPost2010Prop46
 90
       50
102
RTVSPost2010PropOp46
 70
     0
102
RTVSPost2010Prop47
 90
       50
102
RTVSPost2010PropOp47
 70
     0
102
RTVSPost2010Prop48
 90
       50
102
RTVSPost2010PropOp48
 70
     0
102
RTVSPost2010Prop49
280
     0
102
RTVSPost2010PropOp49
 70
     0
102
RTVSPost2010Prop50
 90
       50
102
RTVSPost2010PropOp50
 70
     0
102
RTVSPost2010Prop51ColorIndex
 90
      256
102
RTVSPost2010Prop51ColorRGB
 90
-16777216
102
RTVSPost2010PropOp51
 70
     0
102
RTVSPost2010Prop52
140
1.0
102
RTVSPost2010PropOp52
 70
     0
102
RTVSPost2010Prop53
 90
        2
102
RTVSPost2010PropOp53
 70
     0
102
RTVSPost2010Prop54
  1
strokes_ogs.tif
102
RTVSPost2010PropOp54
 70
     0
102
RTVSPost2010Prop55
280
     0
102
RTVSPost2010PropOp55
 70
     0
102
RTVSPost2010Prop56
140
1.0
102
RTVSPost2010PropOp56
 70
     0
102
RTVSPost2010Prop57
140
1.0
102
RTVSPost2010PropOp57
 70
     0
  0
XRECORD
  5
243
102
{ACAD_REACTORS
330
242
102
}
330
242
100
AcDbXrecord
280
     1
102
RTVSPropertyOp0
 70
     1
102
RTVSPropertyOp1
 70
     1
102
RTVSPropertyOp2
 70
     1
102
RTVSPropertyOp3
 70
     1
102
RTVSPropertyOp4
 70
     1
102
RTVSPropertyOp5
 70
     1
102
RTVSPropertyOp6
 70
     1
102
RTVSPropertyOp7
 70
     1
102
RTVSPropertyOp8
 70
     1
102
RTVSPropertyOp9
 70
     1
102
RTVSPropertyOp10
 70
     1
102
RTVSPropertyOp11
 70
     1
102
RTVSPropertyOp12
 70
     1
102
RTVSPropertyOp13
 70
     1
102
RTVSPropertyOp14
 70
     1
102
RTVSPropertyOp15
 70
     1
102
RTVSPropertyOp16
 70
     1
102
RTVSPropertyOp17
 70
     1
102
RTVSPropertyOp18
 70
     1
102
RTVSPropertyOp19
 70
     1
102
RTVSPropertyOp20
 70
     1
102
RTVSPropertyOp21
 70
     1
102
RTVSPropertyOp22
 70
     1
102
RTVSPropertyOp23
 70
     1
102
RTVSPropertyOp24
 70
     1
102
RTVSPropertyOp25
 70
     1
102
RTVSPropertyOp26
 70
     1
102
RTVSPropertyOp27
 70
     1
102
RTVSPropertyOp28
 70
     1
102
RTVSPropertyOp29
 70
     1
102
RTVSPropertyOp30
 70
     1
102
RTVSPropertyOp31
 70
     1
102
RTVSPropertyOp32
 70
     1
102
RTVSPropertyOp33
 70
     1
102
RTVSPropertyOp34
 70
     1
102
RTVSPropertyOp35
 70
     1
102
RTVSPropertyOp36
 70
     1
102
RTVSPropertyOp37
 70
     1
102
RTVSPropertyOp38
 70
     1
102
RTVSPropertyOp39
 70
     1
102
RTVSPropertyOp40
 70
     1
102
RTVSPropertyOp41
 70
     1
102
RTVSPropertyOp42
 70
     1
102
RTVSPropertyOp43
 70
     1
102
RTVSPropertyOp44
 70
     1
102
RTVSPropertyOp45
 70
     1
102
RTVSPropertyOp46
 70
     1
102
RTVSPropertyOp47
 70
     1
102
RTVSPropertyOp48
 70
     1
102
RTVSPropertyOp49
 70
     1
102
RTVSPropertyOp50
 70
     1
102
RTVSPropertyOp51
 70
     0
102
RTVSPropertyOp52
 70
     0
102
RTVSPropertyOp53
 70
     1
102
RTVSPropertyOp54
 70
     1
102
RTVSPropertyOp55
 70
     1
102
RTVSPropertyOp56
 70
     1
102
RTVSPropertyOp57
 70
     1
102
RTVSPost2010Prop28
280
     0
102
RTVSPost2010PropOp28
 70
     1
102
RTVSPost2010Prop29
280
     1
102
RTVSPost2010PropOp29
 70
     1
102
RTVSPost2010Prop30
280
     1
102
RTVSPost2010PropOp30
 70
     1
102
RTVSPost2010Prop31
280
     0
102
RTVSPost2010PropOp31
 70
     1
102
RTVSPost2010Prop32
280
     0
102
RTVSPost2010PropOp32
 70
     1
102
RTVSPost2010Prop33
280
     0
102
RTVSPost2010PropOp33
 70
     1
102
RTVSPost2010Prop34
280
     0
102
RTVSPost2010PropOp34
 70
     1
102
RTVSPost2010Prop35
280
     0
102
RTVSPost2010PropOp35
 70
     1
102
RTVSPost2010Prop36
280
     0
102
RTVSPost2010PropOp36
 70
     1
102
RTVSPost2010Prop37
 90
       50
102
RTVSPost2010PropOp37
 70
     1
102
RTVSPost2010Prop38
140
0.0
102
RTVSPost2010PropOp38
 70
     1
102
RTVSPost2010Prop39
140
1.0
102
RTVSPost2010PropOp39
 70
     1
102
RTVSPost2010Prop40
 90
        0
102
RTVSPost2010PropOp40
 70
     1
102
RTVSPost2010Prop41ColorIndex
 90
       18
102
RTVSPost2010Prop41ColorRGB
 90
        0
102
RTVSPost2010PropOp41
 70
     1
102
RTVSPost2010Prop42
 90
       50
102
RTVSPost2010PropOp42
 70
     1
102
RTVSPost2010Prop43
 90
        3
102
RTVSPost2010PropOp43
 70
     1
102
RTVSPost2010Prop44ColorIndex
 90
        5
102
RTVSPost2010Prop44ColorRGB
 90
      255
102
RTVSPost2010PropOp44
 70
     1
102
RTVSPost2010Prop45
280
     0
102
RTVSPost2010PropOp45
 70
     1
102
RTVSPost2010Prop46
 90
       50
102
RTVSPost2010PropOp46
 70
     1
102
RTVSPost2010Prop47
 90
       50
102
RTVSPost2010PropOp47
 70
     1
102
RTVSPost2010Prop48
 90
       50
102
RTVSPost2010PropOp48
 70
     1
102
RTVSPost2010Prop49
280
     0
102
RTVSPost2010PropOp49
 70
     1
102
RTVSPost2010Prop50
 90
       50
102
RTVSPost2010PropOp50
 70
     1
102
RTVSPost2010Prop51ColorIndex
 90
      256
102
RTVSPost2010Prop51ColorRGB
 90
-16777216
102
RTVSPost2010PropOp51
 70
     0
102
RTVSPost2010Prop52
140
1.0
102
RTVSPost2010PropOp52
 70
     0
102
RTVSPost2010Prop53
 90
        2
102
RTVSPost2010PropOp53
 70
     1
102
RTVSPost2010Prop54
  1
strokes_ogs.tif
102
RTVSPost2010PropOp54
 70
     1
102
RTVSPost2010Prop55
280
     0
102
RTVSPost2010PropOp55
 70
     1
102
RTVSPost2010Prop56
140
1.0
102
RTVSPost2010PropOp56
 70
     1
102
RTVSPost2010Prop57
140
1.0
102
RTVSPost2010PropOp57
 70
     1
  0
XRECORD
  5
227
102
{ACAD_REACTORS
330
226
102
}
330
226
100
AcDbXrecord
280
     1
102
RTVSPropertyOp0
 70
     1
102
RTVSPropertyOp1
 70
     1
102
RTVSPropertyOp2
 70
     1
102
RTVSPropertyOp3
 70
     1
102
RTVSPropertyOp4
 70
     1
102
RTVSPropertyOp5
 70
     1
102
RTVSPropertyOp6
 70
     1
102
RTVSPropertyOp7
 70
     1
102
RTVSPropertyOp8
 70
     1
102
RTVSPropertyOp9
 70
     1
102
RTVSPropertyOp10
 70
     1
102
RTVSPropertyOp11
 70
     1
102
RTVSPropertyOp12
 70
     1
102
RTVSPropertyOp13
 70
     1
102
RTVSPropertyOp14
 70
     1
102
RTVSPropertyOp15
 70
     1
102
RTVSPropertyOp16
 70
     1
102
RTVSPropertyOp17
 70
     1
102
RTVSPropertyOp18
 70
     1
102
RTVSPropertyOp19
 70
     1
102
RTVSPropertyOp20
 70
     1
102
RTVSPropertyOp21
 70
     1
102
RTVSPropertyOp22
 70
     1
102
RTVSPropertyOp23
 70
     1
102
RTVSPropertyOp24
 70
     1
102
RTVSPropertyOp25
 70
     1
102
RTVSPropertyOp26
 70
     1
102
RTVSPropertyOp27
 70
     1
102
RTVSPropertyOp28
 70
     1
102
RTVSPropertyOp29
 70
     1
102
RTVSPropertyOp30
 70
     1
102
RTVSPropertyOp31
 70
     1
102
RTVSPropertyOp32
 70
     1
102
RTVSPropertyOp33
 70
     1
102
RTVSPropertyOp34
 70
     1
102
RTVSPropertyOp35
 70
     1
102
RTVSPropertyOp36
 70
     1
102
RTVSPropertyOp37
 70
     1
102
RTVSPropertyOp38
 70
     1
102
RTVSPropertyOp39
 70
     1
102
RTVSPropertyOp40
 70
     1
102
RTVSPropertyOp41
 70
     1
102
RTVSPropertyOp42
 70
     1
102
RTVSPropertyOp43
 70
     1
102
RTVSPropertyOp44
 70
     1
102
RTVSPropertyOp45
 70
     1
102
RTVSPropertyOp46
 70
     1
102
RTVSPropertyOp47
 70
     1
102
RTVSPropertyOp48
 70
     1
102
RTVSPropertyOp49
 70
     1
102
RTVSPropertyOp50
 70
     1
102
RTVSPropertyOp51
 70
     0
102
RTVSPropertyOp52
 70
     0
102
RTVSPropertyOp53
 70
     1
102
RTVSPropertyOp54
 70
     1
102
RTVSPropertyOp55
 70
     1
102
RTVSPropertyOp56
 70
     1
102
RTVSPropertyOp57
 70
     1
102
RTVSPost2010Prop28
280
     0
102
RTVSPost2010PropOp28
 70
     1
102
RTVSPost2010Prop29
280
     1
102
RTVSPost2010PropOp29
 70
     1
102
RTVSPost2010Prop30
280
     1
102
RTVSPost2010PropOp30
 70
     1
102
RTVSPost2010Prop31
280
     0
102
RTVSPost2010PropOp31
 70
     1
102
RTVSPost2010Prop32
280
     0
102
RTVSPost2010PropOp32
 70
     1
102
RTVSPost2010Prop33
280
     0
102
RTVSPost2010PropOp33
 70
     1
102
RTVSPost2010Prop34
280
     0
102
RTVSPost2010PropOp34
 70
     1
102
RTVSPost2010Prop35
280
     0
102
RTVSPost2010PropOp35
 70
     1
102
RTVSPost2010Prop36
280
     0
102
RTVSPost2010PropOp36
 70
     1
102
RTVSPost2010Prop37
 90
       50
102
RTVSPost2010PropOp37
 70
     1
102
RTVSPost2010Prop38
140
0.0
102
RTVSPost2010PropOp38
 70
     1
102
RTVSPost2010Prop39
140
1.0
102
RTVSPost2010PropOp39
 70
     1
102
RTVSPost2010Prop40
 90
        0
102
RTVSPost2010PropOp40
 70
     1
102
RTVSPost2010Prop41ColorIndex
 90
       18
102
RTVSPost2010Prop41ColorRGB
 90
        0
102
RTVSPost2010PropOp41
 70
     1
102
RTVSPost2010Prop42
 90
       50
102
RTVSPost2010PropOp42
 70
     1
102
RTVSPost2010Prop43
 90
        3
102
RTVSPost2010PropOp43
 70
     1
102
RTVSPost2010Prop44ColorIndex
 90
        5
102
RTVSPost2010Prop44ColorRGB
 90
      255
102
RTVSPost2010PropOp44
 70
     1
102
RTVSPost2010Prop45
280
     0
102
RTVSPost2010PropOp45
 70
     1
102
RTVSPost2010Prop46
 90
       50
102
RTVSPost2010PropOp46
 70
     1
102
RTVSPost2010Prop47
 90
       50
102
RTVSPost2010PropOp47
 70
     1
102
RTVSPost2010Prop48
 90
       50
102
RTVSPost2010PropOp48
 70
     1
102
RTVSPost2010Prop49
280
     0
102
RTVSPost2010PropOp49
 70
     1
102
RTVSPost2010Prop50
 90
       50
102
RTVSPost2010PropOp50
 70
     1
102
RTVSPost2010Prop51ColorIndex
 90
      256
102
RTVSPost2010Prop51ColorRGB
 90
-16777216
102
RTVSPost2010PropOp51
 70
     0
102
RTVSPost2010Prop52
140
1.0
102
RTVSPost2010PropOp52
 70
     0
102
RTVSPost2010Prop53
 90
        2
102
RTVSPost2010PropOp53
 70
     1
102
RTVSPost2010Prop54
  1
strokes_ogs.tif
102
RTVSPost2010PropOp54
 70
     1
102
RTVSPost2010Prop55
280
     0
102
RTVSPost2010PropOp55
 70
     1
102
RTVSPost2010Prop56
140
1.0
102
RTVSPost2010PropOp56
 70
     1
102
RTVSPost2010Prop57
140
1.0
102
RTVSPost2010PropOp57
 70
     1
  0
XRECORD
  5
229
102
{ACAD_REACTORS
330
228
102
}
330
228
100
AcDbXrecord
280
     1
102
RTVSPropertyOp0
 70
     1
102
RTVSPropertyOp1
 70
     1
102
RTVSPropertyOp2
 70
     1
102
RTVSPropertyOp3
 70
     1
102
RTVSPropertyOp4
 70
     1
102
RTVSPropertyOp5
 70
     1
102
RTVSPropertyOp6
 70
     1
102
RTVSPropertyOp7
 70
     1
102
RTVSPropertyOp8
 70
     1
102
RTVSPropertyOp9
 70
     1
102
RTVSPropertyOp10
 70
     1
102
RTVSPropertyOp11
 70
     1
102
RTVSPropertyOp12
 70
     1
102
RTVSPropertyOp13
 70
     1
102
RTVSPropertyOp14
 70
     1
102
RTVSPropertyOp15
 70
     1
102
RTVSPropertyOp16
 70
     1
102
RTVSPropertyOp17
 70
     1
102
RTVSPropertyOp18
 70
     1
102
RTVSPropertyOp19
 70
     1
102
RTVSPropertyOp20
 70
     1
102
RTVSPropertyOp21
 70
     1
102
RTVSPropertyOp22
 70
     1
102
RTVSPropertyOp23
 70
     1
102
RTVSPropertyOp24
 70
     1
102
RTVSPropertyOp25
 70
     1
102
RTVSPropertyOp26
 70
     1
102
RTVSPropertyOp27
 70
     1
102
RTVSPropertyOp28
 70
     1
102
RTVSPropertyOp29
 70
     1
102
RTVSPropertyOp30
 70
     1
102
RTVSPropertyOp31
 70
     1
102
RTVSPropertyOp32
 70
     1
102
RTVSPropertyOp33
 70
     1
102
RTVSPropertyOp34
 70
     1
102
RTVSPropertyOp35
 70
     1
102
RTVSPropertyOp36
 70
     1
102
RTVSPropertyOp37
 70
     1
102
RTVSPropertyOp38
 70
     1
102
RTVSPropertyOp39
 70
     1
102
RTVSPropertyOp40
 70
     1
102
RTVSPropertyOp41
 70
     1
102
RTVSPropertyOp42
 70
     1
102
RTVSPropertyOp43
 70
     1
102
RTVSPropertyOp44
 70
     1
102
RTVSPropertyOp45
 70
     1
102
RTVSPropertyOp46
 70
     1
102
RTVSPropertyOp47
 70
     1
102
RTVSPropertyOp48
 70
     1
102
RTVSPropertyOp49
 70
     1
102
RTVSPropertyOp50
 70
     1
102
RTVSPropertyOp51
 70
     0
102
RTVSPropertyOp52
 70
     0
102
RTVSPropertyOp53
 70
     1
102
RTVSPropertyOp54
 70
     1
102
RTVSPropertyOp55
 70
     1
102
RTVSPropertyOp56
 70
     1
102
RTVSPropertyOp57
 70
     1
102
RTVSPost2010Prop28
280
     0
102
RTVSPost2010PropOp28
 70
     1
102
RTVSPost2010Prop29
280
     1
102
RTVSPost2010PropOp29
 70
     1
102
RTVSPost2010Prop30
280
     1
102
RTVSPost2010PropOp30
 70
     1
102
RTVSPost2010Prop31
280
     0
102
RTVSPost2010PropOp31
 70
     1
102
RTVSPost2010Prop32
280
     0
102
RTVSPost2010PropOp32
 70
     1
102
RTVSPost2010Prop33
280
     0
102
RTVSPost2010PropOp33
 70
     1
102
RTVSPost2010Prop34
280
     0
102
RTVSPost2010PropOp34
 70
     1
102
RTVSPost2010Prop35
280
     0
102
RTVSPost2010PropOp35
 70
     1
102
RTVSPost2010Prop36
280
     0
102
RTVSPost2010PropOp36
 70
     1
102
RTVSPost2010Prop37
 90
       50
102
RTVSPost2010PropOp37
 70
     1
102
RTVSPost2010Prop38
140
0.0
102
RTVSPost2010PropOp38
 70
     1
102
RTVSPost2010Prop39
140
1.0
102
RTVSPost2010PropOp39
 70
     1
102
RTVSPost2010Prop40
 90
        0
102
RTVSPost2010PropOp40
 70
     1
102
RTVSPost2010Prop41ColorIndex
 90
       18
102
RTVSPost2010Prop41ColorRGB
 90
        0
102
RTVSPost2010PropOp41
 70
     1
102
RTVSPost2010Prop42
 90
       50
102
RTVSPost2010PropOp42
 70
     1
102
RTVSPost2010Prop43
 90
        3
102
RTVSPost2010PropOp43
 70
     1
102
RTVSPost2010Prop44ColorIndex
 90
        5
102
RTVSPost2010Prop44ColorRGB
 90
      255
102
RTVSPost2010PropOp44
 70
     1
102
RTVSPost2010Prop45
280
     0
102
RTVSPost2010PropOp45
 70
     1
102
RTVSPost2010Prop46
 90
       50
102
RTVSPost2010PropOp46
 70
     1
102
RTVSPost2010Prop47
 90
       50
102
RTVSPost2010PropOp47
 70
     1
102
RTVSPost2010Prop48
 90
       50
102
RTVSPost2010PropOp48
 70
     1
102
RTVSPost2010Prop49
280
     0
102
RTVSPost2010PropOp49
 70
     1
102
RTVSPost2010Prop50
 90
       50
102
RTVSPost2010PropOp50
 70
     1
102
RTVSPost2010Prop51ColorIndex
 90
      256
102
RTVSPost2010Prop51ColorRGB
 90
-16777216
102
RTVSPost2010PropOp51
 70
     0
102
RTVSPost2010Prop52
140
1.0
102
RTVSPost2010PropOp52
 70
     0
102
RTVSPost2010Prop53
 90
        2
102
RTVSPost2010PropOp53
 70
     1
102
RTVSPost2010Prop54
  1
strokes_ogs.tif
102
RTVSPost2010PropOp54
 70
     1
102
RTVSPost2010Prop55
280
     0
102
RTVSPost2010PropOp55
 70
     1
102
RTVSPost2010Prop56
140
1.0
102
RTVSPost2010PropOp56
 70
     1
102
RTVSPost2010Prop57
140
1.0
102
RTVSPost2010PropOp57
 70
     1
  0
XRECORD
  5
22B
102
{ACAD_REACTORS
330
22A
102
}
330
22A
100
AcDbXrecord
280
     1
102
RTVSPropertyOp0
 70
     1
102
RTVSPropertyOp1
 70
     1
102
RTVSPropertyOp2
 70
     1
102
RTVSPropertyOp3
 70
     1
102
RTVSPropertyOp4
 70
     1
102
RTVSPropertyOp5
 70
     1
102
RTVSPropertyOp6
 70
     1
102
RTVSPropertyOp7
 70
     1
102
RTVSPropertyOp8
 70
     1
102
RTVSPropertyOp9
 70
     1
102
RTVSPropertyOp10
 70
     1
102
RTVSPropertyOp11
 70
     1
102
RTVSPropertyOp12
 70
     1
102
RTVSPropertyOp13
 70
     1
102
RTVSPropertyOp14
 70
     1
102
RTVSPropertyOp15
 70
     1
102
RTVSPropertyOp16
 70
     1
102
RTVSPropertyOp17
 70
     1
102
RTVSPropertyOp18
 70
     1
102
RTVSPropertyOp19
 70
     1
102
RTVSPropertyOp20
 70
     1
102
RTVSPropertyOp21
 70
     1
102
RTVSPropertyOp22
 70
     1
102
RTVSPropertyOp23
 70
     1
102
RTVSPropertyOp24
 70
     1
102
RTVSPropertyOp25
 70
     1
102
RTVSPropertyOp26
 70
     1
102
RTVSPropertyOp27
 70
     1
102
RTVSPropertyOp28
 70
     1
102
RTVSPropertyOp29
 70
     1
102
RTVSPropertyOp30
 70
     1
102
RTVSPropertyOp31
 70
     1
102
RTVSPropertyOp32
 70
     1
102
RTVSPropertyOp33
 70
     1
102
RTVSPropertyOp34
 70
     1
102
RTVSPropertyOp35
 70
     1
102
RTVSPropertyOp36
 70
     1
102
RTVSPropertyOp37
 70
     1
102
RTVSPropertyOp38
 70
     1
102
RTVSPropertyOp39
 70
     1
102
RTVSPropertyOp40
 70
     1
102
RTVSPropertyOp41
 70
     1
102
RTVSPropertyOp42
 70
     1
102
RTVSPropertyOp43
 70
     1
102
RTVSPropertyOp44
 70
     1
102
RTVSPropertyOp45
 70
     1
102
RTVSPropertyOp46
 70
     1
102
RTVSPropertyOp47
 70
     1
102
RTVSPropertyOp48
 70
     1
102
RTVSPropertyOp49
 70
     1
102
RTVSPropertyOp50
 70
     1
102
RTVSPropertyOp51
 70
     0
102
RTVSPropertyOp52
 70
     0
102
RTVSPropertyOp53
 70
     1
102
RTVSPropertyOp54
 70
     1
102
RTVSPropertyOp55
 70
     1
102
RTVSPropertyOp56
 70
     1
102
RTVSPropertyOp57
 70
     1
102
RTVSPost2010Prop28
280
     0
102
RTVSPost2010PropOp28
 70
     1
102
RTVSPost2010Prop29
280
     1
102
RTVSPost2010PropOp29
 70
     1
102
RTVSPost2010Prop30
280
     1
102
RTVSPost2010PropOp30
 70
     1
102
RTVSPost2010Prop31
280
     0
102
RTVSPost2010PropOp31
 70
     1
102
RTVSPost2010Prop32
280
     0
102
RTVSPost2010PropOp32
 70
     1
102
RTVSPost2010Prop33
280
     0
102
RTVSPost2010PropOp33
 70
     1
102
RTVSPost2010Prop34
280
     0
102
RTVSPost2010PropOp34
 70
     1
102
RTVSPost2010Prop35
280
     0
102
RTVSPost2010PropOp35
 70
     1
102
RTVSPost2010Prop36
280
     0
102
RTVSPost2010PropOp36
 70
     1
102
RTVSPost2010Prop37
 90
       50
102
RTVSPost2010PropOp37
 70
     1
102
RTVSPost2010Prop38
140
0.0
102
RTVSPost2010PropOp38
 70
     1
102
RTVSPost2010Prop39
140
1.0
102
RTVSPost2010PropOp39
 70
     1
102
RTVSPost2010Prop40
 90
        0
102
RTVSPost2010PropOp40
 70
     1
102
RTVSPost2010Prop41ColorIndex
 90
       18
102
RTVSPost2010Prop41ColorRGB
 90
        0
102
RTVSPost2010PropOp41
 70
     1
102
RTVSPost2010Prop42
 90
       50
102
RTVSPost2010PropOp42
 70
     1
102
RTVSPost2010Prop43
 90
        3
102
RTVSPost2010PropOp43
 70
     1
102
RTVSPost2010Prop44ColorIndex
 90
        5
102
RTVSPost2010Prop44ColorRGB
 90
      255
102
RTVSPost2010PropOp44
 70
     1
102
RTVSPost2010Prop45
280
     0
102
RTVSPost2010PropOp45
 70
     1
102
RTVSPost2010Prop46
 90
       50
102
RTVSPost2010PropOp46
 70
     1
102
RTVSPost2010Prop47
 90
       50
102
RTVSPost2010PropOp47
 70
     1
102
RTVSPost2010Prop48
 90
       50
102
RTVSPost2010PropOp48
 70
     1
102
RTVSPost2010Prop49
280
     0
102
RTVSPost2010PropOp49
 70
     1
102
RTVSPost2010Prop50
 90
       50
102
RTVSPost2010PropOp50
 70
     1
102
RTVSPost2010Prop51ColorIndex
 90
      256
102
RTVSPost2010Prop51ColorRGB
 90
-16777216
102
RTVSPost2010PropOp51
 70
     0
102
RTVSPost2010Prop52
140
1.0
102
RTVSPost2010PropOp52
 70
     0
102
RTVSPost2010Prop53
 90
        2
102
RTVSPost2010PropOp53
 70
     1
102
RTVSPost2010Prop54
  1
strokes_ogs.tif
102
RTVSPost2010PropOp54
 70
     1
102
RTVSPost2010Prop55
280
     0
102
RTVSPost2010PropOp55
 70
     1
102
RTVSPost2010Prop56
140
1.0
102
RTVSPost2010PropOp56
 70
     1
102
RTVSPost2010Prop57
140
1.0
102
RTVSPost2010PropOp57
 70
     1
  0
XRECORD
  5
22D
102
{ACAD_REACTORS
330
22C
102
}
330
22C
100
AcDbXrecord
280
     1
102
RTVSPropertyOp0
 70
     1
102
RTVSPropertyOp1
 70
     1
102
RTVSPropertyOp2
 70
     1
102
RTVSPropertyOp3
 70
     1
102
RTVSPropertyOp4
 70
     1
102
RTVSPropertyOp5
 70
     1
102
RTVSPropertyOp6
 70
     1
102
RTVSPropertyOp7
 70
     1
102
RTVSPropertyOp8
 70
     1
102
RTVSPropertyOp9
 70
     1
102
RTVSPropertyOp10
 70
     1
102
RTVSPropertyOp11
 70
     1
102
RTVSPropertyOp12
 70
     1
102
RTVSPropertyOp13
 70
     1
102
RTVSPropertyOp14
 70
     1
102
RTVSPropertyOp15
 70
     1
102
RTVSPropertyOp16
 70
     1
102
RTVSPropertyOp17
 70
     1
102
RTVSPropertyOp18
 70
     1
102
RTVSPropertyOp19
 70
     1
102
RTVSPropertyOp20
 70
     1
102
RTVSPropertyOp21
 70
     1
102
RTVSPropertyOp22
 70
     1
102
RTVSPropertyOp23
 70
     1
102
RTVSPropertyOp24
 70
     1
102
RTVSPropertyOp25
 70
     1
102
RTVSPropertyOp26
 70
     1
102
RTVSPropertyOp27
 70
     1
102
RTVSPropertyOp28
 70
     1
102
RTVSPropertyOp29
 70
     1
102
RTVSPropertyOp30
 70
     1
102
RTVSPropertyOp31
 70
     1
102
RTVSPropertyOp32
 70
     1
102
RTVSPropertyOp33
 70
     1
102
RTVSPropertyOp34
 70
     1
102
RTVSPropertyOp35
 70
     1
102
RTVSPropertyOp36
 70
     1
102
RTVSPropertyOp37
 70
     1
102
RTVSPropertyOp38
 70
     1
102
RTVSPropertyOp39
 70
     1
102
RTVSPropertyOp40
 70
     1
102
RTVSPropertyOp41
 70
     1
102
RTVSPropertyOp42
 70
     1
102
RTVSPropertyOp43
 70
     1
102
RTVSPropertyOp44
 70
     1
102
RTVSPropertyOp45
 70
     1
102
RTVSPropertyOp46
 70
     1
102
RTVSPropertyOp47
 70
     1
102
RTVSPropertyOp48
 70
     1
102
RTVSPropertyOp49
 70
     1
102
RTVSPropertyOp50
 70
     1
102
RTVSPropertyOp51
 70
     0
102
RTVSPropertyOp52
 70
     0
102
RTVSPropertyOp53
 70
     1
102
RTVSPropertyOp54
 70
     1
102
RTVSPropertyOp55
 70
     1
102
RTVSPropertyOp56
 70
     1
102
RTVSPropertyOp57
 70
     1
102
RTVSPost2010Prop28
280
     0
102
RTVSPost2010PropOp28
 70
     1
102
RTVSPost2010Prop29
280
     1
102
RTVSPost2010PropOp29
 70
     1
102
RTVSPost2010Prop30
280
     1
102
RTVSPost2010PropOp30
 70
     1
102
RTVSPost2010Prop31
280
     0
102
RTVSPost2010PropOp31
 70
     1
102
RTVSPost2010Prop32
280
     0
102
RTVSPost2010PropOp32
 70
     1
102
RTVSPost2010Prop33
280
     0
102
RTVSPost2010PropOp33
 70
     1
102
RTVSPost2010Prop34
280
     0
102
RTVSPost2010PropOp34
 70
     1
102
RTVSPost2010Prop35
280
     0
102
RTVSPost2010PropOp35
 70
     1
102
RTVSPost2010Prop36
280
     0
102
RTVSPost2010PropOp36
 70
     1
102
RTVSPost2010Prop37
 90
       50
102
RTVSPost2010PropOp37
 70
     1
102
RTVSPost2010Prop38
140
0.0
102
RTVSPost2010PropOp38
 70
     1
102
RTVSPost2010Prop39
140
1.0
102
RTVSPost2010PropOp39
 70
     1
102
RTVSPost2010Prop40
 90
        0
102
RTVSPost2010PropOp40
 70
     1
102
RTVSPost2010Prop41ColorIndex
 90
       18
102
RTVSPost2010Prop41ColorRGB
 90
        0
102
RTVSPost2010PropOp41
 70
     1
102
RTVSPost2010Prop42
 90
       50
102
RTVSPost2010PropOp42
 70
     1
102
RTVSPost2010Prop43
 90
        3
102
RTVSPost2010PropOp43
 70
     1
102
RTVSPost2010Prop44ColorIndex
 90
        5
102
RTVSPost2010Prop44ColorRGB
 90
      255
102
RTVSPost2010PropOp44
 70
     1
102
RTVSPost2010Prop45
280
     0
102
RTVSPost2010PropOp45
 70
     1
102
RTVSPost2010Prop46
 90
       50
102
RTVSPost2010PropOp46
 70
     1
102
RTVSPost2010Prop47
 90
       50
102
RTVSPost2010PropOp47
 70
     1
102
RTVSPost2010Prop48
 90
       50
102
RTVSPost2010PropOp48
 70
     1
102
RTVSPost2010Prop49
280
     0
102
RTVSPost2010PropOp49
 70
     1
102
RTVSPost2010Prop50
 90
       50
102
RTVSPost2010PropOp50
 70
     1
102
RTVSPost2010Prop51ColorIndex
 90
      256
102
RTVSPost2010Prop51ColorRGB
 90
-16777216
102
RTVSPost2010PropOp51
 70
     0
102
RTVSPost2010Prop52
140
1.0
102
RTVSPost2010PropOp52
 70
     0
102
RTVSPost2010Prop53
 90
        2
102
RTVSPost2010PropOp53
 70
     1
102
RTVSPost2010Prop54
  1
strokes_ogs.tif
102
RTVSPost2010PropOp54
 70
     1
102
RTVSPost2010Prop55
280
     0
102
RTVSPost2010PropOp55
 70
     1
102
RTVSPost2010Prop56
140
1.0
102
RTVSPost2010PropOp56
 70
     1
102
RTVSPost2010Prop57
140
1.0
102
RTVSPost2010PropOp57
 70
     1
  0
XRECORD
  5
233
102
{ACAD_REACTORS
330
232
102
}
330
232
100
AcDbXrecord
280
     1
102
RTVSPropertyOp0
 70
     1
102
RTVSPropertyOp1
 70
     1
102
RTVSPropertyOp2
 70
     1
102
RTVSPropertyOp3
 70
     1
102
RTVSPropertyOp4
 70
     1
102
RTVSPropertyOp5
 70
     1
102
RTVSPropertyOp6
 70
     1
102
RTVSPropertyOp7
 70
     1
102
RTVSPropertyOp8
 70
     1
102
RTVSPropertyOp9
 70
     1
102
RTVSPropertyOp10
 70
     1
102
RTVSPropertyOp11
 70
     1
102
RTVSPropertyOp12
 70
     1
102
RTVSPropertyOp13
 70
     1
102
RTVSPropertyOp14
 70
     1
102
RTVSPropertyOp15
 70
     1
102
RTVSPropertyOp16
 70
     1
102
RTVSPropertyOp17
 70
     1
102
RTVSPropertyOp18
 70
     1
102
RTVSPropertyOp19
 70
     1
102
RTVSPropertyOp20
 70
     1
102
RTVSPropertyOp21
 70
     1
102
RTVSPropertyOp22
 70
     1
102
RTVSPropertyOp23
 70
     1
102
RTVSPropertyOp24
 70
     1
102
RTVSPropertyOp25
 70
     1
102
RTVSPropertyOp26
 70
     1
102
RTVSPropertyOp27
 70
     1
102
RTVSPropertyOp28
 70
     1
102
RTVSPropertyOp29
 70
     1
102
RTVSPropertyOp30
 70
     1
102
RTVSPropertyOp31
 70
     1
102
RTVSPropertyOp32
 70
     1
102
RTVSPropertyOp33
 70
     1
102
RTVSPropertyOp34
 70
     1
102
RTVSPropertyOp35
 70
     1
102
RTVSPropertyOp36
 70
     1
102
RTVSPropertyOp37
 70
     1
102
RTVSPropertyOp38
 70
     1
102
RTVSPropertyOp39
 70
     1
102
RTVSPropertyOp40
 70
     1
102
RTVSPropertyOp41
 70
     1
102
RTVSPropertyOp42
 70
     1
102
RTVSPropertyOp43
 70
     1
102
RTVSPropertyOp44
 70
     1
102
RTVSPropertyOp45
 70
     1
102
RTVSPropertyOp46
 70
     1
102
RTVSPropertyOp47
 70
     1
102
RTVSPropertyOp48
 70
     1
102
RTVSPropertyOp49
 70
     1
102
RTVSPropertyOp50
 70
     1
102
RTVSPropertyOp51
 70
     0
102
RTVSPropertyOp52
 70
     0
102
RTVSPropertyOp53
 70
     1
102
RTVSPropertyOp54
 70
     1
102
RTVSPropertyOp55
 70
     1
102
RTVSPropertyOp56
 70
     1
102
RTVSPropertyOp57
 70
     1
102
RTVSPost2010Prop28
280
     0
102
RTVSPost2010PropOp28
 70
     1
102
RTVSPost2010Prop29
280
     1
102
RTVSPost2010PropOp29
 70
     1
102
RTVSPost2010Prop30
280
     1
102
RTVSPost2010PropOp30
 70
     1
102
RTVSPost2010Prop31
280
     0
102
RTVSPost2010PropOp31
 70
     1
102
RTVSPost2010Prop32
280
     0
102
RTVSPost2010PropOp32
 70
     1
102
RTVSPost2010Prop33
280
     0
102
RTVSPost2010PropOp33
 70
     1
102
RTVSPost2010Prop34
280
     0
102
RTVSPost2010PropOp34
 70
     1
102
RTVSPost2010Prop35
280
     0
102
RTVSPost2010PropOp35
 70
     1
102
RTVSPost2010Prop36
280
     0
102
RTVSPost2010PropOp36
 70
     1
102
RTVSPost2010Prop37
 90
       50
102
RTVSPost2010PropOp37
 70
     1
102
RTVSPost2010Prop38
140
0.0
102
RTVSPost2010PropOp38
 70
     1
102
RTVSPost2010Prop39
140
1.0
102
RTVSPost2010PropOp39
 70
     1
102
RTVSPost2010Prop40
 90
        0
102
RTVSPost2010PropOp40
 70
     1
102
RTVSPost2010Prop41ColorIndex
 90
       18
102
RTVSPost2010Prop41ColorRGB
 90
        0
102
RTVSPost2010PropOp41
 70
     1
102
RTVSPost2010Prop42
 90
       50
102
RTVSPost2010PropOp42
 70
     1
102
RTVSPost2010Prop43
 90
        3
102
RTVSPost2010PropOp43
 70
     1
102
RTVSPost2010Prop44ColorIndex
 90
        5
102
RTVSPost2010Prop44ColorRGB
 90
      255
102
RTVSPost2010PropOp44
 70
     1
102
RTVSPost2010Prop45
280
     0
102
RTVSPost2010PropOp45
 70
     1
102
RTVSPost2010Prop46
 90
       50
102
RTVSPost2010PropOp46
 70
     1
102
RTVSPost2010Prop47
 90
       50
102
RTVSPost2010PropOp47
 70
     1
102
RTVSPost2010Prop48
 90
       50
102
RTVSPost2010PropOp48
 70
     1
102
RTVSPost2010Prop49
280
     0
102
RTVSPost2010PropOp49
 70
     1
102
RTVSPost2010Prop50
 90
       50
102
RTVSPost2010PropOp50
 70
     1
102
RTVSPost2010Prop51ColorIndex
 90
      256
102
RTVSPost2010Prop51ColorRGB
 90
-16777216
102
RTVSPost2010PropOp51
 70
     0
102
RTVSPost2010Prop52
140
1.0
102
RTVSPost2010PropOp52
 70
     0
102
RTVSPost2010Prop53
 90
        2
102
RTVSPost2010PropOp53
 70
     1
102
RTVSPost2010Prop54
  1
strokes_ogs.tif
102
RTVSPost2010PropOp54
 70
     1
102
RTVSPost2010Prop55
280
     0
102
RTVSPost2010PropOp55
 70
     1
102
RTVSPost2010Prop56
140
1.0
102
RTVSPost2010PropOp56
 70
     1
102
RTVSPost2010Prop57
140
1.0
102
RTVSPost2010PropOp57
 70
     1
  0
XRECORD
  5
247
102
{ACAD_REACTORS
330
246
102
}
330
246
100
AcDbXrecord
280
     1
102
RTVSPropertyOp0
 70
     0
102
RTVSPropertyOp1
 70
     0
102
RTVSPropertyOp2
 70
     0
102
RTVSPropertyOp3
 70
     0
102
RTVSPropertyOp4
 70
     0
102
RTVSPropertyOp5
 70
     0
102
RTVSPropertyOp6
 70
     0
102
RTVSPropertyOp7
 70
     0
102
RTVSPropertyOp8
 70
     0
102
RTVSPropertyOp9
 70
     0
102
RTVSPropertyOp10
 70
     0
102
RTVSPropertyOp11
 70
     0
102
RTVSPropertyOp12
 70
     0
102
RTVSPropertyOp13
 70
     0
102
RTVSPropertyOp14
 70
     2
102
RTVSPropertyOp15
 70
     0
102
RTVSPropertyOp16
 70
     0
102
RTVSPropertyOp17
 70
     0
102
RTVSPropertyOp18
 70
     0
102
RTVSPropertyOp19
 70
     0
102
RTVSPropertyOp20
 70
     0
102
RTVSPropertyOp21
 70
     0
102
RTVSPropertyOp22
 70
     0
102
RTVSPropertyOp23
 70
     0
102
RTVSPropertyOp24
 70
     0
102
RTVSPropertyOp25
 70
     0
102
RTVSPropertyOp26
 70
     0
102
RTVSPropertyOp27
 70
     0
102
RTVSPropertyOp28
 70
     0
102
RTVSPropertyOp29
 70
     0
102
RTVSPropertyOp30
 70
     0
102
RTVSPropertyOp31
 70
     0
102
RTVSPropertyOp32
 70
     0
102
RTVSPropertyOp33
 70
     0
102
RTVSPropertyOp34
 70
     0
102
RTVSPropertyOp35
 70
     0
102
RTVSPropertyOp36
 70
     0
102
RTVSPropertyOp37
 70
     0
102
RTVSPropertyOp38
 70
     0
102
RTVSPropertyOp39
 70
     0
102
RTVSPropertyOp40
 70
     0
102
RTVSPropertyOp41
 70
     0
102
RTVSPropertyOp42
 70
     0
102
RTVSPropertyOp43
 70
     0
102
RTVSPropertyOp44
 70
     0
102
RTVSPropertyOp45
 70
     0
102
RTVSPropertyOp46
 70
     0
102
RTVSPropertyOp47
 70
     0
102
RTVSPropertyOp48
 70
     0
102
RTVSPropertyOp49
 70
     0
102
RTVSPropertyOp50
 70
     0
102
RTVSPropertyOp51
 70
     0
102
RTVSPropertyOp52
 70
     0
102
RTVSPropertyOp53
 70
     0
102
RTVSPropertyOp54
 70
     0
102
RTVSPropertyOp55
 70
     0
102
RTVSPropertyOp56
 70
     0
102
RTVSPropertyOp57
 70
     0
102
RTVSPost2010Prop28
280
     0
102
RTVSPost2010PropOp28
 70
     0
102
RTVSPost2010Prop29
280
     1
102
RTVSPost2010PropOp29
 70
     0
102
RTVSPost2010Prop30
280
     1
102
RTVSPost2010PropOp30
 70
     0
102
RTVSPost2010Prop31
280
     0
102
RTVSPost2010PropOp31
 70
     0
102
RTVSPost2010Prop32
280
     0
102
RTVSPost2010PropOp32
 70
     0
102
RTVSPost2010Prop33
280
     0
102
RTVSPost2010PropOp33
 70
     0
102
RTVSPost2010Prop34
280
     0
102
RTVSPost2010PropOp34
 70
     0
102
RTVSPost2010Prop35
280
     0
102
RTVSPost2010PropOp35
 70
     0
102
RTVSPost2010Prop36
280
     0
102
RTVSPost2010PropOp36
 70
     0
102
RTVSPost2010Prop37
 90
       50
102
RTVSPost2010PropOp37
 70
     0
102
RTVSPost2010Prop38
140
0.0
102
RTVSPost2010PropOp38
 70
     0
102
RTVSPost2010Prop39
140
1.0
102
RTVSPost2010PropOp39
 70
     0
102
RTVSPost2010Prop40
 90
        0
102
RTVSPost2010PropOp40
 70
     0
102
RTVSPost2010Prop41ColorIndex
 90
       18
102
RTVSPost2010Prop41ColorRGB
 90
        0
102
RTVSPost2010PropOp41
 70
     0
102
RTVSPost2010Prop42
 90
       50
102
RTVSPost2010PropOp42
 70
     0
102
RTVSPost2010Prop43
 90
        3
102
RTVSPost2010PropOp43
 70
     0
102
RTVSPost2010Prop44ColorIndex
 90
        5
102
RTVSPost2010Prop44ColorRGB
 90
      255
102
RTVSPost2010PropOp44
 70
     0
102
RTVSPost2010Prop45
280
     0
102
RTVSPost2010PropOp45
 70
     0
102
RTVSPost2010Prop46
 90
       50
102
RTVSPost2010PropOp46
 70
     0
102
RTVSPost2010Prop47
 90
       50
102
RTVSPost2010PropOp47
 70
     0
102
RTVSPost2010Prop48
 90
       50
102
RTVSPost2010PropOp48
 70
     0
102
RTVSPost2010Prop49
280
     0
102
RTVSPost2010PropOp49
 70
     0
102
RTVSPost2010Prop50
 90
       50
102
RTVSPost2010PropOp50
 70
     0
102
RTVSPost2010Prop51ColorIndex
 90
      256
102
RTVSPost2010Prop51ColorRGB
 90
-16777216
102
RTVSPost2010PropOp51
 70
     0
102
RTVSPost2010Prop52
140
1.0
102
RTVSPost2010PropOp52
 70
     0
102
RTVSPost2010Prop53
 90
        2
102
RTVSPost2010PropOp53
 70
     0
102
RTVSPost2010Prop54
  1
strokes_ogs.tif
102
RTVSPost2010PropOp54
 70
     0
102
RTVSPost2010Prop55
280
     0
102
RTVSPost2010PropOp55
 70
     0
102
RTVSPost2010Prop56
140
1.0
102
RTVSPost2010PropOp56
 70
     0
102
RTVSPost2010Prop57
140
1.0
102
RTVSPost2010PropOp57
 70
     0
  0
XRECORD
  5
241
102
{ACAD_REACTORS
330
240
102
}
330
240
100
AcDbXrecord
280
     1
102
RTVSPropertyOp0
 70
     1
102
RTVSPropertyOp1
 70
     1
102
RTVSPropertyOp2
 70
     1
102
RTVSPropertyOp3
 70
     1
102
RTVSPropertyOp4
 70
     1
102
RTVSPropertyOp5
 70
     1
102
RTVSPropertyOp6
 70
     1
102
RTVSPropertyOp7
 70
     1
102
RTVSPropertyOp8
 70
     1
102
RTVSPropertyOp9
 70
     1
102
RTVSPropertyOp10
 70
     1
102
RTVSPropertyOp11
 70
     1
102
RTVSPropertyOp12
 70
     1
102
RTVSPropertyOp13
 70
     1
102
RTVSPropertyOp14
 70
     1
102
RTVSPropertyOp15
 70
     1
102
RTVSPropertyOp16
 70
     1
102
RTVSPropertyOp17
 70
     1
102
RTVSPropertyOp18
 70
     1
102
RTVSPropertyOp19
 70
     1
102
RTVSPropertyOp20
 70
     1
102
RTVSPropertyOp21
 70
     1
102
RTVSPropertyOp22
 70
     1
102
RTVSPropertyOp23
 70
     1
102
RTVSPropertyOp24
 70
     1
102
RTVSPropertyOp25
 70
     1
102
RTVSPropertyOp26
 70
     1
102
RTVSPropertyOp27
 70
     1
102
RTVSPropertyOp28
 70
     1
102
RTVSPropertyOp29
 70
     1
102
RTVSPropertyOp30
 70
     1
102
RTVSPropertyOp31
 70
     1
102
RTVSPropertyOp32
 70
     1
102
RTVSPropertyOp33
 70
     1
102
RTVSPropertyOp34
 70
     1
102
RTVSPropertyOp35
 70
     1
102
RTVSPropertyOp36
 70
     1
102
RTVSPropertyOp37
 70
     1
102
RTVSPropertyOp38
 70
     1
102
RTVSPropertyOp39
 70
     1
102
RTVSPropertyOp40
 70
     1
102
RTVSPropertyOp41
 70
     1
102
RTVSPropertyOp42
 70
     1
102
RTVSPropertyOp43
 70
     1
102
RTVSPropertyOp44
 70
     1
102
RTVSPropertyOp45
 70
     1
102
RTVSPropertyOp46
 70
     1
102
RTVSPropertyOp47
 70
     1
102
RTVSPropertyOp48
 70
     1
102
RTVSPropertyOp49
 70
     1
102
RTVSPropertyOp50
 70
     1
102
RTVSPropertyOp51
 70
     0
102
RTVSPropertyOp52
 70
     0
102
RTVSPropertyOp53
 70
     1
102
RTVSPropertyOp54
 70
     1
102
RTVSPropertyOp55
 70
     1
102
RTVSPropertyOp56
 70
     1
102
RTVSPropertyOp57
 70
     1
102
RTVSPost2010Prop28
280
     0
102
RTVSPost2010PropOp28
 70
     1
102
RTVSPost2010Prop29
280
     1
102
RTVSPost2010PropOp29
 70
     1
102
RTVSPost2010Prop30
280
     1
102
RTVSPost2010PropOp30
 70
     1
102
RTVSPost2010Prop31
280
     0
102
RTVSPost2010PropOp31
 70
     1
102
RTVSPost2010Prop32
280
     0
102
RTVSPost2010PropOp32
 70
     1
102
RTVSPost2010Prop33
280
     0
102
RTVSPost2010PropOp33
 70
     1
102
RTVSPost2010Prop34
280
     0
102
RTVSPost2010PropOp34
 70
     1
102
RTVSPost2010Prop35
280
     0
102
RTVSPost2010PropOp35
 70
     1
102
RTVSPost2010Prop36
280
     0
102
RTVSPost2010PropOp36
 70
     1
102
RTVSPost2010Prop37
 90
       50
102
RTVSPost2010PropOp37
 70
     1
102
RTVSPost2010Prop38
140
0.0
102
RTVSPost2010PropOp38
 70
     1
102
RTVSPost2010Prop39
140
1.0
102
RTVSPost2010PropOp39
 70
     1
102
RTVSPost2010Prop40
 90
        0
102
RTVSPost2010PropOp40
 70
     1
102
RTVSPost2010Prop41ColorIndex
 90
       18
102
RTVSPost2010Prop41ColorRGB
 90
        0
102
RTVSPost2010PropOp41
 70
     1
102
RTVSPost2010Prop42
 90
       50
102
RTVSPost2010PropOp42
 70
     1
102
RTVSPost2010Prop43
 90
        3
102
RTVSPost2010PropOp43
 70
     1
102
RTVSPost2010Prop44ColorIndex
 90
        5
102
RTVSPost2010Prop44ColorRGB
 90
      255
102
RTVSPost2010PropOp44
 70
     1
102
RTVSPost2010Prop45
280
     0
102
RTVSPost2010PropOp45
 70
     1
102
RTVSPost2010Prop46
 90
       50
102
RTVSPost2010PropOp46
 70
     1
102
RTVSPost2010Prop47
 90
       50
102
RTVSPost2010PropOp47
 70
     1
102
RTVSPost2010Prop48
 90
       50
102
RTVSPost2010PropOp48
 70
     1
102
RTVSPost2010Prop49
280
     0
102
RTVSPost2010PropOp49
 70
     1
102
RTVSPost2010Prop50
 90
       50
102
RTVSPost2010PropOp50
 70
     1
102
RTVSPost2010Prop51ColorIndex
 90
      256
102
RTVSPost2010Prop51ColorRGB
 90
-16777216
102
RTVSPost2010PropOp51
 70
     0
102
RTVSPost2010Prop52
140
1.0
102
RTVSPost2010PropOp52
 70
     0
102
RTVSPost2010Prop53
 90
        2
102
RTVSPost2010PropOp53
 70
     1
102
RTVSPost2010Prop54
  1
strokes_ogs.tif
102
RTVSPost2010PropOp54
 70
     1
102
RTVSPost2010Prop55
280
     0
102
RTVSPost2010PropOp55
 70
     1
102
RTVSPost2010Prop56
140
1.0
102
RTVSPost2010PropOp56
 70
     1
102
RTVSPost2010Prop57
140
1.0
102
RTVSPost2010PropOp57
 70
     1
  0
XRECORD
  5
249
102
{ACAD_REACTORS
330
248
102
}
330
248
100
AcDbXrecord
280
     1
102
RTVSPropertyOp0
 70
     0
102
RTVSPropertyOp1
 70
     0
102
RTVSPropertyOp2
 70
     0
102
RTVSPropertyOp3
 70
     0
102
RTVSPropertyOp4
 70
     0
102
RTVSPropertyOp5
 70
     0
102
RTVSPropertyOp6
 70
     0
102
RTVSPropertyOp7
 70
     0
102
RTVSPropertyOp8
 70
     0
102
RTVSPropertyOp9
 70
     0
102
RTVSPropertyOp10
 70
     0
102
RTVSPropertyOp11
 70
     0
102
RTVSPropertyOp12
 70
     0
102
RTVSPropertyOp13
 70
     0
102
RTVSPropertyOp14
 70
     2
102
RTVSPropertyOp15
 70
     0
102
RTVSPropertyOp16
 70
     0
102
RTVSPropertyOp17
 70
     0
102
RTVSPropertyOp18
 70
     0
102
RTVSPropertyOp19
 70
     0
102
RTVSPropertyOp20
 70
     0
102
RTVSPropertyOp21
 70
     0
102
RTVSPropertyOp22
 70
     0
102
RTVSPropertyOp23
 70
     0
102
RTVSPropertyOp24
 70
     0
102
RTVSPropertyOp25
 70
     0
102
RTVSPropertyOp26
 70
     0
102
RTVSPropertyOp27
 70
     0
102
RTVSPropertyOp28
 70
     0
102
RTVSPropertyOp29
 70
     0
102
RTVSPropertyOp30
 70
     0
102
RTVSPropertyOp31
 70
     0
102
RTVSPropertyOp32
 70
     0
102
RTVSPropertyOp33
 70
     0
102
RTVSPropertyOp34
 70
     0
102
RTVSPropertyOp35
 70
     0
102
RTVSPropertyOp36
 70
     0
102
RTVSPropertyOp37
 70
     0
102
RTVSPropertyOp38
 70
     0
102
RTVSPropertyOp39
 70
     0
102
RTVSPropertyOp40
 70
     0
102
RTVSPropertyOp41
 70
     0
102
RTVSPropertyOp42
 70
     0
102
RTVSPropertyOp43
 70
     0
102
RTVSPropertyOp44
 70
     0
102
RTVSPropertyOp45
 70
     0
102
RTVSPropertyOp46
 70
     0
102
RTVSPropertyOp47
 70
     0
102
RTVSPropertyOp48
 70
     0
102
RTVSPropertyOp49
 70
     0
102
RTVSPropertyOp50
 70
     0
102
RTVSPropertyOp51
 70
     0
102
RTVSPropertyOp52
 70
     0
102
RTVSPropertyOp53
 70
     0
102
RTVSPropertyOp54
 70
     0
102
RTVSPropertyOp55
 70
     0
102
RTVSPropertyOp56
 70
     0
102
RTVSPropertyOp57
 70
     0
102
RTVSPost2010Prop28
280
     0
102
RTVSPost2010PropOp28
 70
     0
102
RTVSPost2010Prop29
280
     1
102
RTVSPost2010PropOp29
 70
     0
102
RTVSPost2010Prop30
280
     1
102
RTVSPost2010PropOp30
 70
     0
102
RTVSPost2010Prop31
280
     0
102
RTVSPost2010PropOp31
 70
     0
102
RTVSPost2010Prop32
280
     0
102
RTVSPost2010PropOp32
 70
     0
102
RTVSPost2010Prop33
280
     0
102
RTVSPost2010PropOp33
 70
     0
102
RTVSPost2010Prop34
280
     0
102
RTVSPost2010PropOp34
 70
     0
102
RTVSPost2010Prop35
280
     0
102
RTVSPost2010PropOp35
 70
     0
102
RTVSPost2010Prop36
280
     0
102
RTVSPost2010PropOp36
 70
     0
102
RTVSPost2010Prop37
 90
       50
102
RTVSPost2010PropOp37
 70
     0
102
RTVSPost2010Prop38
140
0.0
102
RTVSPost2010PropOp38
 70
     0
102
RTVSPost2010Prop39
140
1.0
102
RTVSPost2010PropOp39
 70
     0
102
RTVSPost2010Prop40
 90
        0
102
RTVSPost2010PropOp40
 70
     0
102
RTVSPost2010Prop41ColorIndex
 90
       18
102
RTVSPost2010Prop41ColorRGB
 90
        0
102
RTVSPost2010PropOp41
 70
     0
102
RTVSPost2010Prop42
 90
       50
102
RTVSPost2010PropOp42
 70
     0
102
RTVSPost2010Prop43
 90
        3
102
RTVSPost2010PropOp43
 70
     0
102
RTVSPost2010Prop44ColorIndex
 90
        5
102
RTVSPost2010Prop44ColorRGB
 90
      255
102
RTVSPost2010PropOp44
 70
     0
102
RTVSPost2010Prop45
280
     0
102
RTVSPost2010PropOp45
 70
     0
102
RTVSPost2010Prop46
 90
       50
102
RTVSPost2010PropOp46
 70
     0
102
RTVSPost2010Prop47
 90
       50
102
RTVSPost2010PropOp47
 70
     0
102
RTVSPost2010Prop48
 90
       50
102
RTVSPost2010PropOp48
 70
     0
102
RTVSPost2010Prop49
280
     0
102
RTVSPost2010PropOp49
 70
     0
102
RTVSPost2010Prop50
 90
       50
102
RTVSPost2010PropOp50
 70
     0
102
RTVSPost2010Prop51ColorIndex
 90
      256
102
RTVSPost2010Prop51ColorRGB
 90
-16777216
102
RTVSPost2010PropOp51
 70
     0
102
RTVSPost2010Prop52
140
1.0
102
RTVSPost2010PropOp52
 70
     0
102
RTVSPost2010Prop53
 90
        2
102
RTVSPost2010PropOp53
 70
     0
102
RTVSPost2010Prop54
  1
strokes_ogs.tif
102
RTVSPost2010PropOp54
 70
     0
102
RTVSPost2010Prop55
280
     0
102
RTVSPost2010PropOp55
 70
     0
102
RTVSPost2010Prop56
140
1.0
102
RTVSPost2010PropOp56
 70
     0
102
RTVSPost2010Prop57
140
1.0
102
RTVSPost2010PropOp57
 70
     0
  0
XRECORD
  5
237
102
{ACAD_REACTORS
330
236
102
}
330
236
100
AcDbXrecord
280
     1
102
RTVSPropertyOp0
 70
     1
102
RTVSPropertyOp1
 70
     1
102
RTVSPropertyOp2
 70
     1
102
RTVSPropertyOp3
 70
     1
102
RTVSPropertyOp4
 70
     1
102
RTVSPropertyOp5
 70
     1
102
RTVSPropertyOp6
 70
     1
102
RTVSPropertyOp7
 70
     1
102
RTVSPropertyOp8
 70
     1
102
RTVSPropertyOp9
 70
     1
102
RTVSPropertyOp10
 70
     1
102
RTVSPropertyOp11
 70
     1
102
RTVSPropertyOp12
 70
     1
102
RTVSPropertyOp13
 70
     1
102
RTVSPropertyOp14
 70
     1
102
RTVSPropertyOp15
 70
     1
102
RTVSPropertyOp16
 70
     1
102
RTVSPropertyOp17
 70
     1
102
RTVSPropertyOp18
 70
     1
102
RTVSPropertyOp19
 70
     1
102
RTVSPropertyOp20
 70
     1
102
RTVSPropertyOp21
 70
     1
102
RTVSPropertyOp22
 70
     1
102
RTVSPropertyOp23
 70
     1
102
RTVSPropertyOp24
 70
     1
102
RTVSPropertyOp25
 70
     1
102
RTVSPropertyOp26
 70
     1
102
RTVSPropertyOp27
 70
     1
102
RTVSPropertyOp28
 70
     1
102
RTVSPropertyOp29
 70
     1
102
RTVSPropertyOp30
 70
     1
102
RTVSPropertyOp31
 70
     1
102
RTVSPropertyOp32
 70
     1
102
RTVSPropertyOp33
 70
     1
102
RTVSPropertyOp34
 70
     1
102
RTVSPropertyOp35
 70
     1
102
RTVSPropertyOp36
 70
     1
102
RTVSPropertyOp37
 70
     1
102
RTVSPropertyOp38
 70
     1
102
RTVSPropertyOp39
 70
     1
102
RTVSPropertyOp40
 70
     1
102
RTVSPropertyOp41
 70
     1
102
RTVSPropertyOp42
 70
     1
102
RTVSPropertyOp43
 70
     1
102
RTVSPropertyOp44
 70
     1
102
RTVSPropertyOp45
 70
     1
102
RTVSPropertyOp46
 70
     1
102
RTVSPropertyOp47
 70
     1
102
RTVSPropertyOp48
 70
     1
102
RTVSPropertyOp49
 70
     1
102
RTVSPropertyOp50
 70
     1
102
RTVSPropertyOp51
 70
     0
102
RTVSPropertyOp52
 70
     0
102
RTVSPropertyOp53
 70
     1
102
RTVSPropertyOp54
 70
     1
102
RTVSPropertyOp55
 70
     1
102
RTVSPropertyOp56
 70
     1
102
RTVSPropertyOp57
 70
     1
102
RTVSPost2010Prop28
280
     0
102
RTVSPost2010PropOp28
 70
     1
102
RTVSPost2010Prop29
280
     1
102
RTVSPost2010PropOp29
 70
     1
102
RTVSPost2010Prop30
280
     1
102
RTVSPost2010PropOp30
 70
     1
102
RTVSPost2010Prop31
280
     0
102
RTVSPost2010PropOp31
 70
     1
102
RTVSPost2010Prop32
280
     0
102
RTVSPost2010PropOp32
 70
     1
102
RTVSPost2010Prop33
280
     0
102
RTVSPost2010PropOp33
 70
     1
102
RTVSPost2010Prop34
280
     0
102
RTVSPost2010PropOp34
 70
     1
102
RTVSPost2010Prop35
280
     0
102
RTVSPost2010PropOp35
 70
     1
102
RTVSPost2010Prop36
280
     0
102
RTVSPost2010PropOp36
 70
     1
102
RTVSPost2010Prop37
 90
       50
102
RTVSPost2010PropOp37
 70
     1
102
RTVSPost2010Prop38
140
0.0
102
RTVSPost2010PropOp38
 70
     1
102
RTVSPost2010Prop39
140
1.0
102
RTVSPost2010PropOp39
 70
     1
102
RTVSPost2010Prop40
 90
        0
102
RTVSPost2010PropOp40
 70
     1
102
RTVSPost2010Prop41ColorIndex
 90
       18
102
RTVSPost2010Prop41ColorRGB
 90
        0
102
RTVSPost2010PropOp41
 70
     1
102
RTVSPost2010Prop42
 90
       50
102
RTVSPost2010PropOp42
 70
     1
102
RTVSPost2010Prop43
 90
        3
102
RTVSPost2010PropOp43
 70
     1
102
RTVSPost2010Prop44ColorIndex
 90
        5
102
RTVSPost2010Prop44ColorRGB
 90
      255
102
RTVSPost2010PropOp44
 70
     1
102
RTVSPost2010Prop45
280
     0
102
RTVSPost2010PropOp45
 70
     1
102
RTVSPost2010Prop46
 90
       50
102
RTVSPost2010PropOp46
 70
     1
102
RTVSPost2010Prop47
 90
       50
102
RTVSPost2010PropOp47
 70
     1
102
RTVSPost2010Prop48
 90
       50
102
RTVSPost2010PropOp48
 70
     1
102
RTVSPost2010Prop49
280
     0
102
RTVSPost2010PropOp49
 70
     1
102
RTVSPost2010Prop50
 90
       50
102
RTVSPost2010PropOp50
 70
     1
102
RTVSPost2010Prop51ColorIndex
 90
      256
102
RTVSPost2010Prop51ColorRGB
 90
-16777216
102
RTVSPost2010PropOp51
 70
     0
102
RTVSPost2010Prop52
140
1.0
102
RTVSPost2010PropOp52
 70
     0
102
RTVSPost2010Prop53
 90
        2
102
RTVSPost2010PropOp53
 70
     1
102
RTVSPost2010Prop54
  1
strokes_ogs.tif
102
RTVSPost2010PropOp54
 70
     1
102
RTVSPost2010Prop55
280
     0
102
RTVSPost2010PropOp55
 70
     1
102
RTVSPost2010Prop56
140
1.0
102
RTVSPost2010PropOp56
 70
     1
102
RTVSPost2010Prop57
140
1.0
102
RTVSPost2010PropOp57
 70
     1
  0
XRECORD
  5
255
102
{ACAD_REACTORS
330
254
102
}
330
254
100
AcDbXrecord
280
     1
102
RTVSPropertyOp0
 70
     1
102
RTVSPropertyOp1
 70
     1
102
RTVSPropertyOp2
 70
     1
102
RTVSPropertyOp3
 70
     1
102
RTVSPropertyOp4
 70
     1
102
RTVSPropertyOp5
 70
     1
102
RTVSPropertyOp6
 70
     1
102
RTVSPropertyOp7
 70
     1
102
RTVSPropertyOp8
 70
     1
102
RTVSPropertyOp9
 70
     1
102
RTVSPropertyOp10
 70
     1
102
RTVSPropertyOp11
 70
     1
102
RTVSPropertyOp12
 70
     1
102
RTVSPropertyOp13
 70
     1
102
RTVSPropertyOp14
 70
     1
102
RTVSPropertyOp15
 70
     1
102
RTVSPropertyOp16
 70
     1
102
RTVSPropertyOp17
 70
     1
102
RTVSPropertyOp18
 70
     1
102
RTVSPropertyOp19
 70
     1
102
RTVSPropertyOp20
 70
     1
102
RTVSPropertyOp21
 70
     1
102
RTVSPropertyOp22
 70
     1
102
RTVSPropertyOp23
 70
     1
102
RTVSPropertyOp24
 70
     1
102
RTVSPropertyOp25
 70
     1
102
RTVSPropertyOp26
 70
     1
102
RTVSPropertyOp27
 70
     1
102
RTVSPropertyOp28
 70
     1
102
RTVSPropertyOp29
 70
     1
102
RTVSPropertyOp30
 70
     1
102
RTVSPropertyOp31
 70
     1
102
RTVSPropertyOp32
 70
     1
102
RTVSPropertyOp33
 70
     1
102
RTVSPropertyOp34
 70
     1
102
RTVSPropertyOp35
 70
     1
102
RTVSPropertyOp36
 70
     1
102
RTVSPropertyOp37
 70
     1
102
RTVSPropertyOp38
 70
     1
102
RTVSPropertyOp39
 70
     1
102
RTVSPropertyOp40
 70
     1
102
RTVSPropertyOp41
 70
     1
102
RTVSPropertyOp42
 70
     1
102
RTVSPropertyOp43
 70
     1
102
RTVSPropertyOp44
 70
     1
102
RTVSPropertyOp45
 70
     1
102
RTVSPropertyOp46
 70
     1
102
RTVSPropertyOp47
 70
     1
102
RTVSPropertyOp48
 70
     1
102
RTVSPropertyOp49
 70
     1
102
RTVSPropertyOp50
 70
     1
102
RTVSPropertyOp51
 70
     0
102
RTVSPropertyOp52
 70
     0
102
RTVSPropertyOp53
 70
     1
102
RTVSPropertyOp54
 70
     1
102
RTVSPropertyOp55
 70
     1
102
RTVSPropertyOp56
 70
     1
102
RTVSPropertyOp57
 70
     1
102
RTVSPost2010Prop28
280
     0
102
RTVSPost2010PropOp28
 70
     1
102
RTVSPost2010Prop29
280
     1
102
RTVSPost2010PropOp29
 70
     1
102
RTVSPost2010Prop30
280
     1
102
RTVSPost2010PropOp30
 70
     1
102
RTVSPost2010Prop31
280
     0
102
RTVSPost2010PropOp31
 70
     1
102
RTVSPost2010Prop32
280
     0
102
RTVSPost2010PropOp32
 70
     1
102
RTVSPost2010Prop33
280
     0
102
RTVSPost2010PropOp33
 70
     1
102
RTVSPost2010Prop34
280
     0
102
RTVSPost2010PropOp34
 70
     1
102
RTVSPost2010Prop35
280
     0
102
RTVSPost2010PropOp35
 70
     1
102
RTVSPost2010Prop36
280
     0
102
RTVSPost2010PropOp36
 70
     1
102
RTVSPost2010Prop37
 90
       50
102
RTVSPost2010PropOp37
 70
     1
102
RTVSPost2010Prop38
140
0.0
102
RTVSPost2010PropOp38
 70
     1
102
RTVSPost2010Prop39
140
1.0
102
RTVSPost2010PropOp39
 70
     1
102
RTVSPost2010Prop40
 90
        0
102
RTVSPost2010PropOp40
 70
     1
102
RTVSPost2010Prop41ColorIndex
 90
       18
102
RTVSPost2010Prop41ColorRGB
 90
        0
102
RTVSPost2010PropOp41
 70
     1
102
RTVSPost2010Prop42
 90
       50
102
RTVSPost2010PropOp42
 70
     1
102
RTVSPost2010Prop43
 90
        3
102
RTVSPost2010PropOp43
 70
     1
102
RTVSPost2010Prop44ColorIndex
 90
        5
102
RTVSPost2010Prop44ColorRGB
 90
      255
102
RTVSPost2010PropOp44
 70
     1
102
RTVSPost2010Prop45
280
     0
102
RTVSPost2010PropOp45
 70
     1
102
RTVSPost2010Prop46
 90
       50
102
RTVSPost2010PropOp46
 70
     1
102
RTVSPost2010Prop47
 90
       50
102
RTVSPost2010PropOp47
 70
     1
102
RTVSPost2010Prop48
 90
       50
102
RTVSPost2010PropOp48
 70
     1
102
RTVSPost2010Prop49
280
     0
102
RTVSPost2010PropOp49
 70
     1
102
RTVSPost2010Prop50
 90
       50
102
RTVSPost2010PropOp50
 70
     1
102
RTVSPost2010Prop51ColorIndex
 90
      256
102
RTVSPost2010Prop51ColorRGB
 90
-16777216
102
RTVSPost2010PropOp51
 70
     0
102
RTVSPost2010Prop52
140
1.0
102
RTVSPost2010PropOp52
 70
     0
102
RTVSPost2010Prop53
 90
        2
102
RTVSPost2010PropOp53
 70
     1
102
RTVSPost2010Prop54
  1
strokes_ogs.tif
102
RTVSPost2010PropOp54
 70
     1
102
RTVSPost2010Prop55
280
     0
102
RTVSPost2010PropOp55
 70
     1
102
RTVSPost2010Prop56
140
1.0
102
RTVSPost2010PropOp56
 70
     1
102
RTVSPost2010Prop57
140
1.0
102
RTVSPost2010PropOp57
 70
     1
  0
XRECORD
  5
253
102
{ACAD_REACTORS
330
252
102
}
330
252
100
AcDbXrecord
280
     1
102
RTVSPropertyOp0
 70
     1
102
RTVSPropertyOp1
 70
     1
102
RTVSPropertyOp2
 70
     1
102
RTVSPropertyOp3
 70
     1
102
RTVSPropertyOp4
 70
     1
102
RTVSPropertyOp5
 70
     1
102
RTVSPropertyOp6
 70
     1
102
RTVSPropertyOp7
 70
     1
102
RTVSPropertyOp8
 70
     1
102
RTVSPropertyOp9
 70
     1
102
RTVSPropertyOp10
 70
     1
102
RTVSPropertyOp11
 70
     1
102
RTVSPropertyOp12
 70
     1
102
RTVSPropertyOp13
 70
     1
102
RTVSPropertyOp14
 70
     1
102
RTVSPropertyOp15
 70
     1
102
RTVSPropertyOp16
 70
     1
102
RTVSPropertyOp17
 70
     1
102
RTVSPropertyOp18
 70
     1
102
RTVSPropertyOp19
 70
     1
102
RTVSPropertyOp20
 70
     1
102
RTVSPropertyOp21
 70
     1
102
RTVSPropertyOp22
 70
     1
102
RTVSPropertyOp23
 70
     1
102
RTVSPropertyOp24
 70
     1
102
RTVSPropertyOp25
 70
     1
102
RTVSPropertyOp26
 70
     1
102
RTVSPropertyOp27
 70
     1
102
RTVSPropertyOp28
 70
     1
102
RTVSPropertyOp29
 70
     1
102
RTVSPropertyOp30
 70
     1
102
RTVSPropertyOp31
 70
     1
102
RTVSPropertyOp32
 70
     1
102
RTVSPropertyOp33
 70
     1
102
RTVSPropertyOp34
 70
     1
102
RTVSPropertyOp35
 70
     1
102
RTVSPropertyOp36
 70
     1
102
RTVSPropertyOp37
 70
     1
102
RTVSPropertyOp38
 70
     1
102
RTVSPropertyOp39
 70
     1
102
RTVSPropertyOp40
 70
     1
102
RTVSPropertyOp41
 70
     1
102
RTVSPropertyOp42
 70
     1
102
RTVSPropertyOp43
 70
     1
102
RTVSPropertyOp44
 70
     1
102
RTVSPropertyOp45
 70
     1
102
RTVSPropertyOp46
 70
     1
102
RTVSPropertyOp47
 70
     1
102
RTVSPropertyOp48
 70
     1
102
RTVSPropertyOp49
 70
     1
102
RTVSPropertyOp50
 70
     1
102
RTVSPropertyOp51
 70
     0
102
RTVSPropertyOp52
 70
     0
102
RTVSPropertyOp53
 70
     1
102
RTVSPropertyOp54
 70
     1
102
RTVSPropertyOp55
 70
     1
102
RTVSPropertyOp56
 70
     1
102
RTVSPropertyOp57
 70
     1
102
RTVSPost2010Prop28
280
     0
102
RTVSPost2010PropOp28
 70
     1
102
RTVSPost2010Prop29
280
     1
102
RTVSPost2010PropOp29
 70
     1
102
RTVSPost2010Prop30
280
     1
102
RTVSPost2010PropOp30
 70
     1
102
RTVSPost2010Prop31
280
     0
102
RTVSPost2010PropOp31
 70
     1
102
RTVSPost2010Prop32
280
     0
102
RTVSPost2010PropOp32
 70
     1
102
RTVSPost2010Prop33
280
     0
102
RTVSPost2010PropOp33
 70
     1
102
RTVSPost2010Prop34
280
     0
102
RTVSPost2010PropOp34
 70
     1
102
RTVSPost2010Prop35
280
     0
102
RTVSPost2010PropOp35
 70
     1
102
RTVSPost2010Prop36
280
     0
102
RTVSPost2010PropOp36
 70
     1
102
RTVSPost2010Prop37
 90
       50
102
RTVSPost2010PropOp37
 70
     1
102
RTVSPost2010Prop38
140
0.0
102
RTVSPost2010PropOp38
 70
     1
102
RTVSPost2010Prop39
140
1.0
102
RTVSPost2010PropOp39
 70
     1
102
RTVSPost2010Prop40
 90
        0
102
RTVSPost2010PropOp40
 70
     1
102
RTVSPost2010Prop41ColorIndex
 90
       18
102
RTVSPost2010Prop41ColorRGB
 90
        0
102
RTVSPost2010PropOp41
 70
     1
102
RTVSPost2010Prop42
 90
       50
102
RTVSPost2010PropOp42
 70
     1
102
RTVSPost2010Prop43
 90
        3
102
RTVSPost2010PropOp43
 70
     1
102
RTVSPost2010Prop44ColorIndex
 90
        5
102
RTVSPost2010Prop44ColorRGB
 90
      255
102
RTVSPost2010PropOp44
 70
     1
102
RTVSPost2010Prop45
280
     0
102
RTVSPost2010PropOp45
 70
     1
102
RTVSPost2010Prop46
 90
       50
102
RTVSPost2010PropOp46
 70
     1
102
RTVSPost2010Prop47
 90
       50
102
RTVSPost2010PropOp47
 70
     1
102
RTVSPost2010Prop48
 90
       50
102
RTVSPost2010PropOp48
 70
     1
102
RTVSPost2010Prop49
280
     0
102
RTVSPost2010PropOp49
 70
     1
102
RTVSPost2010Prop50
 90
       50
102
RTVSPost2010PropOp50
 70
     1
102
RTVSPost2010Prop51ColorIndex
 90
      256
102
RTVSPost2010Prop51ColorRGB
 90
-16777216
102
RTVSPost2010PropOp51
 70
     0
102
RTVSPost2010Prop52
140
1.0
102
RTVSPost2010PropOp52
 70
     0
102
RTVSPost2010Prop53
 90
        2
102
RTVSPost2010PropOp53
 70
     1
102
RTVSPost2010Prop54
  1
strokes_ogs.tif
102
RTVSPost2010PropOp54
 70
     1
102
RTVSPost2010Prop55
280
     0
102
RTVSPost2010PropOp55
 70
     1
102
RTVSPost2010Prop56
140
1.0
102
RTVSPost2010PropOp56
 70
     1
102
RTVSPost2010Prop57
140
1.0
102
RTVSPost2010PropOp57
 70
     1
  0
XRECORD
  5
24D
102
{ACAD_REACTORS
330
24C
102
}
330
24C
100
AcDbXrecord
280
     1
102
RTVSPropertyOp0
 70
     1
102
RTVSPropertyOp1
 70
     1
102
RTVSPropertyOp2
 70
     1
102
RTVSPropertyOp3
 70
     1
102
RTVSPropertyOp4
 70
     1
102
RTVSPropertyOp5
 70
     1
102
RTVSPropertyOp6
 70
     1
102
RTVSPropertyOp7
 70
     1
102
RTVSPropertyOp8
 70
     1
102
RTVSPropertyOp9
 70
     1
102
RTVSPropertyOp10
 70
     1
102
RTVSPropertyOp11
 70
     1
102
RTVSPropertyOp12
 70
     1
102
RTVSPropertyOp13
 70
     1
102
RTVSPropertyOp14
 70
     1
102
RTVSPropertyOp15
 70
     1
102
RTVSPropertyOp16
 70
     1
102
RTVSPropertyOp17
 70
     1
102
RTVSPropertyOp18
 70
     1
102
RTVSPropertyOp19
 70
     1
102
RTVSPropertyOp20
 70
     1
102
RTVSPropertyOp21
 70
     1
102
RTVSPropertyOp22
 70
     1
102
RTVSPropertyOp23
 70
     1
102
RTVSPropertyOp24
 70
     1
102
RTVSPropertyOp25
 70
     1
102
RTVSPropertyOp26
 70
     1
102
RTVSPropertyOp27
 70
     1
102
RTVSPropertyOp28
 70
     1
102
RTVSPropertyOp29
 70
     1
102
RTVSPropertyOp30
 70
     1
102
RTVSPropertyOp31
 70
     1
102
RTVSPropertyOp32
 70
     1
102
RTVSPropertyOp33
 70
     1
102
RTVSPropertyOp34
 70
     1
102
RTVSPropertyOp35
 70
     1
102
RTVSPropertyOp36
 70
     1
102
RTVSPropertyOp37
 70
     1
102
RTVSPropertyOp38
 70
     1
102
RTVSPropertyOp39
 70
     1
102
RTVSPropertyOp40
 70
     1
102
RTVSPropertyOp41
 70
     1
102
RTVSPropertyOp42
 70
     1
102
RTVSPropertyOp43
 70
     1
102
RTVSPropertyOp44
 70
     1
102
RTVSPropertyOp45
 70
     1
102
RTVSPropertyOp46
 70
     1
102
RTVSPropertyOp47
 70
     1
102
RTVSPropertyOp48
 70
     1
102
RTVSPropertyOp49
 70
     1
102
RTVSPropertyOp50
 70
     1
102
RTVSPropertyOp51
 70
     0
102
RTVSPropertyOp52
 70
     0
102
RTVSPropertyOp53
 70
     1
102
RTVSPropertyOp54
 70
     1
102
RTVSPropertyOp55
 70
     1
102
RTVSPropertyOp56
 70
     1
102
RTVSPropertyOp57
 70
     1
102
RTVSPost2010Prop28
280
     0
102
RTVSPost2010PropOp28
 70
     1
102
RTVSPost2010Prop29
280
     1
102
RTVSPost2010PropOp29
 70
     1
102
RTVSPost2010Prop30
280
     1
102
RTVSPost2010PropOp30
 70
     1
102
RTVSPost2010Prop31
280
     0
102
RTVSPost2010PropOp31
 70
     1
102
RTVSPost2010Prop32
280
     0
102
RTVSPost2010PropOp32
 70
     1
102
RTVSPost2010Prop33
280
     0
102
RTVSPost2010PropOp33
 70
     1
102
RTVSPost2010Prop34
280
     0
102
RTVSPost2010PropOp34
 70
     1
102
RTVSPost2010Prop35
280
     0
102
RTVSPost2010PropOp35
 70
     1
102
RTVSPost2010Prop36
280
     0
102
RTVSPost2010PropOp36
 70
     1
102
RTVSPost2010Prop37
 90
       50
102
RTVSPost2010PropOp37
 70
     1
102
RTVSPost2010Prop38
140
0.0
102
RTVSPost2010PropOp38
 70
     1
102
RTVSPost2010Prop39
140
1.0
102
RTVSPost2010PropOp39
 70
     1
102
RTVSPost2010Prop40
 90
        0
102
RTVSPost2010PropOp40
 70
     1
102
RTVSPost2010Prop41ColorIndex
 90
       18
102
RTVSPost2010Prop41ColorRGB
 90
        0
102
RTVSPost2010PropOp41
 70
     1
102
RTVSPost2010Prop42
 90
       50
102
RTVSPost2010PropOp42
 70
     1
102
RTVSPost2010Prop43
 90
        3
102
RTVSPost2010PropOp43
 70
     1
102
RTVSPost2010Prop44ColorIndex
 90
        5
102
RTVSPost2010Prop44ColorRGB
 90
      255
102
RTVSPost2010PropOp44
 70
     1
102
RTVSPost2010Prop45
280
     0
102
RTVSPost2010PropOp45
 70
     1
102
RTVSPost2010Prop46
 90
       50
102
RTVSPost2010PropOp46
 70
     1
102
RTVSPost2010Prop47
 90
       50
102
RTVSPost2010PropOp47
 70
     1
102
RTVSPost2010Prop48
 90
       50
102
RTVSPost2010PropOp48
 70
     1
102
RTVSPost2010Prop49
280
     0
102
RTVSPost2010PropOp49
 70
     1
102
RTVSPost2010Prop50
 90
       50
102
RTVSPost2010PropOp50
 70
     1
102
RTVSPost2010Prop51ColorIndex
 90
      256
102
RTVSPost2010Prop51ColorRGB
 90
-16777216
102
RTVSPost2010PropOp51
 70
     0
102
RTVSPost2010Prop52
140
1.0
102
RTVSPost2010PropOp52
 70
     0
102
RTVSPost2010Prop53
 90
        2
102
RTVSPost2010PropOp53
 70
     1
102
RTVSPost2010Prop54
  1
strokes_ogs.tif
102
RTVSPost2010PropOp54
 70
     1
102
RTVSPost2010Prop55
280
     0
102
RTVSPost2010PropOp55
 70
     1
102
RTVSPost2010Prop56
140
1.0
102
RTVSPost2010PropOp56
 70
     1
102
RTVSPost2010Prop57
140
1.0
102
RTVSPost2010PropOp57
 70
     1
  0
XRECORD
  5
24F
102
{ACAD_REACTORS
330
24E
102
}
330
24E
100
AcDbXrecord
280
     1
102
RTVSPropertyOp0
 70
     1
102
RTVSPropertyOp1
 70
     1
102
RTVSPropertyOp2
 70
     1
102
RTVSPropertyOp3
 70
     1
102
RTVSPropertyOp4
 70
     1
102
RTVSPropertyOp5
 70
     1
102
RTVSPropertyOp6
 70
     1
102
RTVSPropertyOp7
 70
     1
102
RTVSPropertyOp8
 70
     1
102
RTVSPropertyOp9
 70
     1
102
RTVSPropertyOp10
 70
     1
102
RTVSPropertyOp11
 70
     1
102
RTVSPropertyOp12
 70
     1
102
RTVSPropertyOp13
 70
     1
102
RTVSPropertyOp14
 70
     1
102
RTVSPropertyOp15
 70
     1
102
RTVSPropertyOp16
 70
     1
102
RTVSPropertyOp17
 70
     1
102
RTVSPropertyOp18
 70
     1
102
RTVSPropertyOp19
 70
     1
102
RTVSPropertyOp20
 70
     1
102
RTVSPropertyOp21
 70
     1
102
RTVSPropertyOp22
 70
     1
102
RTVSPropertyOp23
 70
     1
102
RTVSPropertyOp24
 70
     1
102
RTVSPropertyOp25
 70
     1
102
RTVSPropertyOp26
 70
     1
102
RTVSPropertyOp27
 70
     1
102
RTVSPropertyOp28
 70
     1
102
RTVSPropertyOp29
 70
     1
102
RTVSPropertyOp30
 70
     1
102
RTVSPropertyOp31
 70
     1
102
RTVSPropertyOp32
 70
     1
102
RTVSPropertyOp33
 70
     1
102
RTVSPropertyOp34
 70
     1
102
RTVSPropertyOp35
 70
     1
102
RTVSPropertyOp36
 70
     1
102
RTVSPropertyOp37
 70
     1
102
RTVSPropertyOp38
 70
     1
102
RTVSPropertyOp39
 70
     1
102
RTVSPropertyOp40
 70
     1
102
RTVSPropertyOp41
 70
     1
102
RTVSPropertyOp42
 70
     1
102
RTVSPropertyOp43
 70
     1
102
RTVSPropertyOp44
 70
     1
102
RTVSPropertyOp45
 70
     1
102
RTVSPropertyOp46
 70
     1
102
RTVSPropertyOp47
 70
     1
102
RTVSPropertyOp48
 70
     1
102
RTVSPropertyOp49
 70
     1
102
RTVSPropertyOp50
 70
     1
102
RTVSPropertyOp51
 70
     0
102
RTVSPropertyOp52
 70
     0
102
RTVSPropertyOp53
 70
     1
102
RTVSPropertyOp54
 70
     1
102
RTVSPropertyOp55
 70
     1
102
RTVSPropertyOp56
 70
     1
102
RTVSPropertyOp57
 70
     1
102
RTVSPost2010Prop28
280
     0
102
RTVSPost2010PropOp28
 70
     1
102
RTVSPost2010Prop29
280
     1
102
RTVSPost2010PropOp29
 70
     1
102
RTVSPost2010Prop30
280
     1
102
RTVSPost2010PropOp30
 70
     1
102
RTVSPost2010Prop31
280
     0
102
RTVSPost2010PropOp31
 70
     1
102
RTVSPost2010Prop32
280
     0
102
RTVSPost2010PropOp32
 70
     1
102
RTVSPost2010Prop33
280
     0
102
RTVSPost2010PropOp33
 70
     1
102
RTVSPost2010Prop34
280
     0
102
RTVSPost2010PropOp34
 70
     1
102
RTVSPost2010Prop35
280
     0
102
RTVSPost2010PropOp35
 70
     1
102
RTVSPost2010Prop36
280
     0
102
RTVSPost2010PropOp36
 70
     1
102
RTVSPost2010Prop37
 90
       50
102
RTVSPost2010PropOp37
 70
     1
102
RTVSPost2010Prop38
140
0.0
102
RTVSPost2010PropOp38
 70
     1
102
RTVSPost2010Prop39
140
1.0
102
RTVSPost2010PropOp39
 70
     1
102
RTVSPost2010Prop40
 90
        0
102
RTVSPost2010PropOp40
 70
     1
102
RTVSPost2010Prop41ColorIndex
 90
       18
102
RTVSPost2010Prop41ColorRGB
 90
        0
102
RTVSPost2010PropOp41
 70
     1
102
RTVSPost2010Prop42
 90
       50
102
RTVSPost2010PropOp42
 70
     1
102
RTVSPost2010Prop43
 90
        3
102
RTVSPost2010PropOp43
 70
     1
102
RTVSPost2010Prop44ColorIndex
 90
        5
102
RTVSPost2010Prop44ColorRGB
 90
      255
102
RTVSPost2010PropOp44
 70
     1
102
RTVSPost2010Prop45
280
     0
102
RTVSPost2010PropOp45
 70
     1
102
RTVSPost2010Prop46
 90
       50
102
RTVSPost2010PropOp46
 70
     1
102
RTVSPost2010Prop47
 90
       50
102
RTVSPost2010PropOp47
 70
     1
102
RTVSPost2010Prop48
 90
       50
102
RTVSPost2010PropOp48
 70
     1
102
RTVSPost2010Prop49
280
     0
102
RTVSPost2010PropOp49
 70
     1
102
RTVSPost2010Prop50
 90
       50
102
RTVSPost2010PropOp50
 70
     1
102
RTVSPost2010Prop51ColorIndex
 90
      256
102
RTVSPost2010Prop51ColorRGB
 90
-16777216
102
RTVSPost2010PropOp51
 70
     0
102
RTVSPost2010Prop52
140
1.0
102
RTVSPost2010PropOp52
 70
     0
102
RTVSPost2010Prop53
 90
        2
102
RTVSPost2010PropOp53
 70
     1
102
RTVSPost2010Prop54
  1
strokes_ogs.tif
102
RTVSPost2010PropOp54
 70
     1
102
RTVSPost2010Prop55
280
     0
102
RTVSPost2010PropOp55
 70
     1
102
RTVSPost2010Prop56
140
1.0
102
RTVSPost2010PropOp56
 70
     1
102
RTVSPost2010Prop57
140
1.0
102
RTVSPost2010PropOp57
 70
     1
  0
XRECORD
  5
23F
102
{ACAD_REACTORS
330
23E
102
}
330
23E
100
AcDbXrecord
280
     1
102
RTVSPropertyOp0
 70
     1
102
RTVSPropertyOp1
 70
     1
102
RTVSPropertyOp2
 70
     1
102
RTVSPropertyOp3
 70
     1
102
RTVSPropertyOp4
 70
     1
102
RTVSPropertyOp5
 70
     1
102
RTVSPropertyOp6
 70
     1
102
RTVSPropertyOp7
 70
     1
102
RTVSPropertyOp8
 70
     1
102
RTVSPropertyOp9
 70
     1
102
RTVSPropertyOp10
 70
     1
102
RTVSPropertyOp11
 70
     1
102
RTVSPropertyOp12
 70
     1
102
RTVSPropertyOp13
 70
     1
102
RTVSPropertyOp14
 70
     1
102
RTVSPropertyOp15
 70
     1
102
RTVSPropertyOp16
 70
     1
102
RTVSPropertyOp17
 70
     1
102
RTVSPropertyOp18
 70
     1
102
RTVSPropertyOp19
 70
     1
102
RTVSPropertyOp20
 70
     1
102
RTVSPropertyOp21
 70
     1
102
RTVSPropertyOp22
 70
     1
102
RTVSPropertyOp23
 70
     1
102
RTVSPropertyOp24
 70
     1
102
RTVSPropertyOp25
 70
     1
102
RTVSPropertyOp26
 70
     1
102
RTVSPropertyOp27
 70
     1
102
RTVSPropertyOp28
 70
     1
102
RTVSPropertyOp29
 70
     1
102
RTVSPropertyOp30
 70
     1
102
RTVSPropertyOp31
 70
     1
102
RTVSPropertyOp32
 70
     1
102
RTVSPropertyOp33
 70
     1
102
RTVSPropertyOp34
 70
     1
102
RTVSPropertyOp35
 70
     1
102
RTVSPropertyOp36
 70
     1
102
RTVSPropertyOp37
 70
     1
102
RTVSPropertyOp38
 70
     1
102
RTVSPropertyOp39
 70
     1
102
RTVSPropertyOp40
 70
     1
102
RTVSPropertyOp41
 70
     1
102
RTVSPropertyOp42
 70
     1
102
RTVSPropertyOp43
 70
     1
102
RTVSPropertyOp44
 70
     1
102
RTVSPropertyOp45
 70
     1
102
RTVSPropertyOp46
 70
     1
102
RTVSPropertyOp47
 70
     1
102
RTVSPropertyOp48
 70
     1
102
RTVSPropertyOp49
 70
     1
102
RTVSPropertyOp50
 70
     1
102
RTVSPropertyOp51
 70
     0
102
RTVSPropertyOp52
 70
     0
102
RTVSPropertyOp53
 70
     1
102
RTVSPropertyOp54
 70
     1
102
RTVSPropertyOp55
 70
     1
102
RTVSPropertyOp56
 70
     1
102
RTVSPropertyOp57
 70
     1
102
RTVSPost2010Prop28
280
     0
102
RTVSPost2010PropOp28
 70
     1
102
RTVSPost2010Prop29
280
     1
102
RTVSPost2010PropOp29
 70
     1
102
RTVSPost2010Prop30
280
     1
102
RTVSPost2010PropOp30
 70
     1
102
RTVSPost2010Prop31
280
     0
102
RTVSPost2010PropOp31
 70
     1
102
RTVSPost2010Prop32
280
     0
102
RTVSPost2010PropOp32
 70
     1
102
RTVSPost2010Prop33
280
     0
102
RTVSPost2010PropOp33
 70
     1
102
RTVSPost2010Prop34
280
     0
102
RTVSPost2010PropOp34
 70
     1
102
RTVSPost2010Prop35
280
     0
102
RTVSPost2010PropOp35
 70
     1
102
RTVSPost2010Prop36
280
     0
102
RTVSPost2010PropOp36
 70
     1
102
RTVSPost2010Prop37
 90
       50
102
RTVSPost2010PropOp37
 70
     1
102
RTVSPost2010Prop38
140
0.0
102
RTVSPost2010PropOp38
 70
     1
102
RTVSPost2010Prop39
140
1.0
102
RTVSPost2010PropOp39
 70
     1
102
RTVSPost2010Prop40
 90
        0
102
RTVSPost2010PropOp40
 70
     1
102
RTVSPost2010Prop41ColorIndex
 90
       18
102
RTVSPost2010Prop41ColorRGB
 90
        0
102
RTVSPost2010PropOp41
 70
     1
102
RTVSPost2010Prop42
 90
       50
102
RTVSPost2010PropOp42
 70
     1
102
RTVSPost2010Prop43
 90
        3
102
RTVSPost2010PropOp43
 70
     1
102
RTVSPost2010Prop44ColorIndex
 90
        5
102
RTVSPost2010Prop44ColorRGB
 90
      255
102
RTVSPost2010PropOp44
 70
     1
102
RTVSPost2010Prop45
280
     0
102
RTVSPost2010PropOp45
 70
     1
102
RTVSPost2010Prop46
 90
       50
102
RTVSPost2010PropOp46
 70
     1
102
RTVSPost2010Prop47
 90
       50
102
RTVSPost2010PropOp47
 70
     1
102
RTVSPost2010Prop48
 90
       50
102
RTVSPost2010PropOp48
 70
     1
102
RTVSPost2010Prop49
280
     0
102
RTVSPost2010PropOp49
 70
     1
102
RTVSPost2010Prop50
 90
       50
102
RTVSPost2010PropOp50
 70
     1
102
RTVSPost2010Prop51ColorIndex
 90
      256
102
RTVSPost2010Prop51ColorRGB
 90
-16777216
102
RTVSPost2010PropOp51
 70
     0
102
RTVSPost2010Prop52
140
1.0
102
RTVSPost2010PropOp52
 70
     0
102
RTVSPost2010Prop53
 90
        2
102
RTVSPost2010PropOp53
 70
     1
102
RTVSPost2010Prop54
  1
strokes_ogs.tif
102
RTVSPost2010PropOp54
 70
     1
102
RTVSPost2010Prop55
280
     0
102
RTVSPost2010PropOp55
 70
     1
102
RTVSPost2010Prop56
140
1.0
102
RTVSPost2010PropOp56
 70
     1
102
RTVSPost2010Prop57
140
1.0
102
RTVSPost2010PropOp57
 70
     1
  0
XRECORD
  5
231
102
{ACAD_REACTORS
330
230
102
}
330
230
100
AcDbXrecord
280
     1
102
RTVSPropertyOp0
 70
     1
102
RTVSPropertyOp1
 70
     1
102
RTVSPropertyOp2
 70
     1
102
RTVSPropertyOp3
 70
     1
102
RTVSPropertyOp4
 70
     1
102
RTVSPropertyOp5
 70
     1
102
RTVSPropertyOp6
 70
     1
102
RTVSPropertyOp7
 70
     1
102
RTVSPropertyOp8
 70
     1
102
RTVSPropertyOp9
 70
     1
102
RTVSPropertyOp10
 70
     1
102
RTVSPropertyOp11
 70
     1
102
RTVSPropertyOp12
 70
     1
102
RTVSPropertyOp13
 70
     1
102
RTVSPropertyOp14
 70
     1
102
RTVSPropertyOp15
 70
     1
102
RTVSPropertyOp16
 70
     1
102
RTVSPropertyOp17
 70
     1
102
RTVSPropertyOp18
 70
     1
102
RTVSPropertyOp19
 70
     1
102
RTVSPropertyOp20
 70
     1
102
RTVSPropertyOp21
 70
     1
102
RTVSPropertyOp22
 70
     1
102
RTVSPropertyOp23
 70
     1
102
RTVSPropertyOp24
 70
     1
102
RTVSPropertyOp25
 70
     1
102
RTVSPropertyOp26
 70
     1
102
RTVSPropertyOp27
 70
     1
102
RTVSPropertyOp28
 70
     1
102
RTVSPropertyOp29
 70
     1
102
RTVSPropertyOp30
 70
     1
102
RTVSPropertyOp31
 70
     1
102
RTVSPropertyOp32
 70
     1
102
RTVSPropertyOp33
 70
     1
102
RTVSPropertyOp34
 70
     1
102
RTVSPropertyOp35
 70
     1
102
RTVSPropertyOp36
 70
     1
102
RTVSPropertyOp37
 70
     1
102
RTVSPropertyOp38
 70
     1
102
RTVSPropertyOp39
 70
     1
102
RTVSPropertyOp40
 70
     1
102
RTVSPropertyOp41
 70
     1
102
RTVSPropertyOp42
 70
     1
102
RTVSPropertyOp43
 70
     1
102
RTVSPropertyOp44
 70
     1
102
RTVSPropertyOp45
 70
     1
102
RTVSPropertyOp46
 70
     1
102
RTVSPropertyOp47
 70
     1
102
RTVSPropertyOp48
 70
     1
102
RTVSPropertyOp49
 70
     1
102
RTVSPropertyOp50
 70
     1
102
RTVSPropertyOp51
 70
     0
102
RTVSPropertyOp52
 70
     0
102
RTVSPropertyOp53
 70
     1
102
RTVSPropertyOp54
 70
     1
102
RTVSPropertyOp55
 70
     1
102
RTVSPropertyOp56
 70
     1
102
RTVSPropertyOp57
 70
     1
102
RTVSPost2010Prop28
280
     0
102
RTVSPost2010PropOp28
 70
     1
102
RTVSPost2010Prop29
280
     1
102
RTVSPost2010PropOp29
 70
     1
102
RTVSPost2010Prop30
280
     1
102
RTVSPost2010PropOp30
 70
     1
102
RTVSPost2010Prop31
280
     0
102
RTVSPost2010PropOp31
 70
     1
102
RTVSPost2010Prop32
280
     0
102
RTVSPost2010PropOp32
 70
     1
102
RTVSPost2010Prop33
280
     0
102
RTVSPost2010PropOp33
 70
     1
102
RTVSPost2010Prop34
280
     0
102
RTVSPost2010PropOp34
 70
     1
102
RTVSPost2010Prop35
280
     0
102
RTVSPost2010PropOp35
 70
     1
102
RTVSPost2010Prop36
280
     0
102
RTVSPost2010PropOp36
 70
     1
102
RTVSPost2010Prop37
 90
       50
102
RTVSPost2010PropOp37
 70
     1
102
RTVSPost2010Prop38
140
0.0
102
RTVSPost2010PropOp38
 70
     1
102
RTVSPost2010Prop39
140
1.0
102
RTVSPost2010PropOp39
 70
     1
102
RTVSPost2010Prop40
 90
        0
102
RTVSPost2010PropOp40
 70
     1
102
RTVSPost2010Prop41ColorIndex
 90
       18
102
RTVSPost2010Prop41ColorRGB
 90
        0
102
RTVSPost2010PropOp41
 70
     1
102
RTVSPost2010Prop42
 90
       50
102
RTVSPost2010PropOp42
 70
     1
102
RTVSPost2010Prop43
 90
        3
102
RTVSPost2010PropOp43
 70
     1
102
RTVSPost2010Prop44ColorIndex
 90
        5
102
RTVSPost2010Prop44ColorRGB
 90
      255
102
RTVSPost2010PropOp44
 70
     1
102
RTVSPost2010Prop45
280
     0
102
RTVSPost2010PropOp45
 70
     1
102
RTVSPost2010Prop46
 90
       50
102
RTVSPost2010PropOp46
 70
     1
102
RTVSPost2010Prop47
 90
       50
102
RTVSPost2010PropOp47
 70
     1
102
RTVSPost2010Prop48
 90
       50
102
RTVSPost2010PropOp48
 70
     1
102
RTVSPost2010Prop49
280
     0
102
RTVSPost2010PropOp49
 70
     1
102
RTVSPost2010Prop50
 90
       50
102
RTVSPost2010PropOp50
 70
     1
102
RTVSPost2010Prop51ColorIndex
 90
      256
102
RTVSPost2010Prop51ColorRGB
 90
-16777216
102
RTVSPost2010PropOp51
 70
     0
102
RTVSPost2010Prop52
140
1.0
102
RTVSPost2010PropOp52
 70
     0
102
RTVSPost2010Prop53
 90
        2
102
RTVSPost2010PropOp53
 70
     1
102
RTVSPost2010Prop54
  1
strokes_ogs.tif
102
RTVSPost2010PropOp54
 70
     1
102
RTVSPost2010Prop55
280
     0
102
RTVSPost2010PropOp55
 70
     1
102
RTVSPost2010Prop56
140
1.0
102
RTVSPost2010PropOp56
 70
     1
102
RTVSPost2010Prop57
140
1.0
102
RTVSPost2010PropOp57
 70
     1
  0
XRECORD
  5
251
102
{ACAD_REACTORS
330
250
102
}
330
250
100
AcDbXrecord
280
     1
102
RTVSPropertyOp0
 70
     1
102
RTVSPropertyOp1
 70
     1
102
RTVSPropertyOp2
 70
     1
102
RTVSPropertyOp3
 70
     1
102
RTVSPropertyOp4
 70
     1
102
RTVSPropertyOp5
 70
     1
102
RTVSPropertyOp6
 70
     1
102
RTVSPropertyOp7
 70
     1
102
RTVSPropertyOp8
 70
     1
102
RTVSPropertyOp9
 70
     1
102
RTVSPropertyOp10
 70
     1
102
RTVSPropertyOp11
 70
     1
102
RTVSPropertyOp12
 70
     1
102
RTVSPropertyOp13
 70
     1
102
RTVSPropertyOp14
 70
     1
102
RTVSPropertyOp15
 70
     1
102
RTVSPropertyOp16
 70
     1
102
RTVSPropertyOp17
 70
     1
102
RTVSPropertyOp18
 70
     1
102
RTVSPropertyOp19
 70
     1
102
RTVSPropertyOp20
 70
     1
102
RTVSPropertyOp21
 70
     1
102
RTVSPropertyOp22
 70
     1
102
RTVSPropertyOp23
 70
     1
102
RTVSPropertyOp24
 70
     1
102
RTVSPropertyOp25
 70
     1
102
RTVSPropertyOp26
 70
     1
102
RTVSPropertyOp27
 70
     1
102
RTVSPropertyOp28
 70
     1
102
RTVSPropertyOp29
 70
     1
102
RTVSPropertyOp30
 70
     1
102
RTVSPropertyOp31
 70
     1
102
RTVSPropertyOp32
 70
     1
102
RTVSPropertyOp33
 70
     1
102
RTVSPropertyOp34
 70
     1
102
RTVSPropertyOp35
 70
     1
102
RTVSPropertyOp36
 70
     1
102
RTVSPropertyOp37
 70
     1
102
RTVSPropertyOp38
 70
     1
102
RTVSPropertyOp39
 70
     1
102
RTVSPropertyOp40
 70
     1
102
RTVSPropertyOp41
 70
     1
102
RTVSPropertyOp42
 70
     1
102
RTVSPropertyOp43
 70
     1
102
RTVSPropertyOp44
 70
     1
102
RTVSPropertyOp45
 70
     1
102
RTVSPropertyOp46
 70
     1
102
RTVSPropertyOp47
 70
     1
102
RTVSPropertyOp48
 70
     1
102
RTVSPropertyOp49
 70
     1
102
RTVSPropertyOp50
 70
     1
102
RTVSPropertyOp51
 70
     0
102
RTVSPropertyOp52
 70
     0
102
RTVSPropertyOp53
 70
     1
102
RTVSPropertyOp54
 70
     1
102
RTVSPropertyOp55
 70
     1
102
RTVSPropertyOp56
 70
     1
102
RTVSPropertyOp57
 70
     1
102
RTVSPost2010Prop28
280
     0
102
RTVSPost2010PropOp28
 70
     1
102
RTVSPost2010Prop29
280
     1
102
RTVSPost2010PropOp29
 70
     1
102
RTVSPost2010Prop30
280
     1
102
RTVSPost2010PropOp30
 70
     1
102
RTVSPost2010Prop31
280
     0
102
RTVSPost2010PropOp31
 70
     1
102
RTVSPost2010Prop32
280
     0
102
RTVSPost2010PropOp32
 70
     1
102
RTVSPost2010Prop33
280
     0
102
RTVSPost2010PropOp33
 70
     1
102
RTVSPost2010Prop34
280
     0
102
RTVSPost2010PropOp34
 70
     1
102
RTVSPost2010Prop35
280
     0
102
RTVSPost2010PropOp35
 70
     1
102
RTVSPost2010Prop36
280
     0
102
RTVSPost2010PropOp36
 70
     1
102
RTVSPost2010Prop37
 90
       50
102
RTVSPost2010PropOp37
 70
     1
102
RTVSPost2010Prop38
140
0.0
102
RTVSPost2010PropOp38
 70
     1
102
RTVSPost2010Prop39
140
1.0
102
RTVSPost2010PropOp39
 70
     1
102
RTVSPost2010Prop40
 90
        0
102
RTVSPost2010PropOp40
 70
     1
102
RTVSPost2010Prop41ColorIndex
 90
       18
102
RTVSPost2010Prop41ColorRGB
 90
        0
102
RTVSPost2010PropOp41
 70
     1
102
RTVSPost2010Prop42
 90
       50
102
RTVSPost2010PropOp42
 70
     1
102
RTVSPost2010Prop43
 90
        3
102
RTVSPost2010PropOp43
 70
     1
102
RTVSPost2010Prop44ColorIndex
 90
        5
102
RTVSPost2010Prop44ColorRGB
 90
      255
102
RTVSPost2010PropOp44
 70
     1
102
RTVSPost2010Prop45
280
     0
102
RTVSPost2010PropOp45
 70
     1
102
RTVSPost2010Prop46
 90
       50
102
RTVSPost2010PropOp46
 70
     1
102
RTVSPost2010Prop47
 90
       50
102
RTVSPost2010PropOp47
 70
     1
102
RTVSPost2010Prop48
 90
       50
102
RTVSPost2010PropOp48
 70
     1
102
RTVSPost2010Prop49
280
     0
102
RTVSPost2010PropOp49
 70
     1
102
RTVSPost2010Prop50
 90
       50
102
RTVSPost2010PropOp50
 70
     1
102
RTVSPost2010Prop51ColorIndex
 90
      256
102
RTVSPost2010Prop51ColorRGB
 90
-16777216
102
RTVSPost2010PropOp51
 70
     0
102
RTVSPost2010Prop52
140
1.0
102
RTVSPost2010PropOp52
 70
     0
102
RTVSPost2010Prop53
 90
        2
102
RTVSPost2010PropOp53
 70
     1
102
RTVSPost2010Prop54
  1
strokes_ogs.tif
102
RTVSPost2010PropOp54
 70
     1
102
RTVSPost2010Prop55
280
     0
102
RTVSPost2010PropOp55
 70
     1
102
RTVSPost2010Prop56
140
1.0
102
RTVSPost2010PropOp56
 70
     1
102
RTVSPost2010Prop57
140
1.0
102
RTVSPost2010PropOp57
 70
     1
  0
ENDSEC
  0
EOF
