  0
SECTION
  2
HEADER
  9
$ACADVER
  1
AC1021
  9
$ACADMAINTVER
 70
    25
  9
$DWGCODEPAGE
  3
ANSI_1252
  9
$INSBASE
 10
0.0
 20
0.0
 30
0.0
  9
$EXTMIN
 10
0.0
 20
0.0
 30
0.0
  9
$EXTMAX
 10
3000.0
 20
4500.0
 30
0.0
  9
$LIMMIN
 10
0.0
 20
0.0
  9
$LIMMAX
 10
3000.0
 20
4500.0
  9
$ORTHOMODE
 70
     0
  9
$REGENMODE
 70
     1
  9
$FILLMODE
 70
     1
  9
$QTEXTMODE
 70
     0
  9
$MIRRTEXT
 70
     1
  9
$LTSCALE
 40
1.0
  9
$ATTMODE
 70
     1
  9
$TEXTSIZE
 40
10.0
  9
$TRACEWID
 40
1.0
  9
$TEXTSTYLE
  7
Standard
  9
$CLAYER
  8
0
  9
$CELTYPE
  6
ByLayer
  9
$CECOLOR
 62
   256
  9
$CELTSCALE
 40
1.0
  9
$DISPSILH
 70
     0
  9
$DIMSCALE
 40
1.0
  9
$DIMASZ
 40
2.5
  9
$DIMEXO
 40
0.625
  9
$DIMDLI
 40
3.75
  9
$DIMRND
 40
0.0
  9
$DIMDLE
 40
0.0
  9
$DIMEXE
 40
1.25
  9
$DIMTP
 40
0.0
  9
$DIMTM
 40
0.0
  9
$DIMTXT
 40
2.5
  9
$DIMCEN
 40
2.5
  9
$DIMTSZ
 40
0.0
  9
$DIMTOL
 70
     0
  9
$DIMLIM
 70
     0
  9
$DIMTIH
 70
     0
  9
$DIMTOH
 70
     0
  9
$DIMSE1
 70
     0
  9
$DIMSE2
 70
     0
  9
$DIMTAD
 70
     1
  9
$DIMZIN
 70
     8
  9
$DIMBLK
  1

  9
$DIMASO
 70
     1
  9
$DIMSHO
 70
     1
  9
$DIMPOST
  1

  9
$DIMAPOST
  1

  9
$DIMALT
 70
     0
  9
$DIMALTD
 70
     3
  9
$DIMALTF
 40
0.0393700787
  9
$DIMLFAC
 40
1.0
  9
$DIMTOFL
 70
     1
  9
$DIMTVP
 40
0.0
  9
$DIMTIX
 70
     0
  9
$DIMSOXD
 70
     0
  9
$DIMSAH
 70
     0
  9
$DIMBLK1
  1

  9
$DIMBLK2
  1

  9
$DIMSTYLE
  2
ISO-25
  9
$DIMCLRD
 70
     0
  9
$DIMCLRE
 70
     0
  9
$DIMCLRT
 70
     0
  9
$DIMTFAC
 40
1.0
  9
$DIMGAP
 40
0.625
  9
$DIMJUST
 70
     0
  9
$DIMSD1
 70
     0
  9
$DIMSD2
 70
     0
  9
$DIMTOLJ
 70
     0
  9
$DIMTZIN
 70
     8
  9
$DIMALTZ
 70
     0
  9
$DIMALTTZ
 70
     0
  9
$DIMUPT
 70
     0
  9
$DIMDEC
 70
     2
  9
$DIMTDEC
 70
     2
  9
$DIMALTU
 70
     2
  9
$DIMALTTD
 70
     3
  9
$DIMTXSTY
  7
Standard
  9
$DIMAUNIT
 70
     0
  9
$DIMADEC
 70
     0
  9
$DIMALTRND
 40
0.0
  9
$DIMAZIN
 70
     0
  9
$DIMDSEP
 70
    44
  9
$DIMATFIT
 70
     3
  9
$DIMFRAC
 70
     0
  9
$DIMLDRBLK
  1

  9
$DIMLUNIT
 70
     2
  9
$DIMLWD
 70
    -2
  9
$DIMLWE
 70
    -2
  9
$DIMTMOVE
 70
     0
  9
$DIMFXL
 40
1.0
  9
$DIMFXLON
 70
     0
  9
$DIMJOGANG
 40
0.7853981634
  9
$DIMTFILL
 70
     0
  9
$DIMTFILLCLR
 70
     0
  9
$DIMARCSYM
 70
     0
  9
$DIMLTYPE
  6

  9
$DIMLTEX1
  6

  9
$DIMLTEX2
  6

  9
$LUNITS
 70
     2
  9
$LUPREC
 70
     4
  9
$SKETCHINC
 40
1.0
  9
$FILLETRAD
 40
10.0
  9
$AUNITS
 70
     0
  9
$AUPREC
 70
     0
  9
$MENU
  1
.
  9
$ELEVATION
 40
0.0
  9
$PELEVATION
 40
0.0
  9
$THICKNESS
 40
0.0
  9
$LIMCHECK
 70
     0
  9
$CHAMFERA
 40
0.0
  9
$CHAMFERB
 40
0.0
  9
$CHAMFERC
 40
0.0
  9
$CHAMFERD
 40
0.0
  9
$SKPOLY
 70
     0
  9
$TDCREATE
 40
2458520.182646169
  9
$TDUCREATE
 40
2458520.140979502
  9
$TDUPDATE
 40
2458520.182647442
  9
$TDUUPDATE
 40
2458520.140980775
  9
$TDINDWG
 40
0.0000000116
  9
$TDUSRTIMER
 40
0.0000000116
  9
$USRTIMER
 70
     1
  9
$ANGBASE
 50
0.0
  9
$ANGDIR
 70
     0
  9
$PDMODE
 70
     0
  9
$PDSIZE
 40
0.0
  9
$PLINEWID
 40
0.0
  9
$SPLFRAME
 70
     0
  9
$SPLINETYPE
 70
     6
  9
$SPLINESEGS
 70
     8
  9
$HANDSEED
  5
259
  9
$SURFTAB1
 70
     6
  9
$SURFTAB2
 70
     6
  9
$SURFTYPE
 70
     6
  9
$SURFU
 70
     6
  9
$SURFV
 70
     6
  9
$UCSBASE
  2

  9
$UCSNAME
  2

  9
$UCSORG
 10
0.0
 20
0.0
 30
0.0
  9
$UCSXDIR
 10
1.0
 20
0.0
 30
0.0
  9
$UCSYDIR
 10
0.0
 20
1.0
 30
0.0
  9
$UCSORTHOREF
  2

  9
$UCSORTHOVIEW
 70
     0
  9
$UCSORGTOP
 10
0.0
 20
0.0
 30
0.0
  9
$UCSORGBOTTOM
 10
0.0
 20
0.0
 30
0.0
  9
$UCSORGLEFT
 10
0.0
 20
0.0
 30
0.0
  9
$UCSORGRIGHT
 10
0.0
 20
0.0
 30
0.0
  9
$UCSORGFRONT
 10
0.0
 20
0.0
 30
0.0
  9
$UCSORGBACK
 10
0.0
 20
0.0
 30
0.0
  9
$PUCSBASE
  2

  9
$PUCSNAME
  2

  9
$PUCSORG
 10
0.0
 20
0.0
 30
0.0
  9
$PUCSXDIR
 10
1.0
 20
0.0
 30
0.0
  9
$PUCSYDIR
 10
0.0
 20
1.0
 30
0.0
  9
$PUCSORTHOREF
  2

  9
$PUCSORTHOVIEW
 70
     0
  9
$PUCSORGTOP
 10
0.0
 20
0.0
 30
0.0
  9
$PUCSORGBOTTOM
 10
0.0
 20
0.0
 30
0.0
  9
$PUCSORGLEFT
 10
0.0
 20
0.0
 30
0.0
  9
$PUCSORGRIGHT
 10
0.0
 20
0.0
 30
0.0
  9
$PUCSORGFRONT
 10
0.0
 20
0.0
 30
0.0
  9
$PUCSORGBACK
 10
0.0
 20
0.0
 30
0.0
  9
$USERI1
 70
     0
  9
$USERI2
 70
     0
  9
$USERI3
 70
     0
  9
$USERI4
 70
     0
  9
$USERI5
 70
     0
  9
$USERR1
 40
0.0
  9
$USERR2
 40
0.0
  9
$USERR3
 40
0.0
  9
$USERR4
 40
0.0
  9
$USERR5
 40
0.0
  9
$WORLDVIEW
 70
     1
  9
$SHADEDGE
 70
     3
  9
$SHADEDIF
 70
    70
  9
$TILEMODE
 70
     1
  9
$MAXACTVP
 70
    64
  9
$PINSBASE
 10
0.0
 20
0.0
 30
0.0
  9
$PLIMCHECK
 70
     0
  9
$PEXTMIN
 10
0.0
 20
0.0
 30
0.0
  9
$PEXTMAX
 10
3000.0
 20
4500.0
 30
0.0
  9
$PLIMMIN
 10
0.0
 20
0.0
  9
$PLIMMAX
 10
3000.0
 20
4500.0
  9
$UNITMODE
 70
     0
  9
$VISRETAIN
 70
     1
  9
$PLINEGEN
 70
     0
  9
$PSLTSCALE
 70
     1
  9
$TREEDEPTH
 70
  3020
  9
$CMLSTYLE
  2
Standard
  9
$CMLJUST
 70
     0
  9
$CMLSCALE
 40
20.0
  9
$PROXYGRAPHICS
 70
     1
  9
$MEASUREMENT
 70
     1
  9
$CELWEIGHT
370
    -1
  9
$ENDCAPS
280
     0
  9
$JOINSTYLE
280
     0
  9
$LWDISPLAY
290
     0
  9
$INSUNITS
 70
     4
  9
$HYPERLINKBASE
  1

  9
$STYLESHEET
  1

  9
$XEDIT
290
     1
  9
$CEPSNTYPE
380
     0
  9
$PSTYLEMODE
290
     1
  9
$FINGERPRINTGUID
  2
{3BC2F693-1F64-4D15-9717-D3F6D21D476E}
  9
$VERSIONGUID
  2
{FAEB1C32-E019-11D5-929B-00C0DF256EC4}
  9
$EXTNAMES
290
     1
  9
$PSVPSCALE
 40
0.0
  9
$OLESTARTUP
290
     0
  9
$SORTENTS
280
   127
  9
$INDEXCTL
280
     0
  9
$HIDETEXT
280
     1
  9
$XCLIPFRAME
290
     0
  9
$HALOGAP
280
     0
  9
$OBSCOLOR
 70
   257
  9
$OBSLTYPE
280
     0
  9
$INTERSECTIONDISPLAY
280
     0
  9
$INTERSECTIONCOLOR
 70
   257
  9
$DIMASSOC
280
     2
  9
$PROJECTNAME
  1

  9
$CAMERADISPLAY
290
     0
  9
$LENSLENGTH
 40
50.0
  9
$CAMERAHEIGHT
 40
0.0
  9
$STEPSPERSEC
 40
2.0
  9
$STEPSIZE
 40
6.0
  9
$3DDWFPREC
 40
2.0
  9
$PSOLWIDTH
 40
5.0
  9
$PSOLHEIGHT
 40
80.0
  9
$LOFTANG1
 40
1.5707963268
  9
$LOFTANG2
 40
1.5707963268
  9
$LOFTMAG1
 40
0.0
  9
$LOFTMAG2
 40
0.0
  9
$LOFTPARAM
 70
     7
  9
$LOFTNORMALS
280
     1
  9
$LATITUDE
 40
37.795
  9
$LONGITUDE
 40
-122.394
  9
$NORTHDIRECTION
 40
0.0
  9
$TIMEZONE
 70
 -8000
  9
$LIGHTGLYPHDISPLAY
280
     1
  9
$TILEMODELIGHTSYNCH
280
     1
  9
$CMATERIAL
347
44
  9
$SOLIDHIST
280
     0
  9
$SHOWHIST
280
     1
  9
$DWFFRAME
280
     2
  9
$DGNFRAME
280
     2
  9
$REALWORLDSCALE
290
     1
  9
$INTERFERECOLOR
 62
   256
  9
$CSHADOW
280
     0
  9
$SHADOWPLANELOCATION
 40
0.0
  0
ENDSEC
  0
SECTION
  2
CLASSES
  0
CLASS
  1
ACDBDICTIONARYWDFLT
  2
AcDbDictionaryWithDefault
  3
ObjectDBX Classes
 90
        0
 91
        4
280
     0
281
     0
  0
CLASS
  1
VISUALSTYLE
  2
AcDbVisualStyle
  3
ObjectDBX Classes
 90
     4095
 91
        4
280
     0
281
     0
  0
CLASS
  1
MATERIAL
  2
AcDbMaterial
  3
ObjectDBX Classes
 90
     1153
 91
        4
280
     0
281
     0
  0
CLASS
  1
SCALE
  2
AcDbScale
  3
ObjectDBX Classes
 90
     1153
 91
        4
280
     0
281
     0
  0
CLASS
  1
TABLESTYLE
  2
AcDbTableStyle
  3
ObjectDBX Classes
 90
     4095
 91
        4
280
     0
281
     0
  0
CLASS
  1
MLEADERSTYLE
  2
AcDbMLeaderStyle
  3
ACDB_MLEADERSTYLE_CLASS
 90
     4095
 91
        4
280
     0
281
     0
  0
CLASS
  1
SUN
  2
AcDbSun
  3
SCENEOE
 90
     1153
 91
        4
280
     0
281
     0
  0
CLASS
  1
DICTIONARYVAR
  2
AcDbDictionaryVar
  3
ObjectDBX Classes
 90
        0
 91
        4
280
     0
281
     0
  0
CLASS
  1
CELLSTYLEMAP
  2
AcDbCellStyleMap
  3
ObjectDBX Classes
 90
     1152
 91
        4
280
     0
281
     0
  0
ENDSEC
  0
SECTION
  2
TABLES
  0
TABLE
  2
VPORT
  5
8
330
0
100
AcDbSymbolTable
 70
     1
  0
VPORT
  5
29
330
8
100
AcDbSymbolTableRecord
100
AcDbViewportTableRecord
  2
*Active
 70
     0
 10
0.0
 20
0.0
 11
1.0
 21
1.0
 12
344.1869158879
 22
148.5
 13
0.0
 23
0.0
 14
10.0
 24
10.0
 15
10.0
 25
10.0
 16
0.0
 26
0.0
 36
1.0
 17
0.0
 27
0.0
 37
0.0
 40
297.0
 41
1.9729729729
 42
50.0
 43
0.0
 44
0.0
 50
0.0
 51
0.0
 71
     0
 72
   100
 73
     1
 74
     3
 75
     0
 76
     0
 77
     0
 78
     0
281
     0
 65
     1
110
0.0
120
0.0
130
0.0
111
1.0
121
0.0
131
0.0
112
0.0
122
1.0
132
0.0
 79
     0
146
0.0
348
2F
 60
     3
 61
     5
292
     1
282
     1
141
0.0
142
0.0
 63
   250
361
6D
  0
ENDTAB
  0
TABLE
  2
LTYPE
  5
5
330
0
100
AcDbSymbolTable
 70
     1
  0
LTYPE
  5
14
330
5
100
AcDbSymbolTableRecord
100
AcDbLinetypeTableRecord
  2
ByBlock
 70
     0
  3

 72
    65
 73
     0
 40
0.0
  0
LTYPE
  5
15
330
5
100
AcDbSymbolTableRecord
100
AcDbLinetypeTableRecord
  2
ByLayer
 70
     0
  3

 72
    65
 73
     0
 40
0.0
  0
LTYPE
  5
16
330
5
100
AcDbSymbolTableRecord
100
AcDbLinetypeTableRecord
  2
Continuous
 70
     0
  3
Solid line
 72
    65
 73
     0
 40
0.0
  0
ENDTAB
  0
TABLE
  2
LAYER
  5
2
330
0
100
AcDbSymbolTable
 70
     5
  0
LAYER
  5
10
330
2
100
AcDbSymbolTableRecord
100
AcDbLayerTableRecord
  2
0
 70
     0
 62
     7
  6
Continuous
370
    -3
390
F
347
46
  0
LAYER
  5
6E
330
2
100
AcDbSymbolTableRecord
100
AcDbLayerTableRecord
  2
Default
 70
     0
 62
     7
  6
Continuous
370
    -3
390
F
347
46
  0
LAYER
  5
95
330
2
100
AcDbSymbolTableRecord
100
AcDbLayerTableRecord
  2
DV1_Default
 70
     0
 62
     7
  6
Continuous
370
    -3
390
F
347
46
  0
LAYER
  5
122
330
2
100
AcDbSymbolTableRecord
100
AcDbLayerTableRecord
  2
DV2_Default
 70
     0
 62
     7
  6
Continuous
370
    -3
390
F
347
46
  0
LAYER
  5
1B0
330
2
100
AcDbSymbolTableRecord
100
AcDbLayerTableRecord
  2
DV3_Default
 70
     0
 62
     7
  6
Continuous
370
    -3
390
F
347
46
  0
ENDTAB
  0
TABLE
  2
STYLE
  5
3
330
0
100
AcDbSymbolTable
 70
     1
  0
STYLE
  5
11
330
3
100
AcDbSymbolTableRecord
100
AcDbTextStyleTableRecord
  2
Standard
 70
     0
 40
0.0
 41
1.0
 50
0.0
 71
     0
 42
10.0
  3
txt
  4

  0
ENDTAB
  0
TABLE
  2
VIEW
  5
6
330
0
100
AcDbSymbolTable
 70
     0
  0
ENDTAB
  0
TABLE
  2
UCS
  5
7
330
0
100
AcDbSymbolTable
 70
     0
  0
ENDTAB
  0
TABLE
  2
APPID
  5
9
330
0
100
AcDbSymbolTable
 70
     2
  0
APPID
  5
12
330
9
100
AcDbSymbolTableRecord
100
AcDbRegAppTableRecord
  2
ACAD
 70
     0
  0
APPID
  5
24F
330
9
100
AcDbSymbolTableRecord
100
AcDbRegAppTableRecord
  2
ACAD_MLEADERVER
 70
     0
  0
ENDTAB
  0
TABLE
  2
DIMSTYLE
  5
A
330
0
100
AcDbSymbolTable
 70
     1
100
AcDbDimStyleTable
  0
DIMSTYLE
105
27
330
A
100
AcDbSymbolTableRecord
100
AcDbDimStyleTableRecord
  2
ISO-25
 70
     0
 41
2.5
 42
0.625
 43
3.75
 44
1.25
 73
     0
 74
     0
 77
     1
 78
     8
140
2.5
141
2.5
143
0.0393700787
147
0.625
171
     3
172
     1
178
     0
271
     2
272
     2
274
     3
278
    44
283
     0
284
     8
340
11
  0
ENDTAB
  0
TABLE
  2
BLOCK_RECORD
  5
1
330
0
100
AcDbSymbolTable
 70
    10
  0
BLOCK_RECORD
  5
1F
330
1
100
AcDbSymbolTableRecord
100
AcDbBlockTableRecord
  2
*Model_Space
340
22
 70
     0
280
     1
281
     0
  0
BLOCK_RECORD
  5
1B
330
1
100
AcDbSymbolTableRecord
100
AcDbBlockTableRecord
  2
*Paper_Space
340
1E
 70
     0
280
     1
281
     0
  0
BLOCK_RECORD
  5
6F
330
1
100
AcDbSymbolTableRecord
100
AcDbBlockTableRecord
  2
SEANNOT_GROUP
340
0
102
{BLKREFS
331
70
102
}
 70
     0
280
     1
281
     0
  0
BLOCK_RECORD
  5
75
330
1
100
AcDbSymbolTableRecord
100
AcDbBlockTableRecord
  2
SEANNOT_GROUP1
340
0
102
{BLKREFS
331
76
102
}
 70
     0
280
     1
281
     0
  0
BLOCK_RECORD
  5
7B
330
1
100
AcDbSymbolTableRecord
100
AcDbBlockTableRecord
  2
SEANNOT_GROUP2
340
0
102
{BLKREFS
331
7C
102
}
 70
     0
280
     1
281
     0
  0
BLOCK_RECORD
  5
81
330
1
100
AcDbSymbolTableRecord
100
AcDbBlockTableRecord
  2
SEANNOT_GROUP3
340
0
102
{BLKREFS
331
82
102
}
 70
     0
280
     1
281
     0
  0
BLOCK_RECORD
  5
87
330
1
100
AcDbSymbolTableRecord
100
AcDbBlockTableRecord
  2
SEANNOT_GROUP4
340
0
102
{BLKREFS
331
88
102
}
 70
     0
280
     1
281
     0
  0
BLOCK_RECORD
  5
8D
330
1
100
AcDbSymbolTableRecord
100
AcDbBlockTableRecord
  2
SEANNOT_GROUP5
340
0
102
{BLKREFS
331
8E
102
}
 70
     0
280
     1
281
     0
  0
BLOCK_RECORD
  5
93
330
1
100
AcDbSymbolTableRecord
100
AcDbBlockTableRecord
  2
SE
340
0
102
{BLKREFS
331
94
102
}
 70
     0
280
     1
281
     0
  0
BLOCK_RECORD
  5
120
330
1
100
AcDbSymbolTableRecord
100
AcDbBlockTableRecord
  2
SE1
340
0
102
{BLKREFS
331
121
102
}
 70
     0
280
     1
281
     0
  0
BLOCK_RECORD
  5
1AE
330
1
100
AcDbSymbolTableRecord
100
AcDbBlockTableRecord
  2
SE2
340
0
102
{BLKREFS
331
1AF
102
}
 70
     0
280
     1
281
     0
  0
ENDTAB
  0
ENDSEC
  0
SECTION
  2
BLOCKS
  0
BLOCK
  5
20
330
1F
100
AcDbEntity
  8
0
100
AcDbBlockBegin
  2
*Model_Space
 70
     0
 10
0.0
 20
0.0
 30
0.0
  3
*Model_Space
  1

  0
ENDBLK
  5
21
330
1F
100
AcDbEntity
  8
0
100
AcDbBlockEnd
  0
BLOCK
  5
1C
330
1B
100
AcDbEntity
 67
     1
  8
0
100
AcDbBlockBegin
  2
*Paper_Space
 70
     0
 10
0.0
 20
0.0
 30
0.0
  3
*Paper_Space
  1

  0
ENDBLK
  5
1D
330
1B
100
AcDbEntity
 67
     1
  8
0
100
AcDbBlockEnd
  0
BLOCK
  5
73
330
6F
100
AcDbEntity
  8
0
100
AcDbBlockBegin
  2
SEANNOT_GROUP
 70
     0
 10
0.0
 20
0.0
 30
0.0
  3
SEANNOT_GROUP
  1

  0
LINE
  5
71
330
6F
100
AcDbEntity
  8
Default
 62
   136
100
AcDbLine
 10
82.5182613048
 20
505.4744665483
 30
0.0
 11
42.5182621989
 21
505.4744665483
 31
0.0
  0
LINE
  5
72
330
6F
100
AcDbEntity
  8
Default
 62
   136
100
AcDbLine
 10
62.5182617518
 20
525.4744661013
 30
0.0
 11
62.5182617518
 21
485.4744669953
 31
0.0
  0
ENDBLK
  5
74
330
6F
100
AcDbEntity
  8
0
100
AcDbBlockEnd
  0
BLOCK
  5
79
330
75
100
AcDbEntity
  8
0
100
AcDbBlockBegin
  2
SEANNOT_GROUP1
 70
     0
 10
0.0
 20
0.0
 30
0.0
  3
SEANNOT_GROUP1
  1

  0
LINE
  5
77
330
75
100
AcDbEntity
  8
Default
 62
   136
100
AcDbLine
 10
333.6066574338
 20
505.4744665483
 30
0.0
 11
293.6066583279
 21
505.4744665483
 31
0.0
  0
LINE
  5
78
330
75
100
AcDbEntity
  8
Default
 62
   136
100
AcDbLine
 10
313.6066578809
 20
525.4744661013
 30
0.0
 11
313.6066578809
 21
485.4744669953
 31
0.0
  0
ENDBLK
  5
7A
330
75
100
AcDbEntity
  8
0
100
AcDbBlockEnd
  0
BLOCK
  5
7F
330
7B
100
AcDbEntity
  8
0
100
AcDbBlockBegin
  2
SEANNOT_GROUP2
 70
     0
 10
0.0
 20
0.0
 30
0.0
  3
SEANNOT_GROUP2
  1

  0
LINE
  5
7D
330
7B
100
AcDbEntity
  8
Default
 62
   136
100
AcDbLine
 10
537.4714471341
 20
853.3107405343
 30
0.0
 11
497.4714480282
 21
853.3107405343
 31
0.0
  0
LINE
  5
7E
330
7B
100
AcDbEntity
  8
Default
 62
   136
100
AcDbLine
 10
517.4714475812
 20
873.3107400872
 30
0.0
 11
517.4714475812
 21
833.3107409813
 31
0.0
  0
ENDBLK
  5
80
330
7B
100
AcDbEntity
  8
0
100
AcDbBlockEnd
  0
BLOCK
  5
85
330
81
100
AcDbEntity
  8
0
100
AcDbBlockBegin
  2
SEANNOT_GROUP3
 70
     0
 10
0.0
 20
0.0
 30
0.0
  3
SEANNOT_GROUP3
  1

  0
LINE
  5
83
330
81
100
AcDbEntity
  8
Default
 62
   136
100
AcDbLine
 10
82.5184801372
 20
387.9439416843
 30
0.0
 11
42.5184810313
 21
387.9439416843
 31
0.0
  0
LINE
  5
84
330
81
100
AcDbEntity
  8
Default
 62
   136
100
AcDbLine
 10
62.5184805842
 20
407.9439412373
 30
0.0
 11
62.5184805842
 21
367.9439421313
 31
0.0
  0
ENDBLK
  5
86
330
81
100
AcDbEntity
  8
0
100
AcDbBlockEnd
  0
BLOCK
  5
8B
330
87
100
AcDbEntity
  8
0
100
AcDbBlockBegin
  2
SEANNOT_GROUP4
 70
     0
 10
0.0
 20
0.0
 30
0.0
  3
SEANNOT_GROUP4
  1

  0
LINE
  5
89
330
87
100
AcDbEntity
  8
Default
 62
   136
100
AcDbLine
 10
82.5182613048
 20
871.9745508828
 30
0.0
 11
42.5182621989
 21
871.9745508828
 31
0.0
  0
LINE
  5
8A
330
87
100
AcDbEntity
  8
Default
 62
   136
100
AcDbLine
 10
62.5182617518
 20
891.9745504358
 30
0.0
 11
62.5182617518
 21
851.9745513298
 31
0.0
  0
ENDBLK
  5
8C
330
87
100
AcDbEntity
  8
0
100
AcDbBlockEnd
  0
BLOCK
  5
91
330
8D
100
AcDbEntity
  8
0
100
AcDbBlockBegin
  2
SEANNOT_GROUP5
 70
     0
 10
0.0
 20
0.0
 30
0.0
  3
SEANNOT_GROUP5
  1

  0
LINE
  5
8F
330
8D
100
AcDbEntity
  8
Default
 62
   136
100
AcDbLine
 10
82.5184800909
 20
161.5439418447
 30
0.0
 11
42.518480985
 21
161.5439418447
 31
0.0
  0
LINE
  5
90
330
8D
100
AcDbEntity
  8
Default
 62
   136
100
AcDbLine
 10
62.5184805379
 20
181.5439413977
 30
0.0
 11
62.5184805379
 21
141.5439422918
 31
0.0
  0
ENDBLK
  5
92
330
8D
100
AcDbEntity
  8
0
100
AcDbBlockEnd
  0
BLOCK
  5
11E
330
93
100
AcDbEntity
  8
0
100
AcDbBlockBegin
  2
SE
 70
     0
 10
0.0
 20
0.0
 30
0.0
  3
SE
  1

  0
LINE
  5
96
330
93
100
AcDbEntity
  8
DV1_Default
 62
     7
100
AcDbLine
 10
48.0181076357
 20
705.4745508828
 30
0.0
 11
77.0186889445
 21
705.4745508828
 31
0.0
  0
LINE
  5
97
330
93
100
AcDbEntity
  8
DV1_Default
 62
     7
100
AcDbLine
 10
100.5182617518
 20
596.2741150785
 30
0.0
 11
100.5182617518
 21
548.6746899419
 31
0.0
  0
LINE
  5
98
330
93
100
AcDbEntity
  8
DV1_Default
 62
     7
100
AcDbLine
 10
92.3015997349
 20
505.4745508828
 30
0.0
 11
32.7349238613
 21
505.4745508828
 31
0.0
  0
SPLINE
  5
99
330
93
100
AcDbEntity
  8
DV1_Default
 62
     7
100
AcDbSpline
210
0.0
220
0.0
230
1.0
 70
     8
 71
     3
 72
    23
 73
    19
 74
     0
 42
0.000000001
 43
0.0000000001
 40
0.0
 40
0.0
 40
0.0
 40
0.0
 40
0.0305542403684498
 40
0.0665131486515816
 40
0.105251514516284
 40
0.1466381096006962
 40
0.1905395223614041
 40
0.2368208010042769
 40
0.2942367249943719
 40
0.3545452044309391
 40
0.4175210236430842
 40
0.4829382310538143
 40
0.5636850619240803
 40
0.6471884114836739
 40
0.7330654583338444
 40
0.8209334196446136
 40
0.9104098026055124
 40
1.0
 40
1.0
 40
1.0
 40
1.0
 10
47.51317851293604
 20
704.9754511960209
 30
0.0
 10
47.49916506952849
 20
702.7362190970078
 30
0.0
 10
47.47021029952865
 20
698.6198118637882
 30
0.0
 10
47.26256814458961
 20
691.4636843255951
 30
0.0
 10
46.94569597055952
 20
683.7807817665287
 30
0.0
 10
46.51403443364437
 20
675.5152360117518
 30
0.0
 10
45.98172081390198
 20
666.7692954257309
 30
0.0
 10
45.31549668607081
 20
656.9567490265476
 30
0.0
 10
44.50829341304782
 20
646.0598982912804
 30
0.0
 10
43.55810618561438
 20
634.0579902187106
 30
0.0
 10
42.51850044810423
 20
621.5285643861789
 30
0.0
 10
41.3290421993954
 20
607.645585171659
 30
0.0
 10
39.99366285401027
 20
592.4006384971393
 30
0.0
 10
38.5255049143947
 20
575.806604261609
 30
0.0
 10
37.01587885608723
 20
558.7099743320898
 30
0.0
 10
35.50197860324161
 20
541.3300015872942
 30
0.0
 10
33.96311015043631
 20
523.2610183573947
 30
0.0
 10
33.0673975321648
 20
512.2406312154809
 30
0.0
 10
32.53641174613576
 20
505.6962011998515
 30
0.0
  0
SPLINE
  5
9A
330
93
100
AcDbEntity
  8
DV1_Default
 62
     7
100
AcDbSpline
210
0.0
220
0.0
230
1.0
 70
     8
 71
     3
 72
    19
 73
    15
 74
     0
 42
0.000000001
 43
0.0000000001
 40
0.0
 40
0.0
 40
0.0
 40
0.0
 40
0.0832705693405742
 40
0.2067914807939761
 40
0.3257331945667089
 40
0.4173033117487816
 40
0.5054526750908477
 40
0.5899645707037781
 40
0.6706232960899379
 40
0.7472145104645809
 40
0.8182732100545065
 40
0.8850044504106719
 40
0.947212559736464
 40
1.0
 40
1.0
 40
1.0
 40
1.0
 10
84.45209273063793
 20
599.1766525941525
 30
0.0
 10
84.16923010051306
 20
602.4022926725763
 30
0.0
 10
83.57539548815691
 20
609.1859397791281
 30
0.0
 10
82.56910820877054
 20
620.925992153826
 30
0.0
 10
81.59684712503282
 20
632.6195909050233
 30
0.0
 10
80.75625938928923
 20
643.1589663936445
 30
0.0
 10
80.04923537303502
 20
652.4694768405661
 30
0.0
 10
79.41322518172126
 20
661.4024626250825
 30
0.0
 10
78.85578263732843
 20
669.9315473254368
 30
0.0
 10
78.38698038409123
 20
677.9852629128532
 30
0.0
 10
78.01100169410695
 20
685.5666575455169
 30
0.0
 10
77.73761135521393
 20
692.5904913437553
 30
0.0
 10
77.55951353753142
 20
699.1466679948231
 30
0.0
 10
77.53485865144313
 20
702.9228094276024
 30
0.0
 10
77.52299221974967
 20
704.9754417624932
 30
0.0
  0
SPLINE
  5
9B
330
93
100
AcDbEntity
  8
DV1_Default
 62
     7
100
AcDbSpline
210
0.0
220
0.0
230
1.0
 70
     8
 71
     3
 72
    10
 73
     6
 74
     0
 42
0.000000001
 43
0.0000000001
 40
0.0
 40
0.0
 40
0.0
 40
0.0
 40
0.4791649240526929
 40
0.9567030383803885
 40
1.0
 40
1.0
 40
1.0
 40
1.0
 10
92.50018558298802
 20
505.6949965295152
 30
0.0
 10
91.93172860440835
 20
512.6946103507817
 30
0.0
 10
90.98623229997885
 20
524.3018911393808
 30
0.0
 10
89.79084766207653
 20
538.3595817607073
 30
0.0
 10
89.22038040781861
 20
544.8944201016538
 30
0.0
 10
89.16517472524417
 20
545.5265760142944
 30
0.0
  0
ARC
  5
9C
330
93
100
AcDbEntity
  8
DV1_Default
 62
     7
100
AcDbCircle
 10
87.2536425866
 20
599.2760270142
 30
0.0
 40
2.80555331474547
100
AcDbArc
 50
182.0340401635
 51
272.9716169852
  0
SPLINE
  5
9D
330
93
100
AcDbEntity
  8
DV1_Default
 62
     7
100
AcDbSpline
210
0.0
220
0.0
230
1.0
 70
     8
 71
     3
 72
    13
 73
     9
 74
     0
 42
0.000000001
 43
0.0000000001
 40
0.0
 40
0.0
 40
0.0
 40
0.0
 40
0.2665682207771616
 40
0.3855877861194155
 40
0.5000000000015566
 40
0.614412213883304
 40
0.7334317792245828
 40
1.0
 40
1.0
 40
1.0
 40
1.0
 10
89.16650083368557
 20
545.5266866920904
 30
0.0
 10
89.16354742802582
 20
545.9711813563551
 30
0.0
 10
89.17554183979718
 20
546.5236974204313
 30
0.0
 10
89.48455908319508
 20
547.2339582827079
 30
0.0
 10
89.79609356996119
 20
547.6630667623108
 30
0.0
 10
90.19673736478056
 20
548.0104460555664
 30
0.0
 10
90.8777032118199
 20
548.3795634682681
 30
0.0
 10
91.42712654598071
 20
548.4391610089405
 30
0.0
 10
91.87021997404058
 20
548.4745508828082
 30
0.0
  0
SPLINE
  5
9E
330
93
100
AcDbEntity
  8
DV1_Default
 62
     7
100
AcDbSpline
210
0.0
220
0.0
230
1.0
 70
     8
 71
     3
 72
    11
 73
     7
 74
     0
 42
0.000000001
 43
0.0000000001
 40
0.0
 40
0.0
 40
0.0
 40
0.0
 40
0.2543925345796708
 40
0.4999999999998744
 40
0.7456074654201619
 40
1.0
 40
1.0
 40
1.0
 40
1.0
 10
77.51868822118877
 20
704.975401361057
 30
0.0
 10
77.51138839581859
 20
705.0477551242114
 30
0.0
 10
77.4951131570289
 20
705.170435263058
 30
0.0
 10
77.38053955069581
 20
705.3370175054956
 30
0.0
 10
77.21376266452086
 20
705.4513075969354
 30
0.0
 10
77.09105501967329
 20
705.4673741386016
 30
0.0
 10
77.01868894450247
 20
705.4745508828081
 30
0.0
  0
SPLINE
  5
9F
330
93
100
AcDbEntity
  8
DV1_Default
 62
     7
100
AcDbSpline
210
0.0
220
0.0
230
1.0
 70
     8
 71
     3
 72
    11
 73
     7
 74
     0
 42
0.000000001
 43
0.0000000001
 40
0.0
 40
0.0
 40
0.0
 40
0.0
 40
0.2543903265354275
 40
0.4999969235188129
 40
0.7456052551669103
 40
1.0
 40
1.0
 40
1.0
 40
1.0
 10
48.01810763570013
 20
705.4745508828081
 30
0.0
 10
47.94574289040302
 20
705.4673740792887
 30
0.0
 10
47.82303709479665
 20
705.4513074664752
 30
0.0
 10
47.65626331420204
 20
705.3370169688002
 30
0.0
 10
47.54169227415608
 20
705.1704347626231
 30
0.0
 10
47.52541741475572
 20
705.0477550893454
 30
0.0
 10
47.51811778685563
 20
704.9754013610631
 30
0.0
  0
SPLINE
  5
A0
330
93
100
AcDbEntity
  8
DV1_Default
 62
     7
100
AcDbSpline
210
0.0
220
0.0
230
1.0
 70
     8
 71
     3
 72
    14
 73
    10
 74
     0
 42
0.000000001
 43
0.0000000001
 40
0.0
 40
0.0
 40
0.0
 40
0.0
 40
0.0134714415334391
 40
0.0314056763273804
 40
0.0486455290611424
 40
0.0668970496641533
 40
0.1107778548597207
 40
0.1679713871071529
 40
1.0
 40
1.0
 40
1.0
 40
1.0
 10
100.4675202488229
 20
596.4051587581243
 30
0.0
 10
100.4665463473981
 20
596.4062421793412
 30
0.0
 10
100.464574262481
 20
596.408423799976
 30
0.0
 10
100.4603830965054
 20
596.412763330298
 30
0.0
 10
100.4555408511159
 20
596.4174925251046
 30
0.0
 10
100.4484527594685
 20
596.4239989207216
 30
0.0
 10
100.4392076168882
 20
596.4316549090294
 30
0.0
 10
100.3813740732136
 20
596.4735025319994
 30
0.0
 10
100.3487040288087
 20
596.4761716815756
 30
0.0
 10
100.3182617518172
 20
596.4741115157871
 30
0.0
  0
ARC
  5
A1
330
93
100
AcDbEntity
  8
DV1_Default
 62
     7
100
AcDbCircle
 10
100.3282743856
 20
548.6650011608
 30
0.0
 40
0.1907132958880156
100
AcDbArc
 50
266.9905321745
 51
2.9193824246
  0
LINE
  5
A2
330
93
100
AcDbEntity
  8
DV1_Default
 62
     7
100
AcDbLine
 10
91.8702281322
 20
548.4743873921
 30
0.0
 11
100.3182617518
 21
548.4743873921
 31
0.0
  0
LINE
  5
A3
330
93
100
AcDbEntity
  8
DV1_Default
 62
     7
100
AcDbLine
 10
100.3182617518
 20
596.4745457045
 30
0.0
 11
87.3981610696
 21
596.4745457045
 31
0.0
  0
ARC
  5
A4
330
93
100
AcDbEntity
  8
DV1_Default
 62
     7
100
AcDbCircle
 10
32.7349238613
 20
505.6745508828
 30
0.0
 40
0.2000000000000006
100
AcDbArc
 50
175.4186019066
 51
270.0
  0
ARC
  5
A5
330
93
100
AcDbEntity
  8
DV1_Default
 62
     7
100
AcDbCircle
 10
92.3015997349
 20
505.6745508828
 30
0.0
 40
0.2
100
AcDbArc
 50
270.0
 51
4.5813980934
  0
LINE
  5
A6
330
93
100
AcDbEntity
  8
DV1_Default
 62
     7
100
AcDbLine
 10
77.5182617518
 20
823.9745508828
 30
0.0
 11
47.5182617518
 21
823.9745508828
 31
0.0
  0
LINE
  5
A7
330
93
100
AcDbEntity
  8
DV1_Default
 62
     7
100
AcDbLine
 10
77.3182617518
 20
705.9745508828
 30
0.0
 11
47.7182617518
 21
705.9745508828
 31
0.0
  0
LINE
  5
A8
330
93
100
AcDbEntity
  8
DV1_Default
 62
     7
100
AcDbLine
 10
77.5182617518
 20
706.1745508828
 30
0.0
 11
77.5182617518
 21
823.9745508828
 31
0.0
  0
LINE
  5
A9
330
93
100
AcDbEntity
  8
DV1_Default
 62
     7
100
AcDbLine
 10
47.5182617518
 20
823.9745508828
 30
0.0
 11
47.5182617518
 21
706.1745508828
 31
0.0
  0
SPLINE
  5
AA
330
93
100
AcDbEntity
  8
DV1_Default
 62
     7
100
AcDbSpline
210
0.0
220
0.0
230
1.0
 70
     8
 71
     3
 72
    31
 73
    27
 74
     0
 42
0.000000001
 43
0.0000000001
 40
0.0
 40
0.0
 40
0.0
 40
0.0
 40
0.0015142137431235
 40
0.0162159511611983
 40
0.0320320675254547
 40
0.0717338434846881
 40
0.1124966164899177
 40
0.1544072056967474
 40
0.1975477985314896
 40
0.2677074310310801
 40
0.3408027581267348
 40
0.397942369167937
 40
0.4546768335521176
 40
0.5105729570454405
 40
0.5656363860001348
 40
0.6198733219104322
 40
0.6732461800590397
 40
0.7237597942002089
 40
0.7703088482014426
 40
0.8128958605723897
 40
0.8327080869174681
 40
0.8545470939304054
 40
0.8821913262777786
 40
0.9156496587164964
 40
0.9549193491174394
 40
1.0
 40
1.0
 40
1.0
 40
1.0
 10
48.70888696924838
 20
874.2632058619783
 30
0.0
 10
48.70335289069502
 20
874.2342876522038
 30
0.0
 10
48.6455296280098
 20
873.9272501631636
 30
0.0
 10
48.56126707490513
 20
873.3800656852493
 30
0.0
 10
48.4626110724522
 20
872.498854042071
 30
0.0
 10
48.40937937611095
 20
871.7329473023088
 30
0.0
 10
48.34813634370641
 20
870.6304986463274
 30
0.0
 10
48.30642525891746
 20
869.6093960595982
 30
0.0
 10
48.255450064247
 20
868.1874279749832
 30
0.0
 10
48.19591223121419
 20
866.169641172855
 30
0.0
 10
48.13300786213065
 20
863.6165426710584
 30
0.0
 10
48.07498262232227
 20
860.9264936291675
 30
0.0
 10
48.02239345512996
 20
858.2405996518148
 30
0.0
 10
47.97055848179954
 20
855.3649467825119
 30
0.0
 10
47.9195752118705
 20
852.3365789972097
 30
0.0
 10
47.8694347803003
 20
849.1840836137462
 30
0.0
 10
47.82074509025865
 20
845.974995022072
 30
0.0
 10
47.77443852092231
 20
842.8041128803519
 30
0.0
 10
47.73146147477948
 20
839.7722401804674
 30
0.0
 10
47.69793564014333
 20
837.3545481558322
 30
0.0
 10
47.67202026124813
 20
835.4624237082635
 30
0.0
 10
47.65070887175149
 20
833.8950681125823
 30
0.0
 10
47.62516537369979
 20
832.0022984696076
 30
0.0
 10
47.59443123265868
 20
829.7081288709397
 30
0.0
 10
47.55751486503254
 20
826.9345693429577
 30
0.0
 10
47.53350462024993
 20
825.1243936982662
 30
0.0
 10
47.51826175181717
 20
823.9745508828081
 30
0.0
  0
SPLINE
  5
AB
330
93
100
AcDbEntity
  8
DV1_Default
 62
     7
100
AcDbSpline
210
0.0
220
0.0
230
1.0
 70
     8
 71
     3
 72
    33
 73
    29
 74
     0
 42
0.000000001
 43
0.0000000001
 40
0.0
 40
0.0
 40
0.0
 40
0.0
 40
0.0557541533607627
 40
0.1058885329083926
 40
0.1504033153803387
 40
0.1892950488323757
 40
0.2225602943076733
 40
0.2567156052127927
 40
0.2900308379262367
 40
0.3250254892601251
 40
0.3617024374727724
 40
0.413222061965556
 40
0.4677412794777357
 40
0.5240624861224841
 40
0.5805962330274006
 40
0.6373435731280155
 40
0.6943179100843823
 40
0.7423618253607663
 40
0.7900470816285189
 40
0.8329175954452879
 40
0.8699529362207806
 40
0.8870203312882482
 40
0.9024817689171046
 40
0.9166702649242637
 40
0.9339890803333037
 40
0.9563768985104742
 40
0.9837027870567705
 40
1.0
 40
1.0
 40
1.0
 40
1.0
 10
77.51826175181716
 20
823.9745508828081
 30
0.0
 10
77.49968329258563
 20
825.3762424652701
 30
0.0
 10
77.46994758619522
 20
827.6177565365793
 30
0.0
 10
77.42348111464365
 20
831.102187251461
 30
0.0
 10
77.38317627755444
 20
834.0935310489597
 30
0.0
 10
77.34775191192713
 20
836.6898914103986
 30
0.0
 10
77.31551959250568
 20
839.0193415189946
 30
0.0
 10
77.28496511748875
 20
841.1933987701972
 30
0.0
 10
77.25388474906775
 20
843.3647167761497
 30
0.0
 10
77.22202565591904
 20
845.5430768022557
 30
0.0
 10
77.18463087487784
 20
848.035776439415
 30
0.0
 10
77.14127994786988
 20
850.8249957769606
 30
0.0
 10
77.09193724585576
 20
853.8451159943179
 30
0.0
 10
77.04099769571943
 20
856.7767026919678
 30
0.0
 10
76.98920211088092
 20
859.5424232129011
 30
0.0
 10
76.93697963454943
 20
862.0942733423277
 30
0.0
 10
76.88707606811137
 20
864.2927758692208
 30
0.0
 10
76.83964657232544
 20
866.1597182321243
 30
0.0
 10
76.79629248483769
 20
867.6735797005834
 30
0.0
 10
76.75590179746044
 20
868.9078659180192
 30
0.0
 10
76.72450146372475
 20
869.7412543716496
 30
0.0
 10
76.70169827961487
 20
870.2861296082732
 30
0.0
 10
76.68558247990768
 20
870.641978705281
 30
0.0
 10
76.67092249571722
 20
870.9516988185189
 30
0.0
 10
76.637420394638
 20
871.5762837530876
 30
0.0
 10
76.5661493109611
 20
872.479095290218
 30
0.0
 10
76.45619445665072
 20
873.4018571339623
 30
0.0
 10
76.33904159455892
 20
874.0831256739131
 30
0.0
 10
76.28619759042563
 20
874.349387728356
 30
0.0
  0
ARC
  5
AC
330
93
100
AcDbEntity
  8
DV1_Default
 62
     7
100
AcDbCircle
 10
77.3182617518
 20
706.1745508828
 30
0.0
 40
0.2000000000000057
100
AcDbArc
 50
270.0
 51
0.0
  0
ARC
  5
AD
330
93
100
AcDbEntity
  8
DV1_Default
 62
     7
100
AcDbCircle
 10
47.7182617518
 20
706.1745508828
 30
0.0
 40
0.2000000000000005
100
AcDbArc
 50
180.0
 51
270.0
  0
LINE
  5
AE
330
93
100
AcDbEntity
  8
DV1_Default
 62
     7
100
AcDbLine
 10
107.3182617518
 20
596.2745427787
 30
0.0
 11
107.3182617518
 21
548.6743844662
 31
0.0
  0
LINE
  5
AF
330
93
100
AcDbEntity
  8
DV1_Default
 62
     7
100
AcDbLine
 10
141.9400295482
 20
596.4745427787
 30
0.0
 11
107.5182617518
 21
596.4745427787
 31
0.0
  0
LINE
  5
B0
330
93
100
AcDbEntity
  8
DV1_Default
 62
     7
100
AcDbLine
 10
107.5182617518
 20
548.4743844662
 30
0.0
 11
129.8830437676
 21
548.4743844662
 31
0.0
  0
ARC
  5
B1
330
93
100
AcDbEntity
  8
DV1_Default
 62
     7
100
AcDbCircle
 10
107.5182617518
 20
596.2745427787
 30
0.0
 40
0.200000000000089
100
AcDbArc
 50
90.0
 51
180.0
  0
ARC
  5
B2
330
93
100
AcDbEntity
  8
DV1_Default
 62
     7
100
AcDbCircle
 10
107.5182617518
 20
548.6743844662
 30
0.0
 40
0.200000000000089
100
AcDbArc
 50
180.0
 51
270.0
  0
LINE
  5
B3
330
93
100
AcDbEntity
  8
DV1_Default
 62
     7
100
AcDbLine
 10
157.2263516407
 20
560.3231896688
 30
0.0
 11
157.2264483472
 21
560.3232932079
 31
0.0
  0
SPLINE
  5
B4
330
93
100
AcDbEntity
  8
DV1_Default
 62
     7
100
AcDbSpline
210
0.0
220
0.0
230
1.0
 70
     8
 71
     3
 72
    11
 73
     7
 74
     0
 42
0.000000001
 43
0.0000000001
 40
0.0
 40
0.0
 40
0.0
 40
0.0
 40
0.1410831789090544
 40
0.3449201736380967
 40
0.8110891368916062
 40
1.0
 40
1.0
 40
1.0
 40
1.0
 10
142.8426755229024
 20
666.9916496216458
 30
0.0
 10
143.5557906803721
 20
661.7098857206424
 30
0.0
 10
145.2059301580281
 20
649.487088882327
 30
0.0
 10
149.0871416768776
 20
620.7224636082092
 30
0.0
 10
153.1943844441265
 20
590.2492116648682
 30
0.0
 10
156.3238742098965
 20
567.0215475988912
 30
0.0
 10
157.2263507164376
 20
560.3231890959977
 30
0.0
  0
ARC
  5
B5
330
93
100
AcDbEntity
  8
DV1_Default
 62
     7
100
AcDbCircle
 10
138.5638671443
 20
666.6020225456
 30
0.0
 40
4.29651142194678
100
AcDbArc
 50
5.2029882378
 51
22.5064148441
  0
ARC
  5
B6
330
93
100
AcDbEntity
  8
DV1_Default
 62
     7
100
AcDbCircle
 10
85.2228500167
 20
551.3001292748
 30
0.0
 40
72.56665709236555
100
AcDbArc
 50
0.9630559504
 51
7.1427400459
  0
ELLIPSE
  5
B7
330
93
100
AcDbEntity
  8
DV1_Default
 62
     7
100
AcDbEllipse
 10
156.7859324526
 20
552.4199245886
 30
0.0
 11
-0.9999999961957107
 21
8.837446758419576E-5
 31
0.0
210
0.0
220
0.0
230
1.0
 40
0.8660454241
 41
3.013100189640291
 42
3.25728503113604
  0
SPLINE
  5
B8
330
93
100
AcDbEntity
  8
DV1_Default
 62
     7
100
AcDbSpline
210
0.0
220
0.0
230
1.0
 70
     8
 71
     3
 72
    11
 73
     7
 74
     0
 42
0.000000001
 43
0.0000000001
 40
0.0
 40
0.0
 40
0.0
 40
0.0
 40
0.1422433429319722
 40
0.3078399049057791
 40
0.5870616371245415
 40
1.0
 40
1.0
 40
1.0
 40
1.0
 10
157.7792563819693
 20
552.5198082948128
 30
0.0
 10
157.778566288655
 20
552.3668691430387
 30
0.0
 10
157.7770728038925
 20
552.0358816048519
 30
0.0
 10
157.760497505435
 20
551.4596594105794
 30
0.0
 10
157.7133809986849
 20
550.7146597481438
 30
0.0
 10
157.6441063695457
 20
550.2568720375755
 30
0.0
 10
157.5923499092726
 20
550.0415895435644
 30
0.0
  0
SPLINE
  5
B9
330
93
100
AcDbEntity
  8
DV1_Default
 62
     7
100
AcDbSpline
210
0.0
220
0.0
230
1.0
 70
     8
 71
     3
 72
     8
 73
     4
 74
     0
 42
0.000000001
 43
0.0000000001
 40
0.0
 40
0.0
 40
0.0
 40
0.0
 40
1.0
 40
1.0
 40
1.0
 40
1.0
 10
135.7186364520899
 20
666.4928266379791
 30
0.0
 10
135.7192331585351
 20
666.4178287732876
 30
0.0
 10
135.7228954136502
 20
666.3427148161081
 30
0.0
 10
135.7296162566117
 20
666.2675512346709
 30
0.0
  0
ARC
  5
BA
330
93
100
AcDbEntity
  8
DV1_Default
 62
     7
100
AcDbCircle
 10
139.7036448137
 20
667.1566271361
 30
0.0
 40
3.03220057712005
100
AcDbArc
 50
21.0688455218
 51
121.9022958397
  0
SPLINE
  5
BB
330
93
100
AcDbEntity
  8
DV1_Default
 62
     7
100
AcDbSpline
210
0.0
220
0.0
230
1.0
 70
     8
 71
     3
 72
    19
 73
    15
 74
     0
 42
0.000000001
 43
0.0000000001
 40
0.0
 40
0.0
 40
0.0
 40
0.0
 40
0.125431803273074
 40
0.1916680304169363
 40
0.2443896778066815
 40
0.3040244725402581
 40
0.3720809597656858
 40
0.431125718029119
 40
0.4860186575810975
 40
0.6108869479898811
 40
0.7151891921260485
 40
0.8044878696079736
 40
0.874295859678569
 40
1.0
 40
1.0
 40
1.0
 40
1.0
 10
138.1012215009335
 20
669.730832357824
 30
0.0
 10
137.8987753074376
 20
669.6182188717687
 30
0.0
 10
137.6412413786786
 20
669.4733900205918
 30
0.0
 10
137.3192196049594
 20
669.2507900490206
 30
0.0
 10
137.1004495677884
 20
669.0841325490013
 30
0.0
 10
136.8925049278123
 20
668.9089377881198
 30
0.0
 10
136.6938296255684
 20
668.7204821182827
 30
0.0
 10
136.5170855303052
 20
668.5303774614747
 30
0.0
 10
136.3045545921562
 20
668.2722904163443
 30
0.0
 10
136.0911344540564
 20
667.9509384345762
 30
0.0
 10
135.9113372866697
 20
667.57319029133
 30
0.0
 10
135.8064773636058
 20
667.2512830046111
 30
0.0
 10
135.7305133629278
 20
666.8930592449789
 30
0.0
 10
135.7229214127299
 20
666.6665943892633
 30
0.0
 10
135.7188011319772
 20
666.4927326723356
 30
0.0
  0
SPLINE
  5
BC
330
93
100
AcDbEntity
  8
DV1_Default
 62
     7
100
AcDbSpline
210
0.0
220
0.0
230
1.0
 70
     8
 71
     3
 72
    12
 73
     8
 74
     0
 42
0.000000001
 43
0.0000000001
 40
0.0
 40
0.0
 40
0.0
 40
0.0
 40
0.137851042969163
 40
0.3590257215151043
 40
0.6335201466594266
 40
0.9607334464063483
 40
1.0
 40
1.0
 40
1.0
 40
1.0
 10
156.6010995605089
 20
548.4298602475457
 30
0.0
 10
156.6945628536862
 20
548.4709277355478
 30
0.0
 10
156.8997490492521
 20
548.5637555426378
 30
0.0
 10
157.1566556305396
 20
548.8371025588124
 30
0.0
 10
157.4014261654681
 20
549.2800750184649
 30
0.0
 10
157.5287071273813
 20
549.7233234314407
 30
0.0
 10
157.5867857095486
 20
550.0127189084037
 30
0.0
 10
157.592839040415
 20
550.0441244103023
 30
0.0
  0
ARC
  5
BD
330
93
100
AcDbEntity
  8
DV1_Default
 62
     7
100
AcDbCircle
 10
30489.2218783114
 20
3327.6473086426
 30
0.0
 40
30469.94254037696
100
AcDbArc
 50
185.0108583555
 51
185.1426082553
  0
ELLIPSE
  5
BE
330
93
100
AcDbEntity
  8
DV1_Default
 62
     7
100
AcDbEllipse
 10
-239.992128796
 20
572.4747308334
 30
0.0
 11
2520.924809012882
 21
19.14795665545958
 31
0.0
210
0.0
220
0.0
230
1.0
 40
0.0042970273
 41
1.433993668354794
 42
1.435275735680037
  0
LINE
  5
BF
330
93
100
AcDbEntity
  8
DV1_Default
 62
     7
100
AcDbLine
 10
100.5187846
 20
575.2557816917
 30
0.0
 11
103.7208797125
 21
575.2837579929
 31
0.0
  0
ELLIPSE
  5
C0
330
93
100
AcDbEntity
  8
DV1_Default
 62
     7
100
AcDbEllipse
 10
-239.9925055314
 20
572.4743066856
 30
0.0
 11
2520.926237420616
 21
18.95606024106443
 31
0.0
210
0.0
220
0.0
230
1.0
 40
0.0044289279
 41
-1.435341603886663
 42
-1.434059592086818
  0
ELLIPSE
  5
C1
330
93
100
AcDbEntity
  8
DV1_Default
 62
     7
100
AcDbEllipse
 10
-239.9924628259
 20
572.4741357085
 30
0.0
 11
2520.926075565599
 21
10.83388722937993
 31
0.0
210
0.0
220
0.0
230
1.0
 40
0.0075952675
 41
-1.435340950265894
 42
-1.434058923237191
  0
ELLIPSE
  5
C2
330
93
100
AcDbEntity
  8
DV1_Default
 62
     7
100
AcDbEllipse
 10
-239.9925055314
 20
572.4740572133
 30
0.0
 11
2520.92623883255
 21
-0.1919417650539518
 31
0.0
210
0.0
220
0.0
230
1.0
 40
0.0087264569
 41
-1.435307636201681
 42
-1.43402556959006
  0
LINE
  5
C3
330
93
100
AcDbEntity
  8
DV1_Default
 62
     7
100
AcDbLine
 10
100.5182617518
 20
590.6276150001
 30
0.0
 11
106.5182617518
 21
590.6276150001
 31
0.0
  0
SPLINE
  5
C4
330
93
100
AcDbEntity
  8
DV1_Default
 62
     7
100
AcDbSpline
210
0.0
220
0.0
230
1.0
 70
     8
 71
     3
 72
    10
 73
     6
 74
     0
 42
0.000000001
 43
0.0000000001
 40
0.0
 40
0.0
 40
0.0
 40
0.0
 40
0.5
 40
0.5
 40
1.0
 40
1.0
 40
1.0
 40
1.0
 10
104.0182617518172
 20
550.695345957002
 30
0.0
 10
104.0182617518172
 20
550.68415052002
 30
0.0
 10
103.9866302270955
 20
550.6736700498537
 30
0.0
 10
103.8773049989337
 20
550.6589023032382
 30
0.0
 10
103.8001059257465
 20
550.6546592072655
 30
0.0
 10
103.7208797124668
 20
550.6545700870597
 30
0.0
  0
LINE
  5
C5
330
93
100
AcDbEntity
  8
DV1_Default
 62
     7
100
AcDbLine
 10
104.0182617518
 20
551.9184315531
 30
0.0
 11
104.0182617518
 21
550.695345957
 31
0.0
  0
ELLIPSE
  5
C6
330
93
100
AcDbEntity
  8
DV1_Default
 62
     7
100
AcDbEllipse
 10
-240.0116930849
 20
572.4752408754
 30
0.0
 11
2520.998936886727
 21
-10.83424908364754
 31
0.0
210
0.0
220
0.0
230
1.0
 40
0.007595478
 41
-1.435271908028493
 42
-1.433989877733122
  0
SPLINE
  5
C7
330
93
100
AcDbEntity
  8
DV1_Default
 62
     7
100
AcDbSpline
210
0.0
220
0.0
230
1.0
 70
     8
 71
     3
 72
    10
 73
     6
 74
     0
 42
0.000000001
 43
0.0000000001
 40
0.0
 40
0.0
 40
0.0
 40
0.0
 40
0.5
 40
0.5
 40
1.0
 40
1.0
 40
1.0
 40
1.0
 10
103.7208797124676
 20
552.0283835771128
 30
0.0
 10
103.8000905158261
 20
552.0281259879275
 30
0.0
 10
103.8771661978865
 20
552.0157128121083
 30
0.0
 10
103.9864666726669
 20
551.9748344943933
 30
0.0
 10
104.0182617518184
 20
551.9466486263851
 30
0.0
 10
104.0182617518172
 20
551.9184315530833
 30
0.0
  0
SPLINE
  5
C8
330
93
100
AcDbEntity
  8
DV1_Default
 62
     7
100
AcDbSpline
210
0.0
220
0.0
230
1.0
 70
     8
 71
     3
 72
    10
 73
     6
 74
     0
 42
0.000000001
 43
0.0000000001
 40
0.0
 40
0.0
 40
0.0
 40
0.0
 40
0.5
 40
0.5
 40
1.0
 40
1.0
 40
1.0
 40
1.0
 10
104.0182617518172
 20
555.1680184892912
 30
0.0
 10
104.0182617518172
 20
555.1191180644975
 30
0.0
 10
103.9866302270955
 20
555.0716172827499
 30
0.0
 10
103.8773049989336
 20
555.003278617949
 30
0.0
 10
103.8001059257465
 20
554.9829509079867
 30
0.0
 10
103.7208797124666
 20
554.9825276272469
 30
0.0
  0
LINE
  5
C9
330
93
100
AcDbEntity
  8
DV1_Default
 62
     7
100
AcDbLine
 10
104.0182617518
 20
558.5919022318
 30
0.0
 11
104.0182617518
 21
555.1680184893
 31
0.0
  0
ELLIPSE
  5
CA
330
93
100
AcDbEntity
  8
DV1_Default
 62
     7
100
AcDbEllipse
 10
-240.0114769814
 20
572.4749738353
 30
0.0
 11
2520.998119047631
 21
-18.95662841270416
 31
0.0
210
0.0
220
0.0
230
1.0
 40
0.0044290494
 41
-1.435271288449814
 42
-1.433989256145672
  0
SPLINE
  5
CB
330
93
100
AcDbEntity
  8
DV1_Default
 62
     7
100
AcDbSpline
210
0.0
220
0.0
230
1.0
 70
     8
 71
     3
 72
    10
 73
     6
 74
     0
 42
0.000000001
 43
0.0000000001
 40
0.0
 40
0.0
 40
0.0
 40
0.0
 40
0.5
 40
0.5
 40
1.0
 40
1.0
 40
1.0
 40
1.0
 10
103.7208797124676
 20
558.8283563156626
 30
0.0
 10
103.800090515826
 20
558.8278089905864
 30
0.0
 10
103.8771661978864
 20
558.8014938109008
 30
0.0
 10
103.9864666726669
 20
558.7140145853222
 30
0.0
 10
104.0182617518184
 20
558.6533355845315
 30
0.0
 10
104.0182617518172
 20
558.5919022317752
 30
0.0
  0
ARC
  5
CC
330
93
100
AcDbEntity
  8
DV1_Default
 62
     7
100
AcDbCircle
 10
103.7283063361
 20
564.2874524166
 30
0.0
 40
0.2901114146597181
100
AcDbArc
 50
268.5331129425
 51
358.1209621332
  0
LINE
  5
CD
330
93
100
AcDbEntity
  8
DV1_Default
 62
     7
100
AcDbLine
 10
104.0182617518
 20
568.985194808
 30
0.0
 11
104.0182617518
 21
564.2779398028
 31
0.0
  0
LINE
  5
CE
330
93
100
AcDbEntity
  8
DV1_Default
 62
     7
100
AcDbLine
 10
103.7208797125
 20
569.2847932709
 30
0.0
 11
100.5187846052
 21
569.3127033629
 31
0.0
  0
ARC
  5
CF
330
93
100
AcDbEntity
  8
DV1_Default
 62
     7
100
AcDbCircle
 10
103.7184548425
 20
568.9849961022
 30
0.0
 40
0.2998069751622313
100
AcDbArc
 50
0.0379744448
 51
89.5365807298
  0
ARC
  5
D0
330
93
100
AcDbEntity
  8
DV1_Default
 62
     7
100
AcDbCircle
 10
103.7180799379
 20
575.5839268082
 30
0.0
 40
0.3001818721593469
100
AcDbArc
 50
270.534401327
 51
0.0356985352
  0
LINE
  5
D1
330
93
100
AcDbEntity
  8
DV1_Default
 62
     7
100
AcDbLine
 10
104.0182617518
 20
580.3134349291
 30
0.0
 11
104.0182617518
 21
575.5841138386
 31
0.0
  0
ELLIPSE
  5
D2
330
93
100
AcDbEntity
  8
DV1_Default
 62
     7
100
AcDbEllipse
 10
-240.0114769814
 20
572.4741625008
 30
0.0
 11
2520.998119065539
 21
-19.14848830326868
 31
0.0
210
0.0
220
0.0
230
1.0
 40
0.0042971427
 41
1.434055259070215
 42
1.435337232036928
  0
ARC
  5
D3
330
93
100
AcDbEntity
  8
DV1_Default
 62
     7
100
AcDbCircle
 10
103.7273429803
 20
580.3049292943
 30
0.0
 40
0.2910430851823225
100
AcDbArc
 50
1.6746880499
 51
91.2724865607
  0
SPLINE
  5
D4
330
93
100
AcDbEntity
  8
DV1_Default
 62
     7
100
AcDbSpline
210
0.0
220
0.0
230
1.0
 70
     8
 71
     3
 72
    10
 73
     6
 74
     0
 42
0.000000001
 43
0.0000000001
 40
0.0
 40
0.0
 40
0.0
 40
0.0
 40
0.5
 40
0.5
 40
1.0
 40
1.0
 40
1.0
 40
1.0
 10
104.0182617518172
 20
586.0570603941335
 30
0.0
 10
104.0182617518171
 20
585.994753247843
 30
0.0
 10
103.9866302270955
 20
585.9334404207897
 30
0.0
 10
103.8773049989337
 20
585.8446098744643
 30
0.0
 10
103.8001059257465
 20
585.8178874399537
 30
0.0
 10
103.7208797124669
 20
585.8173325366174
 30
0.0
  0
LINE
  5
D5
330
93
100
AcDbEntity
  8
DV1_Default
 62
     7
100
AcDbLine
 10
104.0182617518
 20
589.5412298032
 30
0.0
 11
104.0182617518
 21
586.0570603941
 31
0.0
  0
ELLIPSE
  5
D6
330
93
100
AcDbEntity
  8
DV1_Default
 62
     7
100
AcDbEllipse
 10
-240.0117747783
 20
572.4738074128
 30
0.0
 11
2520.999245728952
 21
-11.16659577907732
 31
0.0
210
0.0
220
0.0
230
1.0
 40
0.0075193155
 41
1.434055810518277
 42
1.435337840659358
  0
SPLINE
  5
D7
330
93
100
AcDbEntity
  8
DV1_Default
 62
     7
100
AcDbSpline
210
0.0
220
0.0
230
1.0
 70
     8
 71
     3
 72
    10
 73
     6
 74
     0
 42
0.000000001
 43
0.0000000001
 40
0.0
 40
0.0
 40
0.0
 40
0.0
 40
0.5
 40
0.5
 40
1.0
 40
1.0
 40
1.0
 40
1.0
 10
103.7208797124677
 20
589.7308762420535
 30
0.0
 10
103.800090515826
 20
589.7304434255836
 30
0.0
 10
103.8771661978865
 20
589.7096905489963
 30
0.0
 10
103.9864666726669
 20
589.6399287211174
 30
0.0
 10
104.0182617518183
 20
589.5912013448121
 30
0.0
 10
104.0182617518172
 20
589.5412298031622
 30
0.0
  0
LINE
  5
D8
330
93
100
AcDbEntity
  8
DV1_Default
 62
     7
100
AcDbLine
 10
106.5357168167
 20
595.4744665483
 30
0.0
 11
106.5357168167
 21
592.9100135208
 31
0.0
  0
LINE
  5
D9
330
93
100
AcDbEntity
  8
DV1_Default
 62
     7
100
AcDbLine
 10
106.5182617518
 20
590.6276150001
 30
0.0
 11
106.5357168167
 21
549.4744665483
 31
0.0
  0
LINE
  5
DA
330
93
100
AcDbEntity
  8
DV1_Default
 62
     7
100
AcDbLine
 10
106.5357168167
 20
549.4744665483
 30
0.0
 11
107.3182617518
 21
549.4744665483
 31
0.0
  0
LINE
  5
DB
330
93
100
AcDbEntity
  8
DV1_Default
 62
     7
100
AcDbLine
 10
107.3182617518
 20
595.4744665483
 30
0.0
 11
106.5357168167
 21
595.4744665483
 31
0.0
  0
LINE
  5
DC
330
93
100
AcDbEntity
  8
DV1_Default
 62
     7
100
AcDbLine
 10
100.5182617518
 20
550.4744665483
 30
0.0
 11
106.5352915195
 21
550.4771739353
 31
0.0
  0
LINE
  5
DD
330
93
100
AcDbEntity
  8
DV1_Default
 62
     7
100
AcDbLine
 10
106.5357168167
 20
594.4757421048
 30
0.0
 11
100.5182617518
 21
594.4744665483
 31
0.0
  0
LINE
  5
DE
330
93
100
AcDbEntity
  8
DV1_Default
 62
     7
100
AcDbLine
 10
106.5357168167
 20
592.9100135208
 30
0.0
 11
100.5182617518
 21
592.9100135208
 31
0.0
  0
LINE
  5
DF
330
93
100
AcDbEntity
  8
DV1_Default
 62
     7
100
AcDbLine
 10
76.9837378933
 20
705.4745508828
 30
0.0
 11
48.0182617518
 21
705.4745508828
 31
0.0
  0
LINE
  5
E0
330
93
100
AcDbEntity
  8
DV1_Default
 62
     7
100
AcDbLine
 10
76.9837378933
 20
705.4745508828
 30
0.0
 11
76.9837378933
 21
705.9745508828
 31
0.0
  0
LINE
  5
E1
330
93
100
AcDbEntity
  8
DV1_Default
 62
     7
100
AcDbLine
 10
48.0182617518
 20
705.9745508828
 30
0.0
 11
48.0182617518
 21
705.4745508828
 31
0.0
  0
LINE
  5
E2
330
93
100
AcDbEntity
  8
DV1_Default
 62
     7
100
AcDbLine
 10
89.3182617518
 20
505.4744665483
 30
0.0
 11
35.7182617518
 21
505.4744665483
 31
0.0
  0
ARC
  5
E3
330
93
100
AcDbEntity
  8
DV1_Default
 62
     7
100
AcDbCircle
 10
35.7182617518
 20
505.6744665483
 30
0.0
 40
0.1999999999999988
100
AcDbArc
 50
268.3360488674
 51
270.0
  0
ARC
  5
E4
330
93
100
AcDbEntity
  8
DV1_Default
 62
     7
100
AcDbCircle
 10
89.3182617518
 20
505.6744665483
 30
0.0
 40
0.2
100
AcDbArc
 50
270.0
 51
271.6639511327
  0
CIRCLE
  5
E5
330
93
100
AcDbEntity
  8
DV1_Default
 62
     7
100
AcDbCircle
 10
62.5182617518
 20
871.9745508828
 30
0.0
 40
14.0
  0
LINE
  5
E6
330
93
100
AcDbEntity
  8
DV1_Default
 62
     7
100
AcDbLine
 10
75.5200525993
 20
853.9745508828
 30
0.0
 11
49.5200525993
 21
853.9745508828
 31
0.0
  0
ARC
  5
E7
330
93
100
AcDbEntity
  8
DV1_Default
 62
     7
100
AcDbCircle
 10
77.0200406475
 20
868.140676226
 30
0.0
 40
0.9999991751884348
100
AcDbArc
 50
165.1876057568
 51
179.9960196245
  0
ARC
  5
E8
330
93
100
AcDbEntity
  8
DV1_Default
 62
     7
100
AcDbCircle
 10
48.020064242
 20
868.1271555696
 30
0.0
 40
0.9999991964759034
100
AcDbArc
 50
0.0038670181
 51
14.8657135869
  0
ARC
  5
E9
330
93
100
AcDbEntity
  8
DV1_Default
 62
     7
100
AcDbCircle
 10
75.5200525993
 20
854.4745508828
 30
0.0
 40
0.5000000000000004
100
AcDbArc
 50
270.0
 51
0.0
  0
ARC
  5
EA
330
93
100
AcDbEntity
  8
DV1_Default
 62
     7
100
AcDbCircle
 10
49.5200525993
 20
854.4745508828
 30
0.0
 40
0.5000000000000004
100
AcDbArc
 50
180.0
 51
270.0
  0
LINE
  5
EB
330
93
100
AcDbEntity
  8
DV1_Default
 62
     7
100
AcDbLine
 10
76.0200525993
 20
854.4745508828
 30
0.0
 11
76.0200525993
 21
868.1540077456
 31
0.0
  0
LINE
  5
EC
330
93
100
AcDbEntity
  8
DV1_Default
 62
     7
100
AcDbLine
 10
49.0200525993
 20
868.1540077456
 30
0.0
 11
49.0200525993
 21
854.4745508828
 31
0.0
  0
ARC
  5
ED
330
93
100
AcDbEntity
  8
DV1_Default
 62
     7
100
AcDbCircle
 10
52.9685056665
 20
853.7389260263
 30
0.0
 40
1.096894270817918
100
AcDbArc
 50
265.3647610432
 51
277.6092333505
  0
SPLINE
  5
EE
330
93
100
AcDbEntity
  8
DV1_Default
 62
     7
100
AcDbSpline
210
0.0
220
0.0
230
1.0
 70
     8
 71
     3
 72
    15
 73
    11
 74
     0
 42
0.000000001
 43
0.0000000001
 40
0.0
 40
0.0
 40
0.0
 40
0.0
 40
0.1075113331911927
 40
0.2120706243895447
 40
0.3140079344821956
 40
0.413668978635319
 40
0.5114113985222069
 40
0.6788886940279883
 40
0.8410142783585274
 40
1.0
 40
1.0
 40
1.0
 40
1.0
 10
60.2602387243741
 20
852.8630551242624
 30
0.0
 10
60.28637296193431
 20
852.847698332707
 30
0.0
 10
60.33792381641593
 20
852.8174070714135
 30
0.0
 10
60.40970428227929
 20
852.7767769506631
 30
0.0
 10
60.47589381590797
 20
852.7409240391245
 30
0.0
 10
60.53619842908277
 20
852.7103711098644
 30
0.0
 10
60.60405050207407
 20
852.6791442071205
 30
0.0
 10
60.67318505634346
 20
852.6535927737722
 30
0.0
 10
60.73652591597266
 20
852.6407447598456
 30
0.0
 10
60.76275550555535
 20
852.6480659636075
 30
0.0
 10
60.77574206239908
 20
852.651690771709
 30
0.0
  0
ARC
  5
EF
330
93
100
AcDbEntity
  8
DV1_Default
 62
     7
100
AcDbCircle
 10
52.8975533024
 20
854.1810893683
 30
0.0
 40
1.535571968649473
100
AcDbArc
 50
239.1300868572
 51
269.3399370138
  0
SPLINE
  5
F0
330
93
100
AcDbEntity
  8
DV1_Default
 62
     7
100
AcDbSpline
210
0.0
220
0.0
230
1.0
 70
     8
 71
     3
 72
     8
 73
     4
 74
     0
 42
0.000000001
 43
0.0000000001
 40
0.0
 40
0.0
 40
0.0
 40
0.0
 40
1.0
 40
1.0
 40
1.0
 40
1.0
 10
53.98466955807385
 20
852.6445510154982
 30
0.0
 10
54.02552103253738
 20
852.6441410194733
 30
0.0
 10
54.06837311304999
 20
852.6464446071711
 30
0.0
 10
54.11315086759907
 20
852.6516907717117
 30
0.0
  0
ARC
  5
F1
330
93
100
AcDbEntity
  8
DV1_Default
 62
     7
100
AcDbCircle
 10
53.7727995165
 20
854.4071781948
 30
0.0
 40
1.759063991458491
100
AcDbArc
 50
256.6326416664
 51
269.3430459433
  0
SPLINE
  5
F2
330
93
100
AcDbEntity
  8
DV1_Default
 62
     7
100
AcDbSpline
210
0.0
220
0.0
230
1.0
 70
     8
 71
     3
 72
     8
 73
     4
 74
     0
 42
0.000000001
 43
0.0000000001
 40
0.0
 40
0.0
 40
0.0
 40
0.0
 40
1.0
 40
1.0
 40
1.0
 40
1.0
 10
55.83933375284936
 20
852.6445508828067
 30
0.0
 10
55.86887287425706
 20
852.6441417100233
 30
0.0
 10
55.90092743452166
 20
852.6464452556321
 30
0.0
 10
55.93547569528508
 20
852.6516907717096
 30
0.0
  0
ARC
  5
F3
330
93
100
AcDbEntity
  8
DV1_Default
 62
     7
100
AcDbCircle
 10
55.5223086339
 20
854.3282461968
 30
0.0
 40
1.684735955892961
100
AcDbArc
 50
242.828211114
 51
268.1075076229
  0
SPLINE
  5
F4
330
93
100
AcDbEntity
  8
DV1_Default
 62
     7
100
AcDbSpline
210
0.0
220
0.0
230
1.0
 70
     8
 71
     3
 72
     8
 73
     4
 74
     0
 42
0.000000001
 43
0.0000000001
 40
0.0
 40
0.0
 40
0.0
 40
0.0
 40
0.9999999999999999
 40
0.9999999999999999
 40
0.9999999999999999
 40
0.9999999999999999
 10
58.32382482615851
 20
852.6480219827996
 30
0.0
 10
58.34299212656946
 20
852.6424518527732
 30
0.0
 10
58.36911656121614
 20
852.6433697417084
 30
0.0
 10
58.40234478780608
 20
852.6516907717113
 30
0.0
  0
SPLINE
  5
F5
330
93
100
AcDbEntity
  8
DV1_Default
 62
     7
100
AcDbSpline
210
0.0
220
0.0
230
1.0
 70
     8
 71
     3
 72
    15
 73
    11
 74
     0
 42
0.000000001
 43
0.0000000001
 40
0.0
 40
0.0
 40
0.0
 40
0.0
 40
0.1075113982366776
 40
0.2120707221674085
 40
0.3140080331314055
 40
0.4136690469789359
 40
0.5114114063219051
 40
0.6788887089716164
 40
0.8410142909939691
 40
1.0
 40
1.0
 40
1.0
 40
1.0
 10
57.21520039795811
 20
852.8630550329962
 30
0.0
 10
57.24623586216273
 20
852.8476983234691
 30
0.0
 10
57.30745440204495
 20
852.8174070506265
 30
0.0
 10
57.3963833682469
 20
852.7767769231705
 30
0.0
 10
57.48126502163827
 20
852.7409240167199
 30
0.0
 10
57.5618842531706
 20
852.7103711002081
 30
0.0
 10
57.65674737108982
 20
852.6791442043822
 30
0.0
 10
57.7610049590367
 20
852.6535927728554
 30
0.0
 10
57.8685147099381
 20
852.6407447599616
 30
0.0
 10
57.9259641566431
 20
852.6480659637259
 30
0.0
 10
57.95440800546308
 20
852.6516907717094
 30
0.0
  0
ARC
  5
F6
330
93
100
AcDbEntity
  8
DV1_Default
 62
     7
100
AcDbCircle
 10
52.8842442979
 20
854.1923115742
 30
0.0
 40
1.538471594154051
100
AcDbArc
 50
213.0709563367
 51
239.7699769936
  0
SPLINE
  5
F7
330
93
100
AcDbEntity
  8
DV1_Default
 62
     7
100
AcDbSpline
210
0.0
220
0.0
230
1.0
 70
     8
 71
     3
 72
    10
 73
     6
 74
     0
 42
0.000000001
 43
0.0000000001
 40
0.0
 40
0.0
 40
0.0
 40
0.0
 40
0.1059928462546297
 40
0.5522629107807219
 40
1.0
 40
1.0
 40
1.0
 40
1.0
 10
56.88621923835453
 20
853.038363834695
 30
0.0
 10
56.89793569708016
 20
853.0319255911452
 30
0.0
 10
56.95896467211606
 20
852.9983918886596
 30
0.0
 10
57.06929370390328
 20
852.9380616028482
 30
0.0
 10
57.16651155453567
 20
852.8880844849028
 30
0.0
 10
57.21520039795811
 20
852.8630550329962
 30
0.0
  0
SPLINE
  5
F8
330
93
100
AcDbEntity
  8
DV1_Default
 62
     7
100
AcDbSpline
210
0.0
220
0.0
230
1.0
 70
     8
 71
     3
 72
    12
 73
     8
 74
     0
 42
0.000000001
 43
0.0000000001
 40
0.0
 40
0.0
 40
0.0
 40
0.0
 40
0.1119574406886823
 40
0.3239362556008729
 40
0.5455985301760155
 40
0.7724266009475782
 40
1.0
 40
1.0
 40
1.0
 40
1.0
 10
59.6520880586525
 20
853.2099094794033
 30
0.0
 10
59.67698498449224
 20
853.1978070706656
 30
0.0
 10
59.74827007093571
 20
853.1616987367549
 30
0.0
 10
59.86502518282575
 20
853.0975129160612
 30
0.0
 10
60.00086959971409
 20
853.0183076232668
 30
0.0
 10
60.1345889979911
 20
852.9380615751671
 30
0.0
 10
60.21830950541818
 20
852.8880845032752
 30
0.0
 10
60.2602387243741
 20
852.8630551242624
 30
0.0
  0
ARC
  5
F9
330
93
100
AcDbEntity
  8
DV1_Default
 62
     7
100
AcDbCircle
 10
64.5022797525
 20
848.6262291038
 30
0.0
 40
5.162923621275453
100
AcDbArc
 50
122.0331727247
 51
128.8991221419
  0
ARC
  5
FA
330
93
100
AcDbEntity
  8
DV1_Default
 62
     7
100
AcDbCircle
 10
72.1425623057
 20
854.1810439351
 30
0.0
 40
1.535527650667951
100
AcDbArc
 50
270.8426373087
 51
300.8704509284
  0
SPLINE
  5
FB
330
93
100
AcDbEntity
  8
DV1_Default
 62
     7
100
AcDbSpline
210
0.0
220
0.0
230
1.0
 70
     8
 71
     3
 72
    12
 73
     8
 74
     0
 42
0.000000001
 43
0.0000000001
 40
0.0
 40
0.0
 40
0.0
 40
0.0
 40
0.2101866640173726
 40
0.414619866578814
 40
0.6139452220573033
 40
0.8088388377092128
 40
1.0
 40
1.0
 40
1.0
 40
1.0
 10
65.30026024309369
 20
853.2105653473043
 30
0.0
 10
65.2199098021024
 20
853.1637692748246
 30
0.0
 10
65.0614087210026
 20
853.0714590564108
 30
0.0
 10
64.84199043326872
 20
852.9452046882076
 30
0.0
 10
64.6409508102864
 20
852.8311351801274
 30
0.0
 10
64.45941274772125
 20
852.7302550524389
 30
0.0
 10
64.35015632845678
 20
852.6712704863173
 30
0.0
 10
64.29901108415793
 20
852.6442008589528
 30
0.0
  0
ARC
  5
FC
330
93
100
AcDbEntity
  8
DV1_Default
 62
     7
100
AcDbCircle
 10
61.0303394696
 20
849.4952177949
 30
0.0
 40
4.178571637634804
100
AcDbArc
 50
48.9098236944
 51
50.4720429051
  0
ARC
  5
FD
330
93
100
AcDbEntity
  8
DV1_Default
 62
     7
100
AcDbCircle
 10
72.1567113564
 20
854.1914178079
 30
0.0
 40
1.537271234731295
100
AcDbArc
 50
300.2194089533
 51
326.9396621149
  0
ARC
  5
FE
330
93
100
AcDbEntity
  8
DV1_Default
 62
     7
100
AcDbCircle
 10
61.0389133632
 20
849.530302193
 30
0.0
 40
4.146083171771373
100
AcDbArc
 50
50.2548525954
 51
56.8843270986
  0
ARC
  5
FF
330
93
100
AcDbEntity
  8
DV1_Default
 62
     7
100
AcDbCircle
 10
67.8755033617
 20
856.281581089
 30
0.0
 40
3.826729075399605
100
AcDbArc
 50
239.0228618772
 51
251.8844381603
  0
ARC
  5
100
330
93
100
AcDbEntity
  8
DV1_Default
 62
     7
100
AcDbCircle
 10
69.7692607657
 20
855.8007475469
 30
0.0
 40
3.207379110319295
100
AcDbArc
 50
240.7276296193
 51
259.658800131
  0
ARC
  5
101
330
93
100
AcDbEntity
  8
DV1_Default
 62
     7
100
AcDbCircle
 10
71.3599104272
 20
855.5772758135
 30
0.0
 40
2.949489215915925
100
AcDbArc
 50
246.8295480781
 51
263.9301770266
  0
ARC
  5
102
330
93
100
AcDbEntity
  8
DV1_Default
 62
     7
100
AcDbCircle
 10
72.1998161172
 20
855.0943405059
 30
0.0
 40
2.45374806308106
100
AcDbArc
 50
253.4343243263
 51
266.821525025
  0
ARC
  5
103
330
93
100
AcDbEntity
  8
DV1_Default
 62
     7
100
AcDbCircle
 10
60.0817669086
 20
851.3236504993
 30
0.0
 40
1.934579240333858
100
AcDbArc
 50
102.8326731642
 51
119.7688382548
  0
ARC
  5
104
330
93
100
AcDbEntity
  8
DV1_Default
 62
     7
100
AcDbCircle
 10
52.8188640049
 20
855.0843774107
 30
0.0
 40
2.450494502148192
100
AcDbArc
 50
276.911622712
 51
283.1168598484
  0
ARC
  5
105
330
93
100
AcDbEntity
  8
DV1_Default
 62
     7
100
AcDbCircle
 10
53.6536011016
 20
855.5462668097
 30
0.0
 40
2.930828624651119
100
AcDbArc
 50
279.0211229065
 51
292.0308290289
  0
ARC
  5
106
330
93
100
AcDbEntity
  8
DV1_Default
 62
     7
100
AcDbCircle
 10
55.2385889718
 20
855.7273516326
 30
0.0
 40
3.153623445620701
100
AcDbArc
 50
282.7665812612
 51
301.4971562115
  0
ARC
  5
107
330
93
100
AcDbEntity
  8
DV1_Default
 62
     7
100
AcDbCircle
 10
57.1824634333
 20
856.0597742648
 30
0.0
 40
3.619826461996337
100
AcDbArc
 50
289.6942001482
 51
302.3846503125
  0
ARC
  5
108
330
93
100
AcDbEntity
  8
DV1_Default
 62
     7
100
AcDbCircle
 10
72.2279306481
 20
854.0445508828
 30
0.0
 40
1.399999999999985
100
AcDbArc
 50
330.4070123106
 51
340.675327051
  0
ARC
  5
109
330
93
100
AcDbEntity
  8
DV1_Default
 62
     7
100
AcDbCircle
 10
52.8121745506
 20
854.0445508828
 30
0.0
 40
1.399999999999997
100
AcDbArc
 50
199.3246729489
 51
209.5797102277
  0
LINE
  5
10A
330
93
100
AcDbEntity
  8
DV1_Default
 62
     7
100
AcDbLine
 10
72.0637748143
 20
852.6445508828
 30
0.0
 11
72.1651441827
 21
852.645682341
 31
0.0
  0
LINE
  5
10B
330
93
100
AcDbEntity
  8
DV1_Default
 62
     7
100
AcDbLine
 10
71.0480547323
 20
852.6445508828
 30
0.0
 11
71.2856124732
 21
852.6445508828
 31
0.0
  0
LINE
  5
10C
330
93
100
AcDbEntity
  8
DV1_Default
 62
     7
100
AcDbLine
 10
69.1933378231
 20
852.6445508828
 30
0.0
 11
69.5700968255
 21
852.6445508828
 31
0.0
  0
LINE
  5
10D
330
93
100
AcDbEntity
  8
DV1_Default
 62
     7
100
AcDbLine
 10
66.6856451876
 20
852.6445508828
 30
0.0
 11
67.1666213249
 21
852.6445508828
 31
0.0
  0
LINE
  5
10E
330
93
100
AcDbEntity
  8
DV1_Default
 62
     7
100
AcDbLine
 10
63.7767270776
 20
852.6445508828
 30
0.0
 11
64.2989165029
 21
852.6445508828
 31
0.0
  0
LINE
  5
10F
330
93
100
AcDbEntity
  8
DV1_Default
 62
     7
100
AcDbLine
 10
60.7757420624
 20
852.6516907717
 30
0.0
 11
61.2599935662
 21
852.6445508828
 31
0.0
  0
LINE
  5
110
330
93
100
AcDbEntity
  8
DV1_Default
 62
     7
100
AcDbLine
 10
57.9544080055
 20
852.6516907717
 30
0.0
 11
58.3238248262
 21
852.6480219828
 31
0.0
  0
LINE
  5
111
330
93
100
AcDbEntity
  8
DV1_Default
 62
     7
100
AcDbLine
 10
55.4666755689
 20
852.6445508828
 30
0.0
 11
55.8482233905
 21
852.6445508828
 31
0.0
  0
LINE
  5
112
330
93
100
AcDbEntity
  8
DV1_Default
 62
     7
100
AcDbLine
 10
53.7526305108
 20
852.6482298336
 30
0.0
 11
53.9951753885
 21
852.6445508828
 31
0.0
  0
ARC
  5
113
330
93
100
AcDbEntity
  8
DV1_Default
 62
     7
100
AcDbCircle
 10
62.5232556037
 20
851.7753944901
 30
0.0
 40
1.455364415027386
100
AcDbArc
 50
57.5410918709
 51
90.126098273
  0
ARC
  5
114
330
93
100
AcDbEntity
  8
DV1_Default
 62
     7
100
AcDbCircle
 10
65.0189640971
 20
851.4200272457
 30
0.0
 40
1.812463232782906
100
AcDbArc
 50
60.7017161292
 51
81.0734088515
  0
ARC
  5
115
330
93
100
AcDbEntity
  8
DV1_Default
 62
     7
100
AcDbCircle
 10
73.9246304039
 20
853.8573153647
 30
0.0
 40
0.2799999999999975
100
AcDbArc
 50
155.2475683549
 51
165.7153084058
  0
ARC
  5
116
330
93
100
AcDbEntity
  8
DV1_Default
 62
     7
100
AcDbCircle
 10
51.1154747948
 20
853.8573153647
 30
0.0
 40
0.2800000000000037
100
AcDbArc
 50
14.2846915942
 51
24.7524316437
  0
ARC
  5
117
330
93
100
AcDbEntity
  8
DV1_Default
 62
     7
100
AcDbCircle
 10
69.6800525993
 20
854.9380370039
 30
0.0
 40
4.100000000000011
100
AcDbArc
 50
340.675327051
 51
345.7153084057
  0
ARC
  5
118
330
93
100
AcDbEntity
  8
DV1_Default
 62
     7
100
AcDbCircle
 10
55.3600525993
 20
854.9380370039
 30
0.0
 40
4.099999999999999
100
AcDbArc
 50
194.2846915943
 51
199.3246729489
  0
ARC
  5
119
330
93
100
AcDbEntity
  8
DV1_Default
 62
     7
100
AcDbCircle
 10
62.5453824789
 20
851.7756216787
 30
0.0
 40
1.455354431321873
100
AcDbArc
 50
90.9972609593
 51
122.487004009
  0
ARC
  5
11A
330
93
100
AcDbEntity
  8
DV1_Default
 62
     7
100
AcDbCircle
 10
67.2609761137
 20
854.0440763786
 30
0.0
 40
1.402702548471997
100
AcDbArc
 50
266.1430052146
 51
312.0774040171
  0
ARC
  5
11B
330
93
100
AcDbEntity
  8
DV1_Default
 62
     7
100
AcDbCircle
 10
69.4883509435
 20
853.8830689859
 30
0.0
 40
1.241212907163217
100
AcDbArc
 50
273.7762148221
 51
304.9492890836
  0
ARC
  5
11C
330
93
100
AcDbEntity
  8
DV1_Default
 62
     7
100
AcDbCircle
 10
71.3194523735
 20
852.8545512451
 30
0.0
 40
0.2127094050950696
100
AcDbArc
 50
260.8459300945
 51
328.1924000135
  0
LINE
  5
11D
330
93
100
AcDbEntity
  8
DV1_Default
 62
     7
100
AcDbLine
 10
129.8830437676
 20
548.4743844662
 30
0.0
 11
156.6010995605
 21
548.4298602475
 31
0.0
  0
ENDBLK
  5
11F
330
93
100
AcDbEntity
  8
0
100
AcDbBlockEnd
  0
BLOCK
  5
1AC
330
120
100
AcDbEntity
  8
0
100
AcDbBlockBegin
  2
SE1
 70
     0
 10
0.0
 20
0.0
 30
0.0
  3
SE1
  1

  0
LINE
  5
123
330
120
100
AcDbEntity
  8
DV2_Default
 62
     7
100
AcDbLine
 10
328.1069835104
 20
705.4745508828
 30
0.0
 11
299.1063322513
 21
705.4745508828
 31
0.0
  0
LINE
  5
124
330
120
100
AcDbEntity
  8
DV2_Default
 62
     7
100
AcDbLine
 10
283.8233201045
 20
505.4745508828
 30
0.0
 11
343.3899959781
 21
505.4745508828
 31
0.0
  0
SPLINE
  5
125
330
120
100
AcDbEntity
  8
DV2_Default
 62
     7
100
AcDbSpline
210
0.0
220
0.0
230
1.0
 70
     8
 71
     3
 72
    23
 73
    19
 74
     0
 42
0.000000001
 43
0.0000000001
 40
0.0
 40
0.0
 40
0.0
 40
0.0
 40
0.0305542408629072
 40
0.0665127335842229
 40
0.1052506517660996
 40
0.1466367685632269
 40
0.1905376739739711
 40
0.2368184177637816
 40
0.2942336782224521
 40
0.354541460699561
 40
0.4175165521269358
 40
0.4829330035388104
 40
0.5636789012522794
 40
0.6471812857991611
 40
0.7330573402048097
 40
0.8209242860629048
 40
0.9103996349832841
 40
1.0
 40
1.0
 40
1.0
 40
1.0
 10
298.6015754759146
 20
704.9755218693494
 30
0.0
 10
298.5875619253388
 20
702.7362638556018
 30
0.0
 10
298.5586070732129
 20
698.6198353620549
 30
0.0
 10
298.3509644395888
 20
691.4636844940161
 30
0.0
 10
298.0340921983858
 20
683.780781716548
 30
0.0
 10
297.602430681353
 20
675.5152360264136
 30
0.0
 10
297.0701170557982
 20
666.7692954215016
 30
0.0
 10
296.4038929297164
 20
656.9567490279746
 30
0.0
 10
295.596689656137
 20
646.0598982910499
 30
0.0
 10
294.6465024287349
 20
634.0579902179527
 30
0.0
 10
293.6068966917609
 20
621.5285643896684
 30
0.0
 10
292.417438440593
 20
607.6455851566016
 30
0.0
 10
291.0820591067912
 20
592.4006385691653
 30
0.0
 10
289.6139011202884
 20
575.8066039812198
 30
0.0
 10
288.104275244096
 20
558.709975420495
 30
0.0
 10
286.5903742883307
 20
541.3299973924948
 30
0.0
 10
285.0514439329413
 20
523.2602759817665
 30
0.0
 10
284.1556771157819
 20
512.2392178273585
 30
0.0
 10
283.6246252360091
 20
505.6939694167098
 30
0.0
  0
SPLINE
  5
126
330
120
100
AcDbEntity
  8
DV2_Default
 62
     7
100
AcDbSpline
210
0.0
220
0.0
230
1.0
 70
     8
 71
     3
 72
    23
 73
    19
 74
     0
 42
0.000000001
 43
0.0000000001
 40
0.0
 40
0.0
 40
0.0
 40
0.0
 40
0.08551723997052
 40
0.1710167918663684
 40
0.2550825252434062
 40
0.3373818200948767
 40
0.4175817883790055
 40
0.4953494701011874
 40
0.5703520536450082
 40
0.6422571402351709
 40
0.6963649455114138
 40
0.7481953945823915
 40
0.7975887604525886
 40
0.8443862105376309
 40
0.8884301611327171
 40
0.929564791709386
 40
0.9676368176438552
 40
1.0
 40
1.0
 40
1.0
 40
1.0
 10
343.5889914829281
 20
505.6904962505564
 30
0.0
 10
343.0824442003222
 20
511.9376087504528
 30
0.0
 10
342.2274924372368
 20
522.4630938290845
 30
0.0
 10
340.7601973404664
 20
539.7306865055842
 30
0.0
 10
339.3148726346485
 20
556.3614851105858
 30
0.0
 10
337.870043302604
 20
572.7488009096938
 30
0.0
 10
336.4591680670998
 20
588.6890859657341
 30
0.0
 10
335.0997602794241
 20
604.1532670015035
 30
0.0
 10
333.8134438478008
 20
619.0671793176979
 30
0.0
 10
332.7002677167206
 20
632.4141575752719
 30
0.0
 10
331.7601664759069
 20
644.226246403145
 30
0.0
 10
330.9838372204877
 20
654.5462007760842
 30
0.0
 10
330.2982481498344
 20
664.3859613324836
 30
0.0
 10
329.713949907647
 20
673.7071361697547
 30
0.0
 10
329.2390408318104
 20
682.5019378781726
 30
0.0
 10
328.8896979677745
 20
690.6588158340147
 30
0.0
 10
328.6598521266953
 20
698.2444018139043
 30
0.0
 10
328.6276356376938
 20
702.6036627520818
 30
0.0
 10
328.611987884037
 20
704.9755303566545
 30
0.0
  0
ARC
  5
127
330
120
100
AcDbEntity
  8
DV2_Default
 62
     7
100
AcDbCircle
 10
328.1070935399
 20
704.9746765447
 30
0.0
 40
0.4998743974531072
100
AcDbArc
 50
0.0830787408
 51
90.0279100508
  0
ARC
  5
128
330
120
100
AcDbEntity
  8
DV2_Default
 62
     7
100
AcDbCircle
 10
299.1062222219
 20
704.9746765447
 30
0.0
 40
0.4998743974531374
100
AcDbArc
 50
89.9720899492
 51
179.9169212592
  0
ARC
  5
129
330
120
100
AcDbEntity
  8
DV2_Default
 62
     7
100
AcDbCircle
 10
283.8233201045
 20
505.6745508828
 30
0.0
 40
0.1999999999999903
100
AcDbArc
 50
175.4186019066
 51
270.0
  0
ARC
  5
12A
330
120
100
AcDbEntity
  8
DV2_Default
 62
     7
100
AcDbCircle
 10
343.3899959781
 20
505.6745508828
 30
0.0
 40
0.2
100
AcDbArc
 50
270.0
 51
4.5813980934
  0
SPLINE
  5
12B
330
120
100
AcDbEntity
  8
DV2_Default
 62
     7
100
AcDbSpline
210
0.0
220
0.0
230
1.0
 70
     8
 71
     3
 72
    14
 73
    10
 74
     0
 42
0.000000001
 43
0.0000000001
 40
0.0
 40
0.0
 40
0.0
 40
0.0
 40
0.25
 40
0.25
 40
0.5
 40
0.5
 40
0.75
 40
0.75
 40
1.0
 40
1.0
 40
1.0
 40
1.0
 10
298.6066578808617
 20
823.9745508828081
 30
0.0
 10
298.6900067737248
 20
832.2242584975435
 30
0.0
 10
300.4128825384339
 20
840.4311211042879
 30
0.0
 10
306.8535518931232
 20
855.5447514231471
 30
0.0
 10
311.5685547870666
 20
862.4426465674869
 30
0.0
 10
323.2564133263385
 20
873.8948028464478
 30
0.0
 10
330.2244862574623
 20
878.4447435978142
 30
0.0
 10
345.3447421748075
 20
884.5273599654572
 30
0.0
 10
353.4883516135216
 20
886.0578951190835
 30
0.0
 10
361.6066578808617
 20
885.9745508828081
 30
0.0
  0
LINE
  5
12C
330
120
100
AcDbEntity
  8
DV2_Default
 62
     7
100
AcDbLine
 10
298.8066578809
 20
705.9745508828
 30
0.0
 11
328.4066578809
 21
705.9745508828
 31
0.0
  0
LINE
  5
12D
330
120
100
AcDbEntity
  8
DV2_Default
 62
     7
100
AcDbLine
 10
416.1066578809
 20
858.3220785792
 30
0.0
 11
419.1066578809
 21
858.3220785792
 31
0.0
  0
LINE
  5
12E
330
120
100
AcDbEntity
  8
DV2_Default
 62
     7
100
AcDbLine
 10
416.1066578809
 20
858.3220785792
 30
0.0
 11
416.1066578809
 21
857.9745508828
 31
0.0
  0
LINE
  5
12F
330
120
100
AcDbEntity
  8
DV2_Default
 62
     7
100
AcDbLine
 10
419.6066578809
 20
858.6523888961
 30
0.0
 11
419.6066578809
 21
885.7745508828
 31
0.0
  0
ARC
  5
130
330
120
100
AcDbEntity
  8
DV2_Default
 62
     7
100
AcDbCircle
 10
419.3272224026
 20
858.6617526309
 30
0.0
 40
0.279592321123744
100
AcDbArc
 50
286.5057640568
 51
358.080766928
  0
ARC
  5
131
330
120
100
AcDbEntity
  8
DV2_Default
 62
     7
100
AcDbCircle
 10
416.0066578808
 20
871.974550883
 30
0.0
 40
14.0000000001859
100
AcDbArc
 50
282.792953727
 51
284.0552328202
  0
LINE
  5
132
330
120
100
AcDbEntity
  8
DV2_Default
 62
     7
100
AcDbLine
 10
328.6066578809
 20
706.1745508828
 30
0.0
 11
328.6066578809
 21
823.9745508828
 31
0.0
  0
LINE
  5
133
330
120
100
AcDbEntity
  8
DV2_Default
 62
     7
100
AcDbLine
 10
298.6066578809
 20
823.9745508828
 30
0.0
 11
298.6066578809
 21
706.1745508828
 31
0.0
  0
SPLINE
  5
134
330
120
100
AcDbEntity
  8
DV2_Default
 62
     7
100
AcDbSpline
210
0.0
220
0.0
230
1.0
 70
     8
 71
     3
 72
    24
 73
    20
 74
     0
 42
0.000000001
 43
0.0000000001
 40
0.0
 40
0.0
 40
0.0
 40
0.0
 40
0.0819979247046701
 40
0.1565104712473214
 40
0.2234914234987208
 40
0.2829030801439092
 40
0.3346962488411688
 40
0.3788316703398881
 40
0.4152753687721126
 40
0.4491802419458176
 40
0.4905704165805147
 40
0.5397284796216388
 40
0.5966855041532185
 40
0.6614777868684187
 40
0.7341437854550997
 40
0.8147323838241889
 40
0.8729087255222613
 40
0.9346550680104738
 40
1.0
 40
1.0
 40
1.0
 40
1.0
 10
328.6066578808617
 20
823.9745508828081
 30
0.0
 10
328.6286258460276
 20
825.5560910921856
 30
0.0
 10
328.6868234322267
 20
828.1024355656314
 30
0.0
 10
329.3800774254919
 20
832.0474921278868
 30
0.0
 10
330.3575942873828
 20
835.4204988114012
 30
0.0
 10
331.5291155986455
 20
838.3265946380624
 30
0.0
 10
332.76791080753
 20
840.7550677652712
 30
0.0
 10
333.9761344449808
 20
842.7394741627944
 30
0.0
 10
335.1268610671931
 20
844.3857954191872
 30
0.0
 10
336.336786009379
 20
845.9281911220348
 30
0.0
 10
337.7841208197475
 20
847.563703303827
 30
0.0
 10
339.6351047364757
 20
849.3742627445132
 30
0.0
 10
341.9476543625387
 20
851.2867089734698
 30
0.0
 10
344.7738050703018
 20
853.2043770144961
 30
0.0
 10
348.1542630815271
 20
855.0052177328458
 30
0.0
 10
351.6285417559387
 20
856.3464004344664
 30
0.0
 10
355.0135300664166
 20
857.2488279372969
 30
0.0
 10
358.2829555268141
 20
857.8123408380382
 30
0.0
 10
360.3474311010253
 20
857.9186690813979
 30
0.0
 10
361.6066578808617
 20
857.9745508828081
 30
0.0
  0
LINE
  5
135
330
120
100
AcDbEntity
  8
DV2_Default
 62
     7
100
AcDbLine
 10
361.6066578809
 20
857.9745508828
 30
0.0
 11
416.1066578809
 21
857.9745508828
 31
0.0
  0
LINE
  5
136
330
120
100
AcDbEntity
  8
DV2_Default
 62
     7
100
AcDbLine
 10
419.4066578809
 20
885.9745508828
 30
0.0
 11
361.6066578809
 21
885.9745508828
 31
0.0
  0
ARC
  5
137
330
120
100
AcDbEntity
  8
DV2_Default
 62
     7
100
AcDbCircle
 10
419.4066578809
 20
885.7745508828
 30
0.0
 40
0.2000000000000057
100
AcDbArc
 50
0.0
 51
90.0
  0
ARC
  5
138
330
120
100
AcDbEntity
  8
DV2_Default
 62
     7
100
AcDbCircle
 10
328.4066578809
 20
706.1745508828
 30
0.0
 40
0.2000000000000057
100
AcDbArc
 50
270.0
 51
0.0
  0
ARC
  5
139
330
120
100
AcDbEntity
  8
DV2_Default
 62
     7
100
AcDbCircle
 10
298.8066578809
 20
706.1745508828
 30
0.0
 40
0.2000000000000057
100
AcDbArc
 50
180.0
 51
270.0
  0
ARC
  5
13A
330
120
100
AcDbEntity
  8
DV2_Default
 62
     7
100
AcDbCircle
 10
346.9327702162
 20
674.146595688
 30
0.0
 40
13.37070905445698
100
AcDbArc
 50
326.6064322371
 51
330.3647381766
  0
ARC
  5
13B
330
120
100
AcDbEntity
  8
DV2_Default
 62
     7
100
AcDbCircle
 10
371.3038057565
 20
659.3821206291
 30
0.0
 40
15.1332920380241
100
AcDbArc
 50
143.7863247358
 51
147.4018300276
  0
LINE
  5
13C
330
120
100
AcDbEntity
  8
DV2_Default
 62
     7
100
AcDbLine
 10
363.1740433187
 20
669.7249876884
 30
0.0
 11
363.1359165147
 21
669.7456043792
 31
0.0
  0
ARC
  5
13D
330
120
100
AcDbEntity
  8
DV2_Default
 62
     7
100
AcDbCircle
 10
262.2079514122
 20
483.544698422
 30
0.0
 40
211.7953942303327
100
AcDbArc
 50
59.9870956005
 51
61.5287537396
  0
ARC
  5
13E
330
120
100
AcDbEntity
  8
DV2_Default
 62
     7
100
AcDbCircle
 10
262.0427298508
 20
483.0805415739
 30
0.0
 40
212.2799752767976
100
AcDbArc
 50
58.4730059724
 51
60.0111446875
  0
LINE
  5
13F
330
120
100
AcDbEntity
  8
DV2_Default
 62
     7
100
AcDbLine
 10
373.0445086299
 20
664.0265421918
 30
0.0
 11
373.0814022713
 21
664.0037916688
 31
0.0
  0
ARC
  5
140
330
120
100
AcDbEntity
  8
DV2_Default
 62
     7
100
AcDbCircle
 10
360.2436044208
 20
665.7894958451
 30
0.0
 40
14.88805652659712
100
AcDbArc
 50
332.5683826077
 51
336.2434626288
  0
ARC
  5
141
330
120
100
AcDbEntity
  8
DV2_Default
 62
     7
100
AcDbCircle
 10
387.9674939825
 20
650.5584187894
 30
0.0
 40
16.75203099521583
100
AcDbArc
 50
150.0146579982
 51
153.0141715881
  0
ARC
  5
142
330
120
100
AcDbEntity
  8
DV2_Default
 62
     7
100
AcDbCircle
 10
72355.6636425592
 20
-43082.9708765573
 30
0.0
 40
84247.79441307932
100
AcDbArc
 50
148.7148104271
 51
148.7473426189
  0
SPLINE
  5
143
330
120
100
AcDbEntity
  8
DV2_Default
 62
     7
100
AcDbSpline
210
0.0
220
0.0
230
1.0
 70
     8
 71
     3
 72
    12
 73
     8
 74
     0
 42
0.000000001
 43
0.0000000001
 40
0.0
 40
0.0
 40
0.0
 40
0.0
 40
0.2658350599548622
 40
0.4737598958580728
 40
0.6590237057441871
 40
0.7586947713089627
 40
1.0
 40
1.0
 40
1.0
 40
1.0
 10
363.1516036030296
 20
669.7368756364807
 30
0.0
 10
362.7537551865258
 20
669.9349438718398
 30
0.0
 10
362.1442142680369
 20
670.2098303403275
 30
0.0
 10
361.1411131590349
 20
670.1692439036411
 30
0.0
 10
360.4580131765155
 20
669.8150932948561
 30
0.0
 10
359.787003828717
 20
669.2585711249817
 30
0.0
 10
359.4101576270064
 20
668.7877896672568
 30
0.0
 10
359.101341578642
 20
668.3901250884347
 30
0.0
  0
ARC
  5
144
330
120
100
AcDbEntity
  8
DV2_Default
 62
     7
100
AcDbCircle
 10
-189.4631693935
 20
1024.0863228161
 30
0.0
 40
653.821781279931
100
AcDbArc
 50
326.8753084961
 51
326.8959174991
  0
ARC
  5
145
330
120
100
AcDbEntity
  8
DV2_Default
 62
     7
100
AcDbCircle
 10
956.2489115596
 20
362.6091444545
 30
0.0
 40
653.8217811268099
100
AcDbArc
 50
153.1040825009
 51
153.1246915039
  0
SPLINE
  5
146
330
120
100
AcDbEntity
  8
DV2_Default
 62
     7
100
AcDbSpline
210
0.0
220
0.0
230
1.0
 70
     8
 71
     3
 72
    18
 73
    14
 74
     0
 42
0.000000001
 43
0.0000000001
 40
0.0
 40
0.0
 40
0.0
 40
0.0
 40
0.1374196848901501
 40
0.2223864479700083
 40
0.2851686038605613
 40
0.3957408489529137
 40
0.5015358345197445
 40
0.575800740737461
 40
0.6825266366447728
 40
0.7190643473835366
 40
0.7695613534853408
 40
0.8573567365559166
 40
1.0
 40
1.0
 40
1.0
 40
1.0
 10
373.9247129484468
 20
659.8318476377802
 30
0.0
 10
374.0376564956979
 20
660.0998698041877
 30
0.0
 10
374.1886241930957
 20
660.4654345910951
 30
0.0
 10
374.3350057005225
 20
660.9570518874161
 30
0.0
 10
374.4286906732721
 20
661.3864279366602
 30
0.0
 10
374.4742760913227
 20
661.8399397797194
 30
0.0
 10
374.4376669693513
 20
662.2790437313954
 30
0.0
 10
374.3198495117221
 20
662.7017455330908
 30
0.0
 10
374.1745330486729
 20
662.9854190375963
 30
0.0
 10
374.0104220735564
 20
663.2171830626592
 30
0.0
 10
373.8489861856849
 20
663.4083496158365
 30
0.0
 10
373.5460829370925
 20
663.6964571780298
 30
0.0
 10
373.270996113078
 20
663.8797080524918
 30
0.0
 10
373.0659021234213
 20
664.0128527169062
 30
0.0
  0
ARC
  5
147
330
120
100
AcDbEntity
  8
DV2_Default
 62
     7
100
AcDbCircle
 10
-74223.4589646659
 20
41524.8434268731
 30
0.0
 40
85057.17583241065
100
AcDbArc
 50
331.2340370565
 51
331.2844768854
  0
ELLIPSE
  5
148
330
120
100
AcDbEntity
  8
DV2_Default
 62
     7
100
AcDbEllipse
 10
415.3014019926
 20
871.9745508829
 30
0.0
 11
22.34345541752331
 21
-3.758104938356155E-11
 31
0.0
210
0.0
220
0.0
230
1.0
 40
0.5773502692
 41
1.367767886469155
 42
1.376898308039547
  0
LINE
  5
149
330
120
100
AcDbEntity
  8
DV2_Default
 62
     7
100
AcDbLine
 10
419.8066578809
 20
858.2997565516
 30
0.0
 11
419.8066578809
 21
857.9745508828
 31
0.0
  0
LINE
  5
14A
330
120
100
AcDbEntity
  8
DV2_Default
 62
     7
100
AcDbLine
 10
419.8066578809
 20
858.2997565516
 30
0.0
 11
419.8066578809
 21
858.8121043017
 31
0.0
  0
LINE
  5
14B
330
120
100
AcDbEntity
  8
DV2_Default
 62
     7
100
AcDbLine
 10
416.3066578809
 20
858.1995735689
 30
0.0
 11
416.3066578809
 21
857.9745508828
 31
0.0
  0
LINE
  5
14C
330
120
100
AcDbEntity
  8
DV2_Default
 62
     7
100
AcDbLine
 10
416.3066578809
 20
858.1995735689
 30
0.0
 11
416.3066578809
 21
858.3220785792
 31
0.0
  0
LINE
  5
14D
330
120
100
AcDbEntity
  8
DV2_Default
 62
     7
100
AcDbLine
 10
419.6066578809
 20
859.428236683
 30
0.0
 11
419.8066578809
 21
859.428236683
 31
0.0
  0
LINE
  5
14E
330
120
100
AcDbEntity
  8
DV2_Default
 62
     7
100
AcDbLine
 10
416.3066578809
 20
857.9745508828
 30
0.0
 11
419.8066578809
 21
857.9745508828
 31
0.0
  0
LINE
  5
14F
330
120
100
AcDbEntity
  8
DV2_Default
 62
     7
100
AcDbLine
 10
328.1066578809
 20
705.4745508828
 30
0.0
 11
299.1066578809
 21
705.4745508828
 31
0.0
  0
LINE
  5
150
330
120
100
AcDbEntity
  8
DV2_Default
 62
     7
100
AcDbLine
 10
328.1066578809
 20
705.4745508828
 30
0.0
 11
328.1066578809
 21
705.9745508828
 31
0.0
  0
LINE
  5
151
330
120
100
AcDbEntity
  8
DV2_Default
 62
     7
100
AcDbLine
 10
299.1066578809
 20
705.9745508828
 30
0.0
 11
299.1066578809
 21
705.4745508828
 31
0.0
  0
LINE
  5
152
330
120
100
AcDbEntity
  8
DV2_Default
 62
     7
100
AcDbLine
 10
286.8066578809
 20
505.4744665483
 30
0.0
 11
340.4066578809
 21
505.4744665483
 31
0.0
  0
ARC
  5
153
330
120
100
AcDbEntity
  8
DV2_Default
 62
     7
100
AcDbCircle
 10
286.8066578809
 20
505.6744665483
 30
0.0
 40
0.2000000000000057
100
AcDbArc
 50
268.3360488674
 51
270.0
  0
ARC
  5
154
330
120
100
AcDbEntity
  8
DV2_Default
 62
     7
100
AcDbCircle
 10
340.4066578809
 20
505.6744665483
 30
0.0
 40
0.2
100
AcDbArc
 50
270.0
 51
271.6639511327
  0
LINE
  5
155
330
120
100
AcDbEntity
  8
DV2_Default
 62
     7
100
AcDbLine
 10
419.8066578809
 20
858.8121043017
 30
0.0
 11
419.8066578809
 21
885.4745508828
 31
0.0
  0
ARC
  5
156
330
120
100
AcDbEntity
  8
DV2_Default
 62
     7
100
AcDbCircle
 10
467.2039975796
 20
844.8221998798
 30
0.0
 40
15.65851517583227
100
AcDbArc
 50
94.8661073375
 51
122.8652861126
  0
LINE
  5
157
330
120
100
AcDbEntity
  8
DV2_Default
 62
     7
100
AcDbLine
 10
530.4714475812
 20
853.9745508828
 30
0.0
 11
504.4714475812
 21
853.9745508828
 31
0.0
  0
LINE
  5
158
330
120
100
AcDbEntity
  8
DV2_Default
 62
     7
100
AcDbLine
 10
540.0066578809
 20
858.4745508828
 30
0.0
 11
540.0066578809
 21
885.4745508828
 31
0.0
  0
ARC
  5
159
330
120
100
AcDbEntity
  8
DV2_Default
 62
     7
100
AcDbCircle
 10
420.3066578809
 20
885.4745508828
 30
0.0
 40
0.5000000000000004
100
AcDbArc
 50
90.0
 51
180.0
  0
ARC
  5
15A
330
120
100
AcDbEntity
  8
DV2_Default
 62
     7
100
AcDbCircle
 10
420.3066578809
 20
858.4745508828
 30
0.0
 40
0.5000000000000004
100
AcDbArc
 50
180.0
 51
270.0
  0
LINE
  5
15B
330
120
100
AcDbEntity
  8
DV2_Default
 62
     7
100
AcDbLine
 10
539.5066578809
 20
885.9745508828
 30
0.0
 11
420.3066578809
 21
885.9745508828
 31
0.0
  0
LINE
  5
15C
330
120
100
AcDbEntity
  8
DV2_Default
 62
     7
100
AcDbLine
 10
531.9519647035
 20
857.9745508828
 30
0.0
 11
539.5066578809
 21
857.9745508828
 31
0.0
  0
LINE
  5
15D
330
120
100
AcDbEntity
  8
DV2_Default
 62
     7
100
AcDbLine
 10
492.1053397198
 20
857.9745508828
 30
0.0
 11
502.9755833147
 21
857.9745508828
 31
0.0
  0
LINE
  5
15E
330
120
100
AcDbEntity
  8
DV2_Default
 62
     7
100
AcDbLine
 10
420.3066578809
 20
857.9745508828
 30
0.0
 11
458.7080492997
 21
857.9745508828
 31
0.0
  0
ARC
  5
15F
330
120
100
AcDbEntity
  8
DV2_Default
 62
     7
100
AcDbCircle
 10
458.7234762881
 20
858.2292912009
 30
0.0
 40
0.2521757892023332
100
AcDbArc
 50
266.4790258391
 51
299.0363264171
  0
ARC
  5
160
330
120
100
AcDbEntity
  8
DV2_Default
 62
     7
100
AcDbCircle
 10
467.0699270102
 20
845.1958803329
 30
0.0
 40
15.22518466993418
100
AcDbArc
 50
119.2286315113
 51
122.684734919
  0
LINE
  5
161
330
120
100
AcDbEntity
  8
DV2_Default
 62
     7
100
AcDbLine
 10
466.5066578813
 20
860.4072728184
 30
0.0
 11
466.6528832224
 21
860.4154181247
 31
0.0
  0
LINE
  5
162
330
120
100
AcDbEntity
  8
DV2_Default
 62
     7
100
AcDbLine
 10
466.4974476037
 20
860.4118102526
 30
0.0
 11
484.3158537117
 21
860.4118102526
 31
0.0
  0
ARC
  5
163
330
120
100
AcDbEntity
  8
DV2_Default
 62
     7
100
AcDbCircle
 10
483.7433685209
 20
845.1958500669
 30
0.0
 40
15.22522153311125
100
AcDbArc
 50
57.3152657916
 51
60.7450063788
  0
ARC
  5
164
330
120
100
AcDbEntity
  8
DV2_Default
 62
     7
100
AcDbCircle
 10
483.7433868471
 20
845.1962537243
 30
0.0
 40
15.22487110913774
100
AcDbArc
 50
57.3145103278
 51
88.4304280757
  0
ARC
  5
165
330
120
100
AcDbEntity
  8
DV2_Default
 62
     7
100
AcDbCircle
 10
492.0898702394
 20
858.2293671103
 30
0.0
 40
0.2522570681874477
100
AcDbArc
 50
240.9661982855
 51
273.5307292561
  0
ARC
  5
166
330
120
100
AcDbEntity
  8
DV2_Default
 62
     7
100
AcDbCircle
 10
530.4714475812
 20
854.4745508828
 30
0.0
 40
0.5000000000000004
100
AcDbArc
 50
270.0
 51
0.0
  0
ARC
  5
167
330
120
100
AcDbEntity
  8
DV2_Default
 62
     7
100
AcDbCircle
 10
504.4714475812
 20
854.4745508828
 30
0.0
 40
0.5000000000000004
100
AcDbArc
 50
180.0
 51
270.0
  0
LINE
  5
168
330
120
100
AcDbEntity
  8
DV2_Default
 62
     7
100
AcDbLine
 10
530.9714475812
 20
854.4745508828
 30
0.0
 11
530.9714475812
 21
856.9928080104
 31
0.0
  0
LINE
  5
169
330
120
100
AcDbEntity
  8
DV2_Default
 62
     7
100
AcDbLine
 10
503.9714475812
 20
856.9786916902
 30
0.0
 11
503.9714475812
 21
854.4745508828
 31
0.0
  0
ARC
  5
16A
330
120
100
AcDbEntity
  8
DV2_Default
 62
     7
100
AcDbCircle
 10
502.9714476657
 20
856.9745509923
 30
0.0
 40
0.999999936378852
100
AcDbArc
 50
359.5184000085
 51
90.5131110699
  0
ARC
  5
16B
330
120
100
AcDbEntity
  8
DV2_Default
 62
     7
100
AcDbCircle
 10
531.9714444913
 20
856.9745533383
 30
0.0
 40
1.000001415236474
100
AcDbArc
 50
89.4525960633
 51
180.4815375885
  0
ARC
  5
16C
330
120
100
AcDbEntity
  8
DV2_Default
 62
     7
100
AcDbCircle
 10
539.5066578809
 20
885.4745508828
 30
0.0
 40
0.5000000000000004
100
AcDbArc
 50
0.0
 51
90.0
  0
ARC
  5
16D
330
120
100
AcDbEntity
  8
DV2_Default
 62
     7
100
AcDbCircle
 10
539.5066578809
 20
858.4745508828
 30
0.0
 40
0.5000000000000004
100
AcDbArc
 50
270.0
 51
0.0
  0
ARC
  5
16E
330
120
100
AcDbEntity
  8
DV2_Default
 62
     7
100
AcDbCircle
 10
489.8731309465
 20
857.4745520673
 30
0.0
 40
0.9999999180528641
100
AcDbArc
 50
270.0001275278
 51
343.997445883
  0
SPLINE
  5
16F
330
120
100
AcDbEntity
  8
DV2_Default
 62
     7
100
AcDbSpline
210
0.0
220
0.0
230
1.0
 70
     8
 71
     3
 72
     8
 73
     4
 74
     0
 42
0.000000001
 43
0.0000000001
 40
0.0
 40
0.0
 40
0.0
 40
0.0
 40
1.0
 40
1.0
 40
1.0
 40
1.0
 10
490.8343812793617
 20
857.1988715956181
 30
0.0
 10
490.9536210135294
 20
857.6146407494587
 30
0.0
 10
491.0560584706823
 20
858.0352295665772
 30
0.0
 10
491.1413782863355
 20
858.4592616615454
 30
0.0
  0
SPLINE
  5
170
330
120
100
AcDbEntity
  8
DV2_Default
 62
     7
100
AcDbSpline
210
0.0
220
0.0
230
1.0
 70
     8
 71
     3
 72
     8
 73
     4
 74
     0
 42
0.000000001
 43
0.0000000001
 40
0.0
 40
0.0
 40
0.0
 40
0.0
 40
0.9999999999999999
 40
0.9999999999999999
 40
0.9999999999999999
 40
0.9999999999999999
 10
459.6715314321344
 20
858.4612793412665
 30
0.0
 10
459.7569323030596
 20
858.0365637688095
 30
0.0
 10
459.8595056731392
 20
857.6153002174676
 30
0.0
 10
459.9789345337917
 20
857.1988716109581
 30
0.0
  0
ARC
  5
171
330
120
100
AcDbEntity
  8
DV2_Default
 62
     7
100
AcDbCircle
 10
460.9401849278
 20
857.474552116
 30
0.0
 40
0.9999999146917959
100
AcDbArc
 50
196.0025549882
 51
269.9999999949
  0
LINE
  5
172
330
120
100
AcDbEntity
  8
DV2_Default
 62
     7
100
AcDbLine
 10
460.9376838051
 20
856.4745508828
 30
0.0
 11
489.8756331723
 21
856.4745508828
 31
0.0
  0
SPLINE
  5
173
330
120
100
AcDbEntity
  8
DV2_Default
 62
     7
100
AcDbSpline
210
0.0
220
0.0
230
1.0
 70
     8
 71
     3
 72
    15
 73
    11
 74
     0
 42
0.000000001
 43
0.0000000001
 40
0.0
 40
0.0
 40
0.0
 40
0.0
 40
0.059439296231041
 40
0.1230758934542058
 40
0.2475240569801666
 40
0.3741741558975397
 40
0.5019541132243919
 40
0.7534925418928611
 40
0.8802157713089317
 40
1.0
 40
1.0
 40
1.0
 40
1.0
 10
520.8012650845677
 20
853.3902350709477
 30
0.0
 10
520.761625370976
 20
853.3873599454223
 30
0.0
 10
520.6795467886933
 20
853.3814066676201
 30
0.0
 10
520.5137177067779
 20
853.3384301582659
 30
0.0
 10
520.3108266735171
 20
853.2515987487164
 30
0.0
 10
520.0835095292371
 20
853.1237192001271
 30
0.0
 10
519.801105157017
 20
852.9476326478133
 30
0.0
 10
519.5469843801462
 20
852.7954739784551
 30
0.0
 10
519.3654875044323
 20
852.7207936135406
 30
0.0
 10
519.3183122351478
 20
852.7279923006867
 30
0.0
 10
519.2953885747937
 20
852.7314903254279
 30
0.0
  0
ARC
  5
174
330
120
100
AcDbEntity
  8
DV2_Default
 62
     7
100
AcDbCircle
 10
519.2027846193
 20
852.7442674152
 30
0.0
 40
0.0934812632974474
100
AcDbArc
 50
277.9773608805
 51
352.1441788777
  0
ARC
  5
175
330
120
100
AcDbEntity
  8
DV2_Default
 62
     7
100
AcDbCircle
 10
527.093957024
 20
854.1810450084
 30
0.0
 40
1.535528696047162
100
AcDbArc
 50
270.8404125954
 51
300.8704442359
  0
ARC
  5
176
330
120
100
AcDbEntity
  8
DV2_Default
 62
     7
100
AcDbCircle
 10
507.9199006476
 20
853.7389260358
 30
0.0
 40
1.09689428034148
100
AcDbArc
 50
253.4835899392
 51
277.6092333276
  0
ARC
  5
177
330
120
100
AcDbEntity
  8
DV2_Default
 62
     7
100
AcDbCircle
 10
507.8489465554
 20
854.1810818367
 30
0.0
 40
1.535564622179765
100
AcDbArc
 50
239.1299971416
 51
269.1595333988
  0
SPLINE
  5
178
330
120
100
AcDbEntity
  8
DV2_Default
 62
     7
100
AcDbSpline
210
0.0
220
0.0
230
1.0
 70
     8
 71
     3
 72
    14
 73
    10
 74
     0
 42
0.000000001
 43
0.0000000001
 40
0.0
 40
0.0
 40
0.0
 40
0.0
 40
0.2494509353270082
 40
0.4370882093332839
 40
0.6247254833395598
 40
0.8123627573458359
 40
0.9061813943489736
 40
0.9530907128505427
 40
1.0
 40
1.0
 40
1.0
 40
1.0
 10
508.7715651360269
 20
852.662686347014
 30
0.0
 10
508.7928677110429
 20
852.6579368897384
 30
0.0
 10
508.8315735435141
 20
852.6511612475931
 30
0.0
 10
508.8902643322564
 20
852.645611669244
 30
0.0
 10
508.9457148969385
 20
852.6439307720937
 30
0.0
 10
508.9940256224444
 20
852.6454102965456
 30
0.0
 10
509.0289277401556
 20
852.6480160208896
 30
0.0
 10
509.0491789576259
 20
852.649961973296
 30
0.0
 10
509.0594064975342
 20
852.6510886545252
 30
0.0
 10
509.0645458494056
 20
852.6516907717094
 30
0.0
  0
ARC
  5
179
330
120
100
AcDbEntity
  8
DV2_Default
 62
     7
100
AcDbCircle
 10
508.7241946495
 20
854.4071788925
 30
0.0
 40
1.759064678087033
100
AcDbArc
 50
241.3792542179
 51
273.6542893661
  0
SPLINE
  5
17A
330
120
100
AcDbEntity
  8
DV2_Default
 62
     7
100
AcDbSpline
210
0.0
220
0.0
230
1.0
 70
     8
 71
     3
 72
     8
 73
     4
 74
     0
 42
0.000000001
 43
0.0000000001
 40
0.0
 40
0.0
 40
0.0
 40
0.0
 40
1.0
 40
1.0
 40
1.0
 40
1.0
 10
510.7413697456213
 20
852.648021980393
 30
0.0
 10
510.7835370696331
 20
852.6424518536018
 30
0.0
 10
510.832066299842
 20
852.6433697394862
 30
0.0
 10
510.8868706771177
 20
852.6516907717116
 30
0.0
  0
ARC
  5
17B
330
120
100
AcDbEntity
  8
DV2_Default
 62
     7
100
AcDbCircle
 10
510.4595182483
 20
854.3306789073
 30
0.0
 40
1.680525368615611
100
AcDbArc
 50
240.8458890632
 51
272.4510051206
  0
SPLINE
  5
17C
330
120
100
AcDbEntity
  8
DV2_Default
 62
     7
100
AcDbSpline
210
0.0
220
0.0
230
1.0
 70
     8
 71
     3
 72
     8
 73
     4
 74
     0
 42
0.000000001
 43
0.0000000001
 40
0.0
 40
0.0
 40
0.0
 40
0.0
 40
1.0
 40
1.0
 40
1.0
 40
1.0
 10
513.2752197986481
 20
852.6480219807286
 30
0.0
 10
513.2943870908365
 20
852.6424518535077
 30
0.0
 10
513.3205115232827
 20
852.6433697399209
 30
0.0
 10
513.3537397696277
 20
852.6516907717117
 30
0.0
  0
SPLINE
  5
17D
330
120
100
AcDbEntity
  8
DV2_Default
 62
     7
100
AcDbSpline
210
0.0
220
0.0
230
1.0
 70
     8
 71
     3
 72
    15
 73
    11
 74
     0
 42
0.000000001
 43
0.0000000001
 40
0.0
 40
0.0
 40
0.0
 40
0.0
 40
0.1075117453688035
 40
0.2120712441919954
 40
0.3140085600886499
 40
0.4136694124199434
 40
0.5114114486621683
 40
0.6788888039801872
 40
0.8410143730892372
 40
1.0
 40
1.0
 40
1.0
 40
1.0
 10
511.7897483568588
 20
853.0021985501597
 30
0.0
 10
511.8374892998707
 20
852.9806736513223
 30
0.0
 10
511.9316597896829
 20
852.9382155063773
 30
0.0
 10
512.0677572394007
 20
852.8801693585656
 30
0.0
 10
512.1970919823156
 20
852.8279030459764
 30
0.0
 10
512.3193039828835
 20
852.7819928279276
 30
0.0
 10
512.4623479967624
 20
852.7329760474962
 30
0.0
 10
512.6183914620545
 20
852.6883036376609
 30
0.0
 10
512.778136710624
 20
852.6561686603651
 30
0.0
 10
512.8635258838732
 20
852.6531736391254
 30
0.0
 10
512.9058029872838
 20
852.6516907717098
 30
0.0
  0
ARC
  5
17E
330
120
100
AcDbEntity
  8
DV2_Default
 62
     7
100
AcDbCircle
 10
518.8487613965
 20
849.8994105427
 30
0.0
 40
3.803343962851144
100
AcDbArc
 50
128.8107176298
 51
133.800175342
  0
SPLINE
  5
17F
330
120
100
AcDbEntity
  8
DV2_Default
 62
     7
100
AcDbSpline
210
0.0
220
0.0
230
1.0
 70
     8
 71
     3
 72
    15
 73
    11
 74
     0
 42
0.000000001
 43
0.0000000001
 40
0.0
 40
0.0
 40
0.0
 40
0.0
 40
0.1075116727112419
 40
0.2120711349015519
 40
0.3140084497345583
 40
0.4136693358594952
 40
0.5114114397581215
 40
0.6788887821810079
 40
0.8410143540557782
 40
1.0
 40
1.0
 40
1.0
 40
1.0
 10
515.2116337191177
 20
852.8630550402653
 30
0.0
 10
515.2377680281603
 20
852.8476982844741
 30
0.0
 10
515.2893190372192
 20
852.8174069624505
 30
0.0
 10
515.3610996742639
 20
852.7767768064664
 30
0.0
 10
515.4272892527943
 20
852.7409239214588
 30
0.0
 10
515.4875937929266
 20
852.7103710588851
 30
0.0
 10
515.5554457447251
 20
852.6791441917119
 30
0.0
 10
515.6245801682032
 20
852.653592767975
 30
0.0
 10
515.6879209679959
 20
852.6407447605883
 30
0.0
 10
515.7141505123749
 20
852.6480659643428
 30
0.0
 10
515.7271370442197
 20
852.6516907717099
 30
0.0
  0
ARC
  5
180
330
120
100
AcDbEntity
  8
DV2_Default
 62
     7
100
AcDbCircle
 10
515.8273876584
 20
849.5947762981
 30
0.0
 40
4.207938583324873
100
AcDbArc
 50
46.5133943088
 51
48.7533671879
  0
SPLINE
  5
181
330
120
100
AcDbEntity
  8
DV2_Default
 62
     7
100
AcDbSpline
210
0.0
220
0.0
230
1.0
 70
     8
 71
     3
 72
    10
 73
     6
 74
     0
 42
0.000000001
 43
0.0000000001
 40
0.0
 40
0.0
 40
0.0
 40
0.0
 40
0.5
 40
0.5
 40
1.0
 40
1.0
 40
1.0
 40
1.0
 10
523.1510599943625
 20
853.0040537920662
 30
0.0
 10
522.914143414269
 20
852.8955062495522
 30
0.0
 10
522.6950694378635
 20
852.8050966588945
 30
0.0
 10
522.3220548289315
 20
852.6836950762495
 30
0.0
 10
522.1628159324978
 20
852.6501284644601
 30
0.0
 10
522.0370921750307
 20
852.6516907717117
 30
0.0
  0
SPLINE
  5
182
330
120
100
AcDbEntity
  8
DV2_Default
 62
     7
100
AcDbSpline
210
0.0
220
0.0
230
1.0
 70
     8
 71
     3
 72
    10
 73
     6
 74
     0
 42
0.000000001
 43
0.0000000001
 40
0.0
 40
0.0
 40
0.0
 40
0.0
 40
0.0522785193381513
 40
0.5307727749397627
 40
1.0
 40
1.0
 40
1.0
 40
1.0
 10
521.6881136172526
 20
852.658491530176
 30
0.0
 10
521.6871220918977
 20
852.6576702804099
 30
0.0
 10
521.6766797935209
 20
852.6496545483924
 30
0.0
 10
521.6498649936514
 20
852.64074476024
 30
0.0
 10
521.6092595767657
 20
852.6480659640038
 30
0.0
 10
521.5891553927027
 20
852.6516907717098
 30
0.0
  0
ARC
  5
183
330
120
100
AcDbEntity
  8
DV2_Default
 62
     7
100
AcDbCircle
 10
527.1081078432
 20
854.1914165494
 30
0.0
 40
1.537269376986804
100
AcDbArc
 50
300.2193894953
 51
326.9396150849
  0
ARC
  5
184
330
120
100
AcDbEntity
  8
DV2_Default
 62
     7
100
AcDbCircle
 10
507.8350066929
 20
854.1916468016
 30
0.0
 40
1.537578752543736
100
AcDbArc
 50
213.0630606129
 51
239.7778710395
  0
SPLINE
  5
185
330
120
100
AcDbEntity
  8
DV2_Default
 62
     7
100
AcDbSpline
210
0.0
220
0.0
230
1.0
 70
     8
 71
     3
 72
    18
 73
    14
 74
     0
 42
0.000000001
 43
0.0000000001
 40
0.0
 40
0.0
 40
0.0
 40
0.0
 40
0.0609890781570828
 40
0.1237501788744081
 40
0.1889443021765802
 40
0.2571578034540301
 40
0.3288983269769994
 40
0.4045971704883505
 40
0.4846156061421317
 40
0.6076399074546822
 40
0.736282952839218
 40
0.8679246978579848
 40
1.0
 40
1.0
 40
1.0
 40
1.0
 10
514.0954244117407
 20
853.3528026332883
 30
0.0
 10
514.1204091970479
 20
853.3519293625251
 30
0.0
 10
514.1711046944106
 20
853.3501574483313
 30
0.0
 10
514.2493902536072
 20
853.33775337858
 30
0.0
 10
514.3301542816104
 20
853.3184406595617
 30
0.0
 10
514.4135390851422
 20
853.2917061520603
 30
0.0
 10
514.4995286518517
 20
853.2581077993204
 30
0.0
 10
514.5881928495986
 20
853.2180475928046
 30
0.0
 10
514.6941183797052
 20
853.1647482546117
 30
0.0
 10
514.8164201962081
 20
853.0975133959838
 30
0.0
 10
514.9522643855295
 20
853.0183081308137
 30
0.0
 10
515.0859835430366
 20
852.9380618548342
 30
0.0
 10
515.169704283662
 20
852.8880846221053
 30
0.0
 10
515.2116337191177
 20
852.8630550402653
 30
0.0
  0
ARC
  5
186
330
120
100
AcDbEntity
  8
DV2_Default
 62
     7
100
AcDbCircle
 10
527.1738242648
 20
855.0877544221
 30
0.0
 40
2.453990066923576
100
AcDbArc
 50
251.8743301714
 51
263.0703276015
  0
ARC
  5
187
330
120
100
AcDbEntity
  8
DV2_Default
 62
     7
100
AcDbCircle
 10
515.0331634054
 20
851.3236467759
 30
0.0
 40
1.934583224534031
100
AcDbArc
 50
101.6593386879
 51
119.768822449
  0
ARC
  5
188
330
120
100
AcDbEntity
  8
DV2_Default
 62
     7
100
AcDbCircle
 10
516.0624729426
 20
849.8633469033
 30
0.0
 40
3.851289461524598
100
AcDbArc
 50
46.3052402379
 51
46.3844924505
  0
ARC
  5
189
330
120
100
AcDbEntity
  8
DV2_Default
 62
     7
100
AcDbCircle
 10
519.1047399377
 20
849.6070391762
 30
0.0
 40
4.191631873432367
100
AcDbArc
 50
133.4186438528
 51
133.495096355
  0
ARC
  5
18A
330
120
100
AcDbEntity
  8
DV2_Default
 62
     7
100
AcDbCircle
 10
507.8347864543
 20
854.1914153576
 30
0.0
 40
1.537267911887904
100
AcDbArc
 50
213.0603095294
 51
227.5316118148
  0
ARC
  5
18B
330
120
100
AcDbEntity
  8
DV2_Default
 62
     7
100
AcDbCircle
 10
527.1078882754
 20
854.1916472888
 30
0.0
 40
1.537579271216532
100
AcDbArc
 50
300.2221260713
 51
326.9368723868
  0
ARC
  5
18C
330
120
100
AcDbEntity
  8
DV2_Default
 62
     7
100
AcDbCircle
 10
519.909731757
 20
851.3236467761
 30
0.0
 40
1.934583224325236
100
AcDbArc
 50
60.2311775501
 51
78.3406613132
  0
ARC
  5
18D
330
120
100
AcDbEntity
  8
DV2_Default
 62
     7
100
AcDbCircle
 10
507.7702587266
 20
855.0843781501
 30
0.0
 40
2.450495267474143
100
AcDbArc
 50
276.91162667
 51
283.1168605141
  0
ARC
  5
18E
330
120
100
AcDbEntity
  8
DV2_Default
 62
     7
100
AcDbCircle
 10
508.6092287774
 20
855.54693578
 30
0.0
 40
2.930828772590228
100
AcDbArc
 50
278.9373494079
 51
290.3182235115
  0
ARC
  5
18F
330
120
100
AcDbEntity
  8
DV2_Default
 62
     7
100
AcDbCircle
 10
510.2097603242
 20
855.73176554
 30
0.0
 40
3.153623155673967
100
AcDbArc
 50
282.3984384035
 51
300.0829760532
  0
SPLINE
  5
190
330
120
100
AcDbEntity
  8
DV2_Default
 62
     7
100
AcDbSpline
210
0.0
220
0.0
230
1.0
 70
     8
 71
     3
 72
    16
 73
    12
 74
     0
 42
0.000000001
 43
0.0000000001
 40
0.0
 40
0.0
 40
0.0
 40
0.0
 40
0.0625000000000015
 40
0.1250000000000006
 40
0.2499999999999988
 40
0.374999999999997
 40
0.4999999999999951
 40
0.7499999999999916
 40
0.8749999999999897
 40
0.9374999999999888
 40
1.0
 40
1.0
 40
1.0
 40
1.0
 10
511.7643657497877
 20
853.0701061179277
 30
0.0
 10
511.7656564072133
 20
853.067487997409
 30
0.0
 10
511.7681961921735
 20
853.0622664533436
 30
0.0
 10
511.7731037671287
 20
853.0519181957063
 30
0.0
 10
511.778875417814
 20
853.0392869284125
 30
0.0
 10
511.7848098379013
 20
853.0256293481854
 30
0.0
 10
511.7911399326419
 20
853.0100459502781
 30
0.0
 10
511.7944962176371
 20
853.000057408824
 30
0.0
 10
511.7938675468407
 20
852.9986016526424
 30
0.0
 10
511.792370255334
 20
853.0001942008666
 30
0.0
 10
511.7912121395798
 20
853.0018669516788
 30
0.0
 10
511.7905254664457
 20
853.0029341832967
 30
0.0
  0
ARC
  5
191
330
120
100
AcDbEntity
  8
DV2_Default
 62
     7
100
AcDbCircle
 10
512.1338572522
 20
856.0597766449
 30
0.0
 40
3.619829094808194
100
AcDbArc
 50
289.6942047823
 51
302.3846456785
  0
ARC
  5
192
330
120
100
AcDbEntity
  8
DV2_Default
 62
     7
100
AcDbCircle
 10
519.567719237
 20
848.7180952302
 30
0.0
 40
5.162923627028351
100
AcDbArc
 50
123.9089742532
 51
129.5459565922
  0
SPLINE
  5
193
330
120
100
AcDbEntity
  8
DV2_Default
 62
     7
100
AcDbSpline
210
0.0
220
0.0
230
1.0
 70
     8
 71
     3
 72
    16
 73
    12
 74
     0
 42
0.000000001
 43
0.0000000001
 40
0.0
 40
0.0
 40
0.0
 40
0.0
 40
0.062500000000001
 40
0.1250000000000008
 40
0.2500000000000004
 40
0.3750000000000001
 40
0.4999999999999997
 40
0.7499999999999989
 40
0.8749999999999986
 40
0.9374999999999983
 40
1.0
 40
1.0
 40
1.0
 40
1.0
 10
516.7335230515107
 20
853.0701061179279
 30
0.0
 10
516.7345599963132
 20
853.0674879985202
 30
0.0
 10
516.7362697674007
 20
853.0622664565607
 30
0.0
 10
516.7383428444228
 20
853.0519182022585
 30
0.0
 10
516.7385885296055
 20
853.0392869379551
 30
0.0
 10
516.7356543172739
 20
853.0256293589038
 30
0.0
 10
516.7276963555964
 20
853.0100459603841
 30
0.0
 10
516.715268186307
 20
853.0000574159906
 30
0.0
 10
516.7017748933281
 20
852.9986016558696
 30
0.0
 10
516.693701080777
 20
853.0001942021972
 30
0.0
 10
516.6895532985156
 20
853.0018669520748
 30
0.0
 10
516.6874526651812
 20
853.0029341832977
 30
0.0
  0
ARC
  5
194
330
120
100
AcDbEntity
  8
DV2_Default
 62
     7
100
AcDbCircle
 10
517.4921083071
 20
851.9956135122
 30
0.0
 40
1.315289302632772
100
AcDbArc
 50
90.9000461578
 51
125.2218595279
  0
ARC
  5
195
330
120
100
AcDbEntity
  8
DV2_Default
 62
     7
100
AcDbCircle
 10
515.9903031634
 20
849.5302953512
 30
0.0
 40
4.146091733120719
100
AcDbArc
 50
50.2543241033
 51
56.8782017803
  0
ARC
  5
196
330
120
100
AcDbEntity
  8
DV2_Default
 62
     7
100
AcDbCircle
 10
522.9004008519
 20
856.2467717532
 30
0.0
 40
3.826744297441898
100
AcDbArc
 50
237.9597421007
 51
249.9614074388
  0
ARC
  5
197
330
120
100
AcDbEntity
  8
DV2_Default
 62
     7
100
AcDbCircle
 10
524.7528401596
 20
855.7824620302
 30
0.0
 40
3.207379110244906
100
AcDbArc
 50
240.0663788744
 51
257.4522066692
  0
ARC
  5
198
330
120
100
AcDbEntity
  8
DV2_Default
 62
     7
100
AcDbCircle
 10
526.3399535761
 20
855.5648348017
 30
0.0
 40
2.949489215984207
100
AcDbArc
 50
246.2287923423
 51
260.9960173354
  0
ARC
  5
199
330
120
100
AcDbEntity
  8
DV2_Default
 62
     7
100
AcDbCircle
 10
517.438001259
 20
851.9564054668
 30
0.0
 40
1.354747995511689
100
AcDbArc
 50
55.2927690965
 51
88.5853252179
  0
ARC
  5
19A
330
120
100
AcDbEntity
  8
DV2_Default
 62
     7
100
AcDbCircle
 10
527.1793256299
 20
854.0445508828
 30
0.0
 40
1.399999999999991
100
AcDbArc
 50
330.406950078
 51
340.6753270511
  0
ARC
  5
19B
330
120
100
AcDbEntity
  8
DV2_Default
 62
     7
100
AcDbCircle
 10
507.7635695324
 20
854.0445508828
 30
0.0
 40
1.39999999999999
100
AcDbArc
 50
199.3246729489
 51
209.5751860364
  0
LINE
  5
19C
330
120
100
AcDbEntity
  8
DV2_Default
 62
     7
100
AcDbLine
 10
526.8777480248
 20
852.6516907717
 30
0.0
 11
527.1164793004
 21
852.6456814933
 31
0.0
  0
LINE
  5
19D
330
120
100
AcDbEntity
  8
DV2_Default
 62
     7
100
AcDbLine
 10
525.8783493129
 20
852.6516907717
 30
0.0
 11
526.4103824301
 21
852.7555400637
 31
0.0
  0
LINE
  5
19E
330
120
100
AcDbEntity
  8
DV2_Default
 62
     7
100
AcDbLine
 10
524.1416774342
 20
852.6445508828
 30
0.0
 11
525.1510573622
 21
852.865573342
 31
0.0
  0
LINE
  5
19F
330
120
100
AcDbEntity
  8
DV2_Default
 62
     7
100
AcDbLine
 10
521.6366920111
 20
852.6445508828
 30
0.0
 11
522.1176706953
 21
852.6445508828
 31
0.0
  0
LINE
  5
1A0
330
120
100
AcDbEntity
  8
DV2_Default
 62
     7
100
AcDbLine
 10
518.7248117113
 20
852.6445508828
 30
0.0
 11
519.2575506354
 21
852.6445508828
 31
0.0
  0
LINE
  5
1A1
330
120
100
AcDbEntity
  8
DV2_Default
 62
     7
100
AcDbLine
 10
515.6906887924
 20
852.6445508828
 30
0.0
 11
516.215916368
 21
852.6445508828
 31
0.0
  0
LINE
  5
1A2
330
120
100
AcDbEntity
  8
DV2_Default
 62
     7
100
AcDbLine
 10
512.830751975
 20
852.6445508828
 30
0.0
 11
513.2990189035
 21
852.6445508828
 31
0.0
  0
LINE
  5
1A3
330
120
100
AcDbEntity
  8
DV2_Default
 62
     7
100
AcDbLine
 10
510.4244863462
 20
852.6445508828
 30
0.0
 11
510.7927099703
 21
852.6445508828
 31
0.0
  0
LINE
  5
1A4
330
120
100
AcDbEntity
  8
DV2_Default
 62
     7
100
AcDbLine
 10
508.7067843258
 20
852.6445508828
 30
0.0
 11
508.9418530977
 21
852.6445508828
 31
0.0
  0
LINE
  5
1A5
330
120
100
AcDbEntity
  8
DV2_Default
 62
     7
100
AcDbLine
 10
507.8460476019
 20
852.6445508828
 30
0.0
 11
507.9268059749
 21
852.6445508828
 31
0.0
  0
ARC
  5
1A6
330
120
100
AcDbEntity
  8
DV2_Default
 62
     7
100
AcDbCircle
 10
528.8760253857
 20
853.8573153647
 30
0.0
 40
0.2800000000000059
100
AcDbArc
 50
155.2475683558
 51
165.7153084058
  0
ARC
  5
1A7
330
120
100
AcDbEntity
  8
DV2_Default
 62
     7
100
AcDbCircle
 10
506.0668697766
 20
853.8573153647
 30
0.0
 40
0.2800000000000109
100
AcDbArc
 50
14.2846915942
 51
24.7524316446
  0
ARC
  5
1A8
330
120
100
AcDbEntity
  8
DV2_Default
 62
     7
100
AcDbCircle
 10
524.6314475812
 20
854.9380370039
 30
0.0
 40
4.099999999999986
100
AcDbArc
 50
340.6753270511
 51
345.7153084057
  0
ARC
  5
1A9
330
120
100
AcDbEntity
  8
DV2_Default
 62
     7
100
AcDbCircle
 10
510.3114475812
 20
854.9380370039
 30
0.0
 40
4.099999999999996
100
AcDbArc
 50
194.2846915943
 51
199.3246729489
  0
LINE
  5
1AA
330
120
100
AcDbEntity
  8
DV2_Default
 62
     7
100
AcDbLine
 10
419.8066578809
 20
884.6745508828
 30
0.0
 11
419.6066578809
 21
884.6745508828
 31
0.0
  0
LINE
  5
1AB
330
120
100
AcDbEntity
  8
DV2_Default
 62
     7
100
AcDbLine
 10
509.6269119974
 20
852.7984674506
 30
0.0
 11
509.6408328944
 21
852.8630550434
 31
0.0
  0
ENDBLK
  5
1AD
330
120
100
AcDbEntity
  8
0
100
AcDbBlockEnd
  0
BLOCK
  5
211
330
1AE
100
AcDbEntity
  8
0
100
AcDbBlockBegin
  2
SE2
 70
     0
 10
0.0
 20
0.0
 30
0.0
  3
SE2
  1

  0
LINE
  5
1B1
330
1AE
100
AcDbEntity
  8
DV3_Default
 62
     7
100
AcDbLine
 10
100.5184805379
 20
364.1440597239
 30
0.0
 11
100.5184805379
 21
411.7438239646
 31
0.0
  0
SPLINE
  5
1B2
330
1AE
100
AcDbEntity
  8
DV3_Default
 62
     7
100
AcDbSpline
210
0.0
220
0.0
230
1.0
 70
     8
 71
     3
 72
    13
 73
     9
 74
     0
 42
0.000000001
 43
0.0000000001
 40
0.0
 40
0.0
 40
0.0
 40
0.0
 40
0.0036559221847326
 40
0.0167119756933539
 40
0.0319442342574257
 40
0.0502772807485731
 40
0.1587268045316869
 40
1.0
 40
1.0
 40
1.0
 40
1.0
 10
100.4721099946367
 20
411.866875084088
 30
0.0
 10
100.4716585463484
 20
411.8674163556042
 30
0.0
 10
100.4698846601105
 20
411.8695407351414
 30
0.0
 10
100.4661030193075
 20
411.8738459085881
 30
0.0
 10
100.4614473538837
 20
411.8788605316477
 30
0.0
 10
100.4490342732621
 20
411.8914614718666
 30
0.0
 10
100.3916685522848
 20
411.938370996529
 30
0.0
 10
100.3517800813129
 20
411.9464269446378
 30
0.0
 10
100.3184805379341
 20
411.9438153719286
 30
0.0
  0
SPLINE
  5
1B3
330
1AE
100
AcDbEntity
  8
DV3_Default
 62
     7
100
AcDbSpline
210
0.0
220
0.0
230
1.0
 70
     8
 71
     3
 72
    11
 73
     7
 74
     0
 42
0.000000001
 43
0.0000000001
 40
0.0
 40
0.0
 40
0.0
 40
0.0
 40
0.7412895818627543
 40
0.964511476056408
 40
0.9956498284942243
 40
1.0
 40
1.0
 40
1.0
 40
1.0
 10
100.3184805379341
 20
363.9440683165634
 30
0.0
 10
100.359566466224
 20
363.9484416545434
 30
0.0
 10
100.4079671441829
 20
363.9625625017963
 30
0.0
 10
100.4623095907325
 20
364.026747076031
 30
0.0
 10
100.4809905051747
 20
364.0551381291057
 30
0.0
 10
100.4847705102268
 20
364.0616571486576
 30
0.0
 10
100.4853090306857
 20
364.0625861917677
 30
0.0
  0
LINE
  5
1B4
330
1AE
100
AcDbEntity
  8
DV3_Default
 62
     7
100
AcDbLine
 10
76.8522986937
 20
363.9440087602
 30
0.0
 11
100.3184805379
 21
363.9440087602
 31
0.0
  0
LINE
  5
1B5
330
1AE
100
AcDbEntity
  8
DV3_Default
 62
     7
100
AcDbLine
 10
100.3184805379
 20
411.9441670726
 30
0.0
 11
80.4903957616
 21
411.9441670726
 31
0.0
  0
ARC
  5
1B6
330
1AE
100
AcDbEntity
  8
DV3_Default
 62
     7
100
AcDbCircle
 10
62.5184805842
 20
387.9439416843
 30
0.0
 40
29.98333793682284
100
AcDbArc
 50
53.1732950716
 51
241.4900594944
  0
ARC
  5
1B7
330
1AE
100
AcDbEntity
  8
DV3_Default
 62
     7
100
AcDbCircle
 10
62.5184805842
 20
387.9439416843
 30
0.0
 40
29.98333793682284
100
AcDbArc
 50
298.5437522128
 51
306.8276373155
  0
SPLINE
  5
1B8
330
1AE
100
AcDbEntity
  8
DV3_Default
 62
     7
100
AcDbSpline
210
0.0
220
0.0
230
1.0
 70
     8
 71
     3
 72
    16
 73
    12
 74
     0
 42
0.000000001
 43
0.0000000001
 40
0.0
 40
0.0
 40
0.0
 40
0.0
 40
0.2264773017486831
 40
0.2264773017486831
 40
0.4529546034973662
 40
0.4529546034973662
 40
0.6794319052460492
 40
0.6794319052460492
 40
0.9059092069947323
 40
0.9059092069947323
 40
1.0
 40
1.0
 40
1.0
 40
1.0
 10
62.51848053793405
 20
402.9439418447327
 30
0.0
 10
64.48197594642767
 20
402.9439418447327
 30
0.0
 10
66.44469880332325
 20
402.5535319947574
 30
0.0
 10
70.07276524349754
 20
401.0507376700465
 30
0.0
 10
71.73668133755778
 20
399.9389444807055
 30
0.0
 10
74.51348317390674
 20
397.1621426443564
 30
0.0
 10
75.62527636324792
 20
395.4982265502962
 30
0.0
 10
77.1280706879588
 20
391.8701601101219
 30
0.0
 10
77.51848053793404
 20
389.9074372532263
 30
0.0
 10
77.51848053793405
 20
387.1282007588892
 30
0.0
 10
77.45109516138521
 20
386.312593016711
 30
0.0
 10
77.31843423830192
 20
385.5077254499511
 30
0.0
  0
SPLINE
  5
1B9
330
1AE
100
AcDbEntity
  8
DV3_Default
 62
     7
100
AcDbSpline
210
0.0
220
0.0
230
1.0
 70
     8
 71
     3
 72
    16
 73
    12
 74
     0
 42
0.000000001
 43
0.0000000001
 40
0.0
 40
0.0
 40
0.0
 40
0.0
 40
0.0952171274388806
 40
0.0952171274388806
 40
0.3214128455791604
 40
0.3214128455791604
 40
0.5476085637194403
 40
0.5476085637194403
 40
0.7738042818597202
 40
0.7738042818597202
 40
1.0
 40
1.0
 40
1.0
 40
1.0
 10
47.72382661754655
 20
385.4757847426497
 30
0.0
 10
47.58766079283593
 20
386.2910112632399
 30
0.0
 10
47.51848053793406
 20
387.1174081062812
 30
0.0
 10
47.51848053793405
 20
389.9074372532263
 30
0.0
 10
47.90889038790932
 20
391.8701601101219
 30
0.0
 10
49.41168471262019
 20
395.4982265502962
 30
0.0
 10
50.52347790196136
 20
397.1621426443564
 30
0.0
 10
53.30027973831034
 20
399.9389444807055
 30
0.0
 10
54.96419583237056
 20
401.0507376700465
 30
0.0
 10
58.59226227254484
 20
402.5535319947574
 30
0.0
 10
60.55498512944044
 20
402.9439418447327
 30
0.0
 10
62.51848053793405
 20
402.9439418447327
 30
0.0
  0
LINE
  5
1BA
330
1AE
100
AcDbEntity
  8
DV3_Default
 62
     7
100
AcDbLine
 10
76.3184805379
 20
281.9439418447
 30
0.0
 11
48.7184805379
 21
281.9439418447
 31
0.0
  0
SPLINE
  5
1BB
330
1AE
100
AcDbEntity
  8
DV3_Default
 62
     7
100
AcDbSpline
210
0.0
220
0.0
230
1.0
 70
     8
 71
     3
 72
    31
 73
    27
 74
     0
 42
0.000000001
 43
0.0000000001
 40
0.0
 40
0.0
 40
0.0
 40
0.0
 40
0.0486379686977983
 40
0.0882398147546619
 40
0.1188158731789667
 40
0.141466640944972
 40
0.1636260329245419
 40
0.1866882457939451
 40
0.2355135933006989
 40
0.2876572455661213
 40
0.3419088243536426
 40
0.398125637303981
 40
0.456304399513545
 40
0.5164357673270803
 40
0.5775450004131419
 40
0.6388074131538793
 40
0.7002094609562227
 40
0.7463523538984667
 40
0.7925615123985283
 40
0.8388218970701697
 40
0.8822955861251552
 40
0.9207211349833135
 40
0.9541062646353307
 40
0.9824662102224929
 40
0.9955964707992258
 40
0.9999999999999999
 40
0.9999999999999999
 40
0.9999999999999999
 40
0.9999999999999999
 10
76.51848053793405
 20
339.9439418447327
 30
0.0
 10
76.53332270318666
 20
341.0633813673757
 30
0.0
 10
76.55596610075888
 20
342.7702882057125
 30
0.0
 10
76.58954982963348
 20
345.2924193968481
 30
0.0
 10
76.61520595862481
 20
347.2082624882802
 30
0.0
 10
76.63615002355911
 20
348.7636174991889
 30
0.0
 10
76.65498417094261
 20
350.1544568076518
 30
0.0
 10
76.6810881169881
 20
352.0696170200042
 30
0.0
 10
76.71551776215793
 20
354.5656916125225
 30
0.0
 10
76.7586006349246
 20
357.6233143201845
 30
0.0
 10
76.80371405551868
 20
360.7363571673533
 30
0.0
 10
76.85048214180209
 20
363.8514074859691
 30
0.0
 10
76.89884439374562
 20
366.9363222239442
 30
0.0
 10
76.94853675931726
 20
369.9425136258592
 30
0.0
 10
76.99898941864299
 20
372.8051845331608
 30
0.0
 10
77.04958937107733
 20
375.4640092240032
 30
0.0
 10
77.09583329718645
 20
377.6845556798297
 30
0.0
 10
77.1376852608362
 20
379.5189234205635
 30
0.0
 10
77.17516391997474
 20
381.0207902530249
 30
0.0
 10
77.21166185898743
 20
382.3394914648206
 30
0.0
 10
77.24564579816855
 20
383.4319597216266
 30
0.0
 10
77.27563143972704
 20
384.2827736992659
 30
0.0
 10
77.3007799302749
 20
384.9102171030169
 30
0.0
 10
77.3191400424213
 20
385.3169573080162
 30
0.0
 10
77.32913053137825
 20
385.5119671539999
 30
0.0
 10
77.32929666702174
 20
385.5251783882392
 30
0.0
 10
77.32910924814267
 20
385.5252622637436
 30
0.0
  0
SPLINE
  5
1BC
330
1AE
100
AcDbEntity
  8
DV3_Default
 62
     7
100
AcDbSpline
210
0.0
220
0.0
230
1.0
 70
     8
 71
     3
 72
    27
 73
    23
 74
     0
 42
0.000000001
 43
0.0000000001
 40
0.0
 40
0.0
 40
0.0
 40
0.0
 40
0.0233358561060549
 40
0.0614555848726984
 40
0.1131510139840086
 40
0.1668706007726761
 40
0.2228415306227494
 40
0.2810561083149515
 40
0.3414412975815238
 40
0.4012191449933461
 40
0.458863230964205
 40
0.514362799388199
 40
0.5677115275186025
 40
0.6063092853430048
 40
0.644806883371487
 40
0.6886847977208916
 40
0.7386821611283254
 40
0.7830889762444218
 40
0.8314183243797287
 40
0.8836756665541163
 40
0.9398663407635125
 40
1.0
 40
1.0
 40
1.0
 40
1.0
 10
47.71461539281868
 20
385.5489227154926
 30
0.0
 10
47.71160499436463
 20
385.5485440585665
 30
0.0
 10
47.7122045368539
 20
385.469488048863
 30
0.0
 10
47.72569769731059
 20
385.1463412385672
 30
0.0
 10
47.7643124689078
 20
384.2293631639583
 30
0.0
 10
47.80721725082606
 20
382.948201407148
 30
0.0
 10
47.85357405487091
 20
381.3431360161156
 30
0.0
 10
47.90241062092818
 20
379.4014239465142
 30
0.0
 10
47.95296945816212
 20
377.1412515398453
 30
0.0
 10
48.00354554295789
 20
374.6374340284273
 30
0.0
 10
48.05283400135465
 20
371.9798942978099
 30
0.0
 10
48.10038234232461
 20
369.2310613390054
 30
0.0
 10
48.14255288241149
 20
366.6500272457615
 30
0.0
 10
48.17989296888088
 20
364.2680130328382
 30
0.0
 10
48.21455058490602
 20
361.9878066841335
 30
0.0
 10
48.25248147362841
 20
359.4180186392027
 30
0.0
 10
48.29211908599057
 20
356.653295271665
 30
0.0
 10
48.33302102240962
 20
353.7314511316168
 30
0.0
 10
48.37464137047628
 20
350.7005821293968
 30
0.0
 10
48.4193698416409
 20
347.3914514063193
 30
0.0
 10
48.46862520632286
 20
343.7026319365253
 30
0.0
 10
48.4995335658374
 20
341.3732654031538
 30
0.0
 10
48.51848053793406
 20
339.9439418447327
 30
0.0
  0
LINE
  5
1BD
330
1AE
100
AcDbEntity
  8
DV3_Default
 62
     7
100
AcDbLine
 10
48.5184805379
 20
339.9439418447
 30
0.0
 11
48.5184805379
 21
282.1439418447
 31
0.0
  0
LINE
  5
1BE
330
1AE
100
AcDbEntity
  8
DV3_Default
 62
     7
100
AcDbLine
 10
76.5184805379
 20
282.1439418447
 30
0.0
 11
76.5184805379
 21
339.9439418447
 31
0.0
  0
ARC
  5
1BF
330
1AE
100
AcDbEntity
  8
DV3_Default
 62
     7
100
AcDbCircle
 10
76.3184805379
 20
282.1439418447
 30
0.0
 40
0.2000000000000057
100
AcDbArc
 50
270.0
 51
0.0
  0
ARC
  5
1C0
330
1AE
100
AcDbEntity
  8
DV3_Default
 62
     7
100
AcDbCircle
 10
48.7184805379
 20
282.1439418447
 30
0.0
 40
0.2000000000000005
100
AcDbArc
 50
180.0
 51
270.0
  0
LINE
  5
1C1
330
1AE
100
AcDbEntity
  8
DV3_Default
 62
     7
100
AcDbLine
 10
107.3184805379
 20
364.1440330468
 30
0.0
 11
107.3184805379
 21
411.7441913592
 31
0.0
  0
ARC
  5
1C2
330
1AE
100
AcDbEntity
  8
DV3_Default
 62
     7
100
AcDbCircle
 10
151.1077555484
 20
388.0035306643
 30
0.0
 40
0.8412415902346049
100
AcDbArc
 50
284.9585783974
 51
296.689909263
  0
ARC
  5
1C3
330
1AE
100
AcDbEntity
  8
DV3_Default
 62
     7
100
AcDbCircle
 10
149.9767448473
 20
388.2312945529
 30
0.0
 40
1.79884402531005
100
AcDbArc
 50
327.0132557828
 51
353.1258443515
  0
LINE
  5
1C4
330
1AE
100
AcDbEntity
  8
DV3_Default
 62
     7
100
AcDbLine
 10
151.3248907118
 20
387.1907944874
 30
0.0
 11
150.9585500778
 21
387.0827473884
 31
0.0
  0
LINE
  5
1C5
330
1AE
100
AcDbEntity
  8
DV3_Default
 62
     7
100
AcDbLine
 10
154.6183726352
 20
411.9441913592
 30
0.0
 11
107.5184805379
 21
411.9441913592
 31
0.0
  0
LINE
  5
1C6
330
1AE
100
AcDbEntity
  8
DV3_Default
 62
     7
100
AcDbLine
 10
107.5184805379
 20
363.9440330468
 30
0.0
 11
140.286202055
 21
363.9440330468
 31
0.0
  0
LINE
  5
1C7
330
1AE
100
AcDbEntity
  8
DV3_Default
 62
     7
100
AcDbLine
 10
151.3040567759
 20
363.9440330468
 30
0.0
 11
151.7961673535
 21
363.9440330468
 31
0.0
  0
ARC
  5
1C8
330
1AE
100
AcDbEntity
  8
DV3_Default
 62
     7
100
AcDbCircle
 10
107.5184805379
 20
411.7441913592
 30
0.0
 40
0.2000000000000751
100
AcDbArc
 50
90.0
 51
180.0
  0
ARC
  5
1C9
330
1AE
100
AcDbEntity
  8
DV3_Default
 62
     7
100
AcDbCircle
 10
107.5184805379
 20
364.1440330468
 30
0.0
 40
0.200000000000089
100
AcDbArc
 50
180.0
 51
270.0
  0
SPLINE
  5
1CA
330
1AE
100
AcDbEntity
  8
DV3_Default
 62
     7
100
AcDbSpline
210
0.0
220
0.0
230
1.0
 70
     8
 71
     3
 72
    25
 73
    21
 74
     0
 42
0.000000001
 43
0.0000000001
 40
0.0
 40
0.0
 40
0.0
 40
0.0
 40
0.0558966986228034
 40
0.1047135035356423
 40
0.1469699512111587
 40
0.1864288287699011
 40
0.2239728329158048
 40
0.2596586211024954
 40
0.2943326980270723
 40
0.3371892264157118
 40
0.3908377162175745
 40
0.4552620127293435
 40
0.5304388623059578
 40
0.6163352445521965
 40
0.679561763882425
 40
0.7475243578515897
 40
0.8202068031003656
 40
0.8975924862209115
 40
0.9796659220079671
 40
1.0
 40
1.0
 40
1.0
 40
1.0
 10
151.7957715155244
 20
363.9440342291998
 30
0.0
 10
152.0520414812197
 20
363.9870953932503
 30
0.0
 10
152.4482628506312
 20
364.0547427055434
 30
0.0
 10
152.9125733861567
 20
364.4950514799293
 30
0.0
 10
153.159888592695
 20
364.8653589105037
 30
0.0
 10
153.3712152971017
 20
365.2698161864723
 30
0.0
 10
153.55473287132
 20
365.7055547536024
 30
0.0
 10
153.7204151139155
 20
366.1670351809091
 30
0.0
 10
153.8835547216259
 20
366.6862743760869
 30
0.0
 10
154.0715251973741
 20
367.3608321042544
 30
0.0
 10
154.3015335027786
 20
368.3019721045133
 30
0.0
 10
154.5756655107369
 20
369.5927887140093
 30
0.0
 10
154.8902446502792
 20
371.3080011305636
 30
0.0
 10
155.193403997701
 20
373.2335636817294
 30
0.0
 10
155.4739757263984
 20
375.2673914117765
 30
0.0
 10
155.7245781243813
 20
377.301137995314
 30
0.0
 10
155.9757220228499
 20
379.6012644989012
 30
0.0
 10
156.2177283420991
 20
382.1398072150902
 30
0.0
 10
156.3907857511348
 20
384.2243786608701
 30
0.0
 10
156.4711101408692
 20
385.3497297102869
 30
0.0
 10
156.4868360021192
 20
385.5757713426306
 30
0.0
  0
SPLINE
  5
1CB
330
1AE
100
AcDbEntity
  8
DV3_Default
 62
     7
100
AcDbSpline
210
0.0
220
0.0
230
1.0
 70
     8
 71
     3
 72
    13
 73
     9
 74
     0
 42
0.000000001
 43
0.0000000001
 40
0.0
 40
0.0
 40
0.0
 40
0.0
 40
0.167786154989419
 40
0.3767934798246225
 40
0.5648335251977453
 40
0.7317021397101989
 40
0.8769605512787045
 40
1.0
 40
1.0
 40
1.0
 40
1.0
 10
156.5780342193038
 20
408.4011290861128
 30
0.0
 10
156.5253727952186
 20
408.7677565427356
 30
0.0
 10
156.4219276313073
 20
409.4584315476806
 30
0.0
 10
156.1867307031181
 20
410.3646996907083
 30
0.0
 10
155.8822257534728
 20
411.0935931094209
 30
0.0
 10
155.5180039420388
 20
411.5863885551895
 30
0.0
 10
155.0930454914927
 20
411.88596808928
 30
0.0
 10
154.7871611654645
 20
411.9255144025913
 30
0.0
 10
154.6197145487589
 20
411.9441910492149
 30
0.0
  0
ARC
  5
1CC
330
1AE
100
AcDbEntity
  8
DV3_Default
 62
     7
100
AcDbCircle
 10
154.7502468412
 20
373.1342514349
 30
0.0
 40
14.44006844103056
100
AcDbArc
 50
105.2057100724
 51
144.2708148427
  0
LINE
  5
1CD
330
1AE
100
AcDbEntity
  8
DV3_Default
 62
     7
100
AcDbLine
 10
151.7258608285
 20
387.8169815329
 30
0.0
 11
156.5918633179
 21
408.3644021731
 31
0.0
  0
ARC
  5
1CE
330
1AE
100
AcDbEntity
  8
DV3_Default
 62
     7
100
AcDbCircle
 10
143.1282022318
 20
333.6138576192
 30
0.0
 40
7.407699508723608
100
AcDbArc
 50
171.5259714542
 51
179.5460565046
  0
LINE
  5
1CF
330
1AE
100
AcDbEntity
  8
DV3_Default
 62
     7
100
AcDbLine
 10
157.2265704268
 20
407.5367068614
 30
0.0
 11
157.2266671334
 21
407.5439700253
 31
0.0
  0
ARC
  5
1D0
330
1AE
100
AcDbEntity
  8
DV3_Default
 62
     7
100
AcDbCircle
 10
109.8692585953
 20
400.2379537795
 30
0.0
 40
47.91645507038907
100
AcDbArc
 50
359.0754295547
 51
8.7615393251
  0
ARC
  5
1D1
330
1AE
100
AcDbEntity
  8
DV3_Default
 62
     7
100
AcDbCircle
 10
156.5390454603
 20
407.6122896843
 30
0.0
 40
0.6916663540149987
100
AcDbArc
 50
353.726243207
 51
14.9768062119
  0
ARC
  5
1D2
330
1AE
100
AcDbEntity
  8
DV3_Default
 62
     7
100
AcDbCircle
 10
43.1686793298
 20
399.9244765331
 30
0.0
 40
114.6117177846327
100
AcDbArc
 50
354.3651097714
 51
359.7701861251
  0
ARC
  5
1D3
330
1AE
100
AcDbEntity
  8
DV3_Default
 62
     7
100
AcDbCircle
 10
141.443930881
 20
328.893666735
 30
0.0
 40
1.417288688006394
100
AcDbArc
 50
320.2347705737
 51
350.7763545514
  0
ARC
  5
1D4
330
1AE
100
AcDbEntity
  8
DV3_Default
 62
     7
100
AcDbCircle
 10
-51304.2180482572
 20
12692.7885359139
 30
0.0
 40
52911.9229810765
100
AcDbArc
 50
346.4865482638
 51
346.5533648506
  0
SPLINE
  5
1D5
330
1AE
100
AcDbEntity
  8
DV3_Default
 62
     7
100
AcDbSpline
210
0.0
220
0.0
230
1.0
 70
     8
 71
     3
 72
    11
 73
     7
 74
     0
 42
0.000000001
 43
0.0000000001
 40
0.0
 40
0.0
 40
0.0
 40
0.0
 40
0.9561441605484048
 40
0.9561441605484048
 40
0.9561441605484048
 40
0.9999999999999999
 40
0.9999999999999999
 40
0.9999999999999999
 40
0.9999999999999999
 10
157.2200763436826
 20
388.6169067367053
 30
0.0
 10
157.2158078058561
 20
388.6026001943373
 30
0.0
 10
157.2094840089839
 20
388.5887603425044
 30
0.0
 10
157.2011656680873
 20
388.5757043419881
 30
0.0
 10
157.2007841274809
 20
388.5751054972886
 30
0.0
 10
157.2003984158223
 20
388.5745082973016
 30
0.0
 10
157.2000085386304
 20
388.5739127609775
 30
0.0
  0
SPLINE
  5
1D6
330
1AE
100
AcDbEntity
  8
DV3_Default
 62
     7
100
AcDbSpline
210
0.0
220
0.0
230
1.0
 70
     8
 71
     5
 72
    16
 73
    10
 74
     0
 42
0.000000001
 43
0.0000000001
 40
0.0
 40
0.0
 40
0.0
 40
0.0
 40
0.0
 40
0.0
 40
0.2080302696773975
 40
0.4160605393547949
 40
0.6240908090321924
 40
0.8321210787095898
 40
1.0
 40
1.0
 40
1.0
 40
1.0
 40
1.0
 40
1.0
 10
142.5333607842089
 20
327.987107464336
 30
0.0
 10
142.5325917190312
 20
327.9756803747237
 30
0.0
 10
142.5303038487685
 20
327.9531875899848
 30
0.0
 10
142.5247994922121
 20
327.9205263786368
 30
0.0
 10
142.5135049446301
 20
327.8792309642598
 30
0.0
 10
142.4940565147042
 20
327.8334300019891
 30
0.0
 10
142.4745726252783
 20
327.8002085869649
 30
0.0
 10
142.4581648243491
 20
327.7774565938297
 30
0.0
 10
142.4468033548363
 20
327.7635550041594
 30
0.0
 10
142.4415742302625
 20
327.7574972191262
 30
0.0
  0
ARC
  5
1D7
330
1AE
100
AcDbEntity
  8
DV3_Default
 62
     7
100
AcDbCircle
 10
11918.1292987259
 20
-1459.5704499498
 30
0.0
 40
11918.17084345915
100
AcDbArc
 50
171.1132731212
 51
171.3412149719
  0
ARC
  5
1D8
330
1AE
100
AcDbEntity
  8
DV3_Default
 62
     7
100
AcDbCircle
 10
156.2810577807
 20
407.2242432693
 30
0.0
 40
1.173436509424565
100
AcDbArc
 50
54.1312538483
 51
74.6651881289
  0
ARC
  5
1D9
330
1AE
100
AcDbEntity
  8
DV3_Default
 62
     7
100
AcDbCircle
 10
156.5261551479
 20
407.6332228493
 30
0.0
 40
0.6996536534857467
100
AcDbArc
 50
7.8092361159
 51
51.946488345
  0
ARC
  5
1DA
330
1AE
100
AcDbEntity
  8
DV3_Default
 62
     7
100
AcDbCircle
 10
143.0008967036
 20
333.6830667698
 30
0.0
 40
7.281863958455926
100
AcDbArc
 50
179.9865487099
 51
227.210332176
  0
SPLINE
  5
1DB
330
1AE
100
AcDbEntity
  8
DV3_Default
 62
     7
100
AcDbSpline
210
0.0
220
0.0
230
1.0
 70
     8
 71
     3
 72
    17
 73
    13
 74
     0
 42
0.000000001
 43
0.0000000001
 40
0.0
 40
0.0
 40
0.0
 40
0.0
 40
0.1512496062067932
 40
0.264868356834749
 40
0.3593746920752262
 40
0.4640193804655928
 40
0.5556688167714897
 40
0.649934628526966
 40
0.7581076439584732
 40
0.8296842720632424
 40
0.8903607337324813
 40
1.0
 40
1.0
 40
1.0
 40
1.0
 10
137.9900693479325
 20
328.4001384353918
 30
0.0
 10
138.2285671380446
 20
328.1854366646864
 30
0.0
 10
138.5829721345294
 20
327.8734594212875
 30
0.0
 10
139.1747012054144
 20
327.5164995277885
 30
0.0
 10
139.6969916863382
 20
327.2865545912828
 30
0.0
 10
140.1943477122213
 20
327.1451118189582
 30
0.0
 10
140.6825915054996
 20
327.0832095127427
 30
0.0
 10
141.1560698361017
 20
327.0968368330535
 30
0.0
 10
141.5655453042679
 20
327.1870335339469
 30
0.0
 10
141.8833459360719
 20
327.3195543953899
 30
0.0
 10
142.1824098037047
 20
327.4967119672888
 30
0.0
 10
142.3300084206248
 20
327.6434125438914
 30
0.0
 10
142.4415366353943
 20
327.7575011735132
 30
0.0
  0
LINE
  5
1DC
330
1AE
100
AcDbEntity
  8
DV3_Default
 62
     7
100
AcDbLine
 10
49.6184805379
 20
281.9439418447
 30
0.0
 11
49.6184805379
 21
281.7439418447
 31
0.0
  0
LINE
  5
1DD
330
1AE
100
AcDbEntity
  8
DV3_Default
 62
     7
100
AcDbLine
 10
75.4184805379
 20
281.7439418447
 30
0.0
 11
75.4184805379
 21
281.9439418447
 31
0.0
  0
LINE
  5
1DE
330
1AE
100
AcDbEntity
  8
DV3_Default
 62
     7
100
AcDbLine
 10
100.5190033862
 20
390.7252569882
 30
0.0
 11
103.7210984986
 21
390.7532332894
 31
0.0
  0
ELLIPSE
  5
1DF
330
1AE
100
AcDbEntity
  8
DV3_Default
 62
     7
100
AcDbEllipse
 10
-239.9921884269
 20
387.9437796887
 30
0.0
 11
2520.925884722099
 21
18.95605802122647
 31
0.0
210
0.0
220
0.0
230
1.0
 40
0.0044289329
 41
-1.435341624171914
 42
-1.434059557384462
  0
ELLIPSE
  5
1E0
330
1AE
100
AcDbEntity
  8
DV3_Default
 62
     7
100
AcDbEllipse
 10
-239.9919100099
 20
387.9435937121
 30
0.0
 11
2520.92480904393
 21
10.83388430092924
 31
0.0
210
0.0
220
0.0
230
1.0
 40
0.0075952676
 41
-1.435341015497135
 42
-1.434058948171907
  0
ELLIPSE
  5
1E1
330
1AE
100
AcDbEntity
  8
DV3_Default
 62
     7
100
AcDbEllipse
 10
-239.9919100099
 20
387.9435082138
 30
0.0
 11
2520.924810410717
 21
-0.1919383979149883
 31
0.0
210
0.0
220
0.0
230
1.0
 40
0.0087264532
 41
-1.435307709794615
 42
-1.4340256424694
  0
ELLIPSE
  5
1E2
330
1AE
100
AcDbEntity
  8
DV3_Default
 62
     7
100
AcDbEllipse
 10
-239.9921884269
 20
387.9443277887
 30
0.0
 11
2520.925884678211
 21
11.16631919483811
 31
0.0
210
0.0
220
0.0
230
1.0
 40
0.0075191083
 41
1.433992948605152
 42
1.435275015392627
  0
ELLIPSE
  5
1E3
330
1AE
100
AcDbEntity
  8
DV3_Default
 62
     7
100
AcDbEllipse
 10
-239.9922867453
 20
387.944191317
 30
0.0
 11
2520.926237434811
 21
19.14796911026546
 31
0.0
210
0.0
220
0.0
230
1.0
 40
0.0042970286
 41
1.433993593285641
 42
1.435275662078494
  0
LINE
  5
1E4
330
1AE
100
AcDbEntity
  8
DV3_Default
 62
     7
100
AcDbLine
 10
106.5359356029
 20
378.0936969801
 30
0.0
 11
100.5184805379
 21
378.0922107956
 31
0.0
  0
SPLINE
  5
1E5
330
1AE
100
AcDbEntity
  8
DV3_Default
 62
     7
100
AcDbSpline
210
0.0
220
0.0
230
1.0
 70
     8
 71
     3
 72
    10
 73
     6
 74
     0
 42
0.000000001
 43
0.0000000001
 40
0.0
 40
0.0
 40
0.0
 40
0.0
 40
0.5
 40
0.5
 40
1.0
 40
1.0
 40
1.0
 40
1.0
 10
104.0184805379341
 20
366.1648212534406
 30
0.0
 10
104.018480537934
 20
366.1536258164585
 30
0.0
 10
103.9868490132124
 20
366.1431453462923
 30
0.0
 10
103.8775237850506
 20
366.1283775996768
 30
0.0
 10
103.8003247118634
 20
366.1241345037039
 30
0.0
 10
103.7210984985836
 20
366.1240453834984
 30
0.0
  0
LINE
  5
1E6
330
1AE
100
AcDbEntity
  8
DV3_Default
 62
     7
100
AcDbLine
 10
104.0184805379
 20
367.3879068495
 30
0.0
 11
104.0184805379
 21
366.1648212534
 31
0.0
  0
ELLIPSE
  5
1E7
330
1AE
100
AcDbEntity
  8
DV3_Default
 62
     7
100
AcDbEllipse
 10
-240.0112581953
 20
387.9447031502
 30
0.0
 11
2520.998119012148
 21
-10.83424394185598
 31
0.0
210
0.0
220
0.0
230
1.0
 40
0.0075954757
 41
-1.435271950329823
 42
-1.43398991962592
  0
SPLINE
  5
1E8
330
1AE
100
AcDbEntity
  8
DV3_Default
 62
     7
100
AcDbSpline
210
0.0
220
0.0
230
1.0
 70
     8
 71
     3
 72
    10
 73
     6
 74
     0
 42
0.000000001
 43
0.0000000001
 40
0.0
 40
0.0
 40
0.0
 40
0.0
 40
0.5
 40
0.5
 40
1.0
 40
1.0
 40
1.0
 40
1.0
 10
103.7210984985844
 20
367.4978588735514
 30
0.0
 10
103.8003093019429
 20
367.4976012843661
 30
0.0
 10
103.8773849840032
 20
367.4851881085469
 30
0.0
 10
103.9866854587837
 20
367.4443097908319
 30
0.0
 10
104.0184805379352
 20
367.4161239228237
 30
0.0
 10
104.0184805379341
 20
367.3879068495218
 30
0.0
  0
SPLINE
  5
1E9
330
1AE
100
AcDbEntity
  8
DV3_Default
 62
     7
100
AcDbSpline
210
0.0
220
0.0
230
1.0
 70
     8
 71
     3
 72
    10
 73
     6
 74
     0
 42
0.000000001
 43
0.0000000001
 40
0.0
 40
0.0
 40
0.0
 40
0.0
 40
0.5
 40
0.5
 40
1.0
 40
1.0
 40
1.0
 40
1.0
 10
104.0184805379341
 20
370.6374937857298
 30
0.0
 10
104.018480537934
 20
370.588593360936
 30
0.0
 10
103.9868490132124
 20
370.5410925791886
 30
0.0
 10
103.8775237850506
 20
370.4727539143877
 30
0.0
 10
103.8003247118634
 20
370.4524262044254
 30
0.0
 10
103.7210984985837
 20
370.4520029236854
 30
0.0
  0
LINE
  5
1EA
330
1AE
100
AcDbEntity
  8
DV3_Default
 62
     7
100
AcDbLine
 10
104.0184805379
 20
374.0613775282
 30
0.0
 11
104.0184805379
 21
370.6374937857
 31
0.0
  0
ELLIPSE
  5
1EB
330
1AE
100
AcDbEntity
  8
DV3_Default
 62
     7
100
AcDbEllipse
 10
-240.0115559921
 20
387.9444610841
 30
0.0
 11
2520.999245721846
 21
-18.95663818945335
 31
0.0
210
0.0
220
0.0
230
1.0
 40
0.0044290522
 41
-1.435271230140964
 42
-1.43398919999988
  0
SPLINE
  5
1EC
330
1AE
100
AcDbEntity
  8
DV3_Default
 62
     7
100
AcDbSpline
210
0.0
220
0.0
230
1.0
 70
     8
 71
     3
 72
    10
 73
     6
 74
     0
 42
0.000000001
 43
0.0000000001
 40
0.0
 40
0.0
 40
0.0
 40
0.0
 40
0.5
 40
0.5
 40
1.0
 40
1.0
 40
1.0
 40
1.0
 10
103.7210984985846
 20
374.2978316121012
 30
0.0
 10
103.8003093019429
 20
374.2972842870249
 30
0.0
 10
103.8773849840034
 20
374.2709691073393
 30
0.0
 10
103.9866854587838
 20
374.1834898817607
 30
0.0
 10
104.0184805379352
 20
374.1228108809701
 30
0.0
 10
104.0184805379341
 20
374.0613775282137
 30
0.0
  0
ARC
  5
1ED
330
1AE
100
AcDbEntity
  8
DV3_Default
 62
     7
100
AcDbCircle
 10
103.7285251222
 20
379.756927713
 30
0.0
 40
0.2901114146597286
100
AcDbArc
 50
268.5331129424
 51
358.1209621332
  0
LINE
  5
1EE
330
1AE
100
AcDbEntity
  8
DV3_Default
 62
     7
100
AcDbLine
 10
104.0184805379
 20
384.4546701044
 30
0.0
 11
104.0184805379
 21
379.7474150993
 31
0.0
  0
LINE
  5
1EF
330
1AE
100
AcDbEntity
  8
DV3_Default
 62
     7
100
AcDbLine
 10
103.7210984986
 20
384.7542685673
 30
0.0
 11
100.5190033914
 21
384.7821786594
 31
0.0
  0
ARC
  5
1F0
330
1AE
100
AcDbEntity
  8
DV3_Default
 62
     7
100
AcDbCircle
 10
103.7186736286
 20
384.4544713986
 30
0.0
 40
0.2998069751622239
100
AcDbArc
 50
0.0379744448
 51
89.5365807298
  0
ARC
  5
1F1
330
1AE
100
AcDbEntity
  8
DV3_Default
 62
     7
100
AcDbCircle
 10
103.718298724
 20
391.0534021046
 30
0.0
 40
0.3001818721593415
100
AcDbArc
 50
270.534401327
 51
0.0356985352
  0
LINE
  5
1F2
330
1AE
100
AcDbEntity
  8
DV3_Default
 62
     7
100
AcDbLine
 10
104.0184805379
 20
395.7829102256
 30
0.0
 11
104.0184805379
 21
391.053589135
 31
0.0
  0
ELLIPSE
  5
1F3
330
1AE
100
AcDbEntity
  8
DV3_Default
 62
     7
100
AcDbEllipse
 10
-240.0115559921
 20
387.9436306356
 30
0.0
 11
2520.999245763875
 21
-19.14849559451986
 31
0.0
210
0.0
220
0.0
230
1.0
 40
0.0042971455
 41
1.434055171375906
 42
1.43533717375741
  0
ARC
  5
1F4
330
1AE
100
AcDbEntity
  8
DV3_Default
 62
     7
100
AcDbCircle
 10
103.7275617664
 20
395.7744045907
 30
0.0
 40
0.2910430851823129
100
AcDbArc
 50
1.6746880499
 51
91.2724865608
  0
SPLINE
  5
1F5
330
1AE
100
AcDbEntity
  8
DV3_Default
 62
     7
100
AcDbSpline
210
0.0
220
0.0
230
1.0
 70
     8
 71
     3
 72
    10
 73
     6
 74
     0
 42
0.000000001
 43
0.0000000001
 40
0.0
 40
0.0
 40
0.0
 40
0.0
 40
0.5
 40
0.5
 40
1.0
 40
1.0
 40
1.0
 40
1.0
 10
104.0184805379341
 20
401.5265356905721
 30
0.0
 10
104.0184805379341
 20
401.4642285442816
 30
0.0
 10
103.9868490132124
 20
401.4029157172282
 30
0.0
 10
103.8775237850506
 20
401.3140851709028
 30
0.0
 10
103.8003247118634
 20
401.2873627363922
 30
0.0
 10
103.7210984985837
 20
401.2868078330559
 30
0.0
  0
LINE
  5
1F6
330
1AE
100
AcDbEntity
  8
DV3_Default
 62
     7
100
AcDbLine
 10
104.0184805379
 20
405.0107050996
 30
0.0
 11
104.0184805379
 21
401.5265356906
 31
0.0
  0
ELLIPSE
  5
1F7
330
1AE
100
AcDbEntity
  8
DV3_Default
 62
     7
100
AcDbEllipse
 10
-240.0114116314
 20
387.9432900539
 30
0.0
 11
2520.998699839675
 21
-11.1665944392399
 31
0.0
210
0.0
220
0.0
230
1.0
 40
0.0075193139
 41
1.434055838515176
 42
1.435337868928922
  0
SPLINE
  5
1F8
330
1AE
100
AcDbEntity
  8
DV3_Default
 62
     7
100
AcDbSpline
210
0.0
220
0.0
230
1.0
 70
     8
 71
     3
 72
    10
 73
     6
 74
     0
 42
0.000000001
 43
0.0000000001
 40
0.0
 40
0.0
 40
0.0
 40
0.0
 40
0.5
 40
0.5
 40
1.0
 40
1.0
 40
1.0
 40
1.0
 10
103.7210984985846
 20
405.200351538492
 30
0.0
 10
103.8003093019429
 20
405.1999187220223
 30
0.0
 10
103.8773849840034
 20
405.1791658454349
 30
0.0
 10
103.9866854587838
 20
405.1094040175559
 30
0.0
 10
104.0184805379352
 20
405.0606766412507
 30
0.0
 10
104.0184805379341
 20
405.0107050996007
 30
0.0
  0
SPLINE
  5
1F9
330
1AE
100
AcDbEntity
  8
DV3_Default
 62
     7
100
AcDbSpline
210
0.0
220
0.0
230
1.0
 70
     8
 71
     3
 72
    10
 73
     6
 74
     0
 42
0.000000001
 43
0.0000000001
 40
0.0
 40
0.0
 40
0.0
 40
0.0
 40
0.5
 40
0.5
 40
1.0
 40
1.0
 40
1.0
 40
1.0
 10
104.0184805379341
 20
408.3600371940173
 30
0.0
 10
104.0184805379341
 20
408.3305278348892
 30
0.0
 10
103.9868490132124
 20
408.3011797599568
 30
0.0
 10
103.8775237850505
 20
408.2584195826075
 30
0.0
 10
103.8003247118634
 20
408.2454411304515
 30
0.0
 10
103.7210984985835
 20
408.2451722104356
 30
0.0
  0
LINE
  5
1FA
330
1AE
100
AcDbEntity
  8
DV3_Default
 62
     7
100
AcDbLine
 10
104.0184805379
 20
409.6654745421
 30
0.0
 11
104.0184805379
 21
408.360037194
 31
0.0
  0
ELLIPSE
  5
1FB
330
1AE
100
AcDbEntity
  8
DV3_Default
 62
     7
100
AcDbEllipse
 10
-240.0114742988
 20
387.9431166341
 30
0.0
 11
2520.998938272345
 21
-0.1918909789614884
 31
0.0
210
0.0
220
0.0
230
1.0
 40
0.0087266952
 41
1.434023184322132
 42
1.435305214617481
  0
SPLINE
  5
1FC
330
1AE
100
AcDbEntity
  8
DV3_Default
 62
     7
100
AcDbSpline
210
0.0
220
0.0
230
1.0
 70
     8
 71
     3
 72
    10
 73
     6
 74
     0
 42
0.000000001
 43
0.0000000001
 40
0.0
 40
0.0
 40
0.0
 40
0.0
 40
0.5
 40
0.5
 40
1.0
 40
1.0
 40
1.0
 40
1.0
 10
103.7210984985844
 20
409.711486133956
 30
0.0
 10
103.800309301943
 20
409.7113849664362
 30
0.0
 10
103.8773849840033
 20
409.7065700379528
 30
0.0
 10
103.9866854587838
 20
409.6898941355844
 30
0.0
 10
104.0184805379352
 20
409.6780344902397
 30
0.0
 10
104.0184805379341
 20
409.6654745420827
 30
0.0
  0
SPLINE
  5
1FD
330
1AE
100
AcDbEntity
  8
DV3_Default
 62
     7
100
AcDbSpline
210
0.0
220
0.0
230
1.0
 70
     8
 71
     3
 72
    10
 73
     6
 74
     0
 42
0.000000001
 43
0.0000000001
 40
0.0
 40
0.0
 40
0.0
 40
0.0
 40
0.7644164916905032
 40
0.7644164916905032
 40
1.0
 40
1.0
 40
1.0
 40
1.0
 10
106.5359356028623
 20
375.2486573075753
 30
0.0
 10
106.5359356028622
 20
375.1851555001136
 30
0.0
 10
106.5354227194775
 20
375.1395405361345
 30
0.0
 10
106.5342552147115
 20
375.1169214134896
 30
0.0
 10
106.5339453562253
 20
375.1143186535238
 30
0.0
 10
106.5336094697973
 20
375.114382136849
 30
0.0
  0
LINE
  5
1FE
330
1AE
100
AcDbEntity
  8
DV3_Default
 62
     7
100
AcDbLine
 10
106.5359356029
 20
410.9439418447
 30
0.0
 11
106.5359356029
 21
375.2486573076
 31
0.0
  0
LINE
  5
1FF
330
1AE
100
AcDbEntity
  8
DV3_Default
 62
     7
100
AcDbLine
 10
106.5359356029
 20
375.2486573076
 30
0.0
 11
106.5359356029
 21
364.9439418447
 31
0.0
  0
LINE
  5
200
330
1AE
100
AcDbEntity
  8
DV3_Default
 62
     7
100
AcDbLine
 10
106.5359356029
 20
364.9439418447
 30
0.0
 11
107.3184805379
 21
364.9439418447
 31
0.0
  0
LINE
  5
201
330
1AE
100
AcDbEntity
  8
DV3_Default
 62
     7
100
AcDbLine
 10
107.3184805379
 20
410.9439418447
 30
0.0
 11
106.5359356029
 21
410.9439418447
 31
0.0
  0
LINE
  5
202
330
1AE
100
AcDbEntity
  8
DV3_Default
 62
     7
100
AcDbLine
 10
100.5184805379
 20
365.9439418447
 30
0.0
 11
106.5359356029
 21
365.9436501724
 31
0.0
  0
LINE
  5
203
330
1AE
100
AcDbEntity
  8
DV3_Default
 62
     7
100
AcDbLine
 10
106.5359356029
 20
409.9448405278
 30
0.0
 11
100.5184805379
 21
409.9439418447
 31
0.0
  0
LINE
  5
204
330
1AE
100
AcDbEntity
  8
DV3_Default
 62
     7
100
AcDbLine
 10
100.5184805379
 20
375.1142479755
 30
0.0
 11
106.5359356029
 21
375.1142479755
 31
0.0
  0
ARC
  5
205
330
1AE
100
AcDbEntity
  8
DV3_Default
 62
     7
100
AcDbCircle
 10
99.5184805379
 20
406.9439418447
 30
0.0
 40
5.000000000000002
100
AcDbArc
 50
36.8698976458
 51
79.3437979669
  0
LINE
  5
206
330
1AE
100
AcDbEntity
  8
DV3_Default
 62
     7
100
AcDbLine
 10
119.3831903664
 20
363.9439418447
 30
0.0
 11
140.2861879474
 21
363.9439418447
 31
0.0
  0
LINE
  5
207
330
1AE
100
AcDbEntity
  8
DV3_Default
 62
     7
100
AcDbLine
 10
49.0184805379
 20
281.7439418447
 30
0.0
 11
76.0184805379
 21
281.7439418447
 31
0.0
  0
LINE
  5
208
330
1AE
100
AcDbEntity
  8
DV3_Default
 62
     7
100
AcDbLine
 10
76.0184805379
 20
161.5439418447
 30
0.0
 11
49.0184805379
 21
161.5439418447
 31
0.0
  0
ARC
  5
209
330
1AE
100
AcDbEntity
  8
DV3_Default
 62
     7
100
AcDbCircle
 10
76.0184805379
 20
281.2439418447
 30
0.0
 40
0.5000000000000004
100
AcDbArc
 50
0.0
 51
90.0
  0
ARC
  5
20A
330
1AE
100
AcDbEntity
  8
DV3_Default
 62
     7
100
AcDbCircle
 10
49.0184805379
 20
281.2439418447
 30
0.0
 40
0.5000000000000004
100
AcDbArc
 50
90.0
 51
180.0
  0
LINE
  5
20B
330
1AE
100
AcDbEntity
  8
DV3_Default
 62
     7
100
AcDbLine
 10
76.5184805379
 20
162.0439418447
 30
0.0
 11
76.5184805379
 21
281.2439418447
 31
0.0
  0
LINE
  5
20C
330
1AE
100
AcDbEntity
  8
DV3_Default
 62
     7
100
AcDbLine
 10
48.5184805379
 20
281.2439418447
 30
0.0
 11
48.5184805379
 21
162.0439418447
 31
0.0
  0
ARC
  5
20D
330
1AE
100
AcDbEntity
  8
DV3_Default
 62
     7
100
AcDbCircle
 10
76.0184805379
 20
162.0439418447
 30
0.0
 40
0.5000000000000004
100
AcDbArc
 50
270.0
 51
0.0
  0
ARC
  5
20E
330
1AE
100
AcDbEntity
  8
DV3_Default
 62
     7
100
AcDbCircle
 10
49.0184805379
 20
162.0439418447
 30
0.0
 40
0.5000000000000004
100
AcDbArc
 50
180.0
 51
270.0
  0
LINE
  5
20F
330
1AE
100
AcDbEntity
  8
DV3_Default
 62
     7
100
AcDbLine
 10
64.915658198
 20
281.9439418447
 30
0.0
 11
65.0311282518
 21
281.7439418447
 31
0.0
  0
LINE
  5
210
330
1AE
100
AcDbEntity
  8
DV3_Default
 62
     7
100
AcDbLine
 10
60.005832824
 20
281.7439418447
 30
0.0
 11
60.1213028779
 21
281.9439418447
 31
0.0
  0
ENDBLK
  5
212
330
1AE
100
AcDbEntity
  8
0
100
AcDbBlockEnd
  0
ENDSEC
  0
SECTION
  2
ENTITIES
  0
INSERT
  5
70
330
1F
100
AcDbEntity
  8
Default
100
AcDbBlockReference
  2
SEANNOT_GROUP
 10
0.0
 20
0.0
 30
0.0
  0
INSERT
  5
76
330
1F
100
AcDbEntity
  8
Default
100
AcDbBlockReference
  2
SEANNOT_GROUP1
 10
0.0
 20
0.0
 30
0.0
  0
INSERT
  5
7C
330
1F
100
AcDbEntity
  8
Default
100
AcDbBlockReference
  2
SEANNOT_GROUP2
 10
0.0
 20
0.0
 30
0.0
  0
INSERT
  5
82
330
1F
100
AcDbEntity
  8
Default
100
AcDbBlockReference
  2
SEANNOT_GROUP3
 10
0.0
 20
0.0
 30
0.0
  0
INSERT
  5
88
330
1F
100
AcDbEntity
  8
Default
100
AcDbBlockReference
  2
SEANNOT_GROUP4
 10
0.0
 20
0.0
 30
0.0
  0
INSERT
  5
8E
330
1F
100
AcDbEntity
  8
Default
100
AcDbBlockReference
  2
SEANNOT_GROUP5
 10
0.0
 20
0.0
 30
0.0
  0
INSERT
  5
94
330
1F
100
AcDbEntity
  8
Default
100
AcDbBlockReference
  2
SE
 10
0.0
 20
0.0
 30
0.0
  0
INSERT
  5
121
330
1F
100
AcDbEntity
  8
Default
100
AcDbBlockReference
  2
SE1
 10
0.0
 20
0.0
 30
0.0
  0
INSERT
  5
1AF
330
1F
100
AcDbEntity
  8
Default
100
AcDbBlockReference
  2
SE2
 10
0.0
 20
0.0
 30
0.0
  0
MTEXT
  5
213
330
1F
100
AcDbEntity
  8
Default
100
AcDbMText
 10
5.9362635081
 20
63.4225120485
 30
0.0
 40
10.0
 41
113.8626497168
 46
65.4545454545
 71
     1
 72
     1
  1
{\fArial Narrow|b0||i0||c0|p34;\C7;\H10.;\W1.;Grohe AG\P}{\fArial Narrow|b0||i0||c0|p34;\C7;\H10.;\W1.;\P}{\fArial Narrow|b0||i0||c0|p34;\C7;\H10.;\W1.;ecn:\P}{\fArial Narrow|b0||i0||c0|p34;\C7;\H10.;\W1.;unit: mm}
 73
     1
 44
1.0
1001
ACAD
1000
ACAD_MTEXT_DEFINED_HEIGHT_BEGIN
1070
    46
1040
65.4545454545
1000
ACAD_MTEXT_DEFINED_HEIGHT_END
  0
LINE
  5
214
330
1F
100
AcDbEntity
  8
Default
 62
     7
100
AcDbLine
 10
0.0
 20
0.0
 30
0.0
 11
100.0
 21
0.0
 31
0.0
  0
LINE
  5
215
330
1F
100
AcDbEntity
  8
Default
 62
     7
100
AcDbLine
 10
0.0
 20
0.0
 30
0.0
 11
0.0
 21
100.0
 31
0.0
  0
MTEXT
  5
216
330
1F
100
AcDbEntity
  8
Default
100
AcDbMText
 10
24.3923665681
 20
-8.2375342018
 30
0.0
 40
10.0
 41
35.00001
 46
16.3636363636
 71
     1
 72
     1
  1
{\fArial Narrow|b0||i0||c0|p34;\C7;\H10.;\W0.82;100 mm}
 73
     1
 44
1.0
1001
ACAD
1000
ACAD_MTEXT_DEFINED_HEIGHT_BEGIN
1070
    46
1040
16.3636363636
1000
ACAD_MTEXT_DEFINED_HEIGHT_END
  0
MTEXT
  5
217
330
1F
100
AcDbEntity
  8
Default
100
AcDbMText
 10
-17.6150308803
 20
24.6231930421
 30
0.0
 40
10.0
 41
35.00001
 46
16.3636363636
 71
     1
 72
     1
  1
{\fArial Narrow|b0||i0||c0|p34;\C7;\H10.;\W0.82;100 mm}
 11
6.123233995736766E-17
 21
1.0
 31
0.0
 73
     1
 44
1.0
1001
ACAD
1000
ACAD_MTEXT_DEFINED_HEIGHT_BEGIN
1070
    46
1040
16.3636363636
1000
ACAD_MTEXT_DEFINED_HEIGHT_END
  0
MTEXT
  5
218
330
1F
100
AcDbEntity
  8
Default
100
AcDbMText
 10
28.4878128572
 20
24.8634936442
 30
0.0
 40
10.0
 41
86.691737001
 46
16.3636363636
 71
     4
 72
     1
  1
{\fArial Narrow|b0||i0||c0|p34;\C7;\H10.;\W1.;244328}
 73
     1
 44
1.0
1001
ACAD
1000
ACAD_MTEXT_DEFINED_HEIGHT_BEGIN
1070
    46
1040
16.3636363636
1000
ACAD_MTEXT_DEFINED_HEIGHT_END
  0
MTEXT
  5
219
330
1F
100
AcDbEntity
  8
Default
100
AcDbMText
 10
5.9012241913
 20
41.4970052916
 30
0.0
 40
10.0
 41
109.9146987306
 46
16.3636363636
 71
     4
 72
     1
  1
{\fArial Narrow|b0||i0||c0|p34;\C7;\H10.;\W1.;33893002}
 73
     1
 44
1.0
1001
ACAD
1000
ACAD_MTEXT_DEFINED_HEIGHT_BEGIN
1070
    46
1040
16.3636363636
1000
ACAD_MTEXT_DEFINED_HEIGHT_END
  0
ENDSEC
  0
SECTION
  2
OBJECTS
  0
DICTIONARY
  5
C
330
0
100
AcDbDictionary
281
     1
  3
ACAD_DETAILVIEWSTYLE
350
255
  3
ACAD_GROUP
350
D
  3
ACAD_LAYOUT
350
1A
  3
ACAD_MATERIAL
350
43
  3
ACAD_MLEADERSTYLE
350
6B
  3
ACAD_MLINESTYLE
350
17
  3
ACAD_PLOTSETTINGS
350
19
  3
ACAD_PLOTSTYLENAME
350
E
  3
ACAD_SCALELIST
350
47
  3
ACAD_SECTIONVIEWSTYLE
350
256
  3
ACAD_TABLESTYLE
350
69
  3
ACAD_VISUALSTYLE
350
2A
  3
ACDB_RECOMPOSE_DATA
350
252
  3
AcDbVariableDictionary
350
21A
  0
SUN
  5
6D
330
29
100
AcDbSun
 90
        1
290
     0
 63
     7
421
 16777215
 40
1.0
291
     1
 91
  2455826
 92
 54000000
292
     0
 70
     2
 71
   256
280
     1
  0
DICTIONARY
  5
255
102
{ACAD_REACTORS
330
C
102
}
330
C
100
AcDbDictionary
281
     1
  0
DICTIONARY
  5
D
102
{ACAD_REACTORS
330
C
102
}
330
C
100
AcDbDictionary
281
     1
  0
DICTIONARY
  5
1A
102
{ACAD_REACTORS
330
C
102
}
330
C
100
AcDbDictionary
281
     1
  3
Layout1
350
1E
  3
Model
350
22
  0
DICTIONARY
  5
43
102
{ACAD_REACTORS
330
C
102
}
330
C
100
AcDbDictionary
281
     1
  3
ByBlock
350
45
  3
ByLayer
350
44
  3
Global
350
46
  0
DICTIONARY
  5
6B
102
{ACAD_REACTORS
330
C
102
}
330
C
100
AcDbDictionary
281
     1
  3
Standard
350
6C
  0
DICTIONARY
  5
17
102
{ACAD_REACTORS
330
C
102
}
330
C
100
AcDbDictionary
281
     1
  3
Standard
350
18
  0
DICTIONARY
  5
19
102
{ACAD_REACTORS
330
C
102
}
330
C
100
AcDbDictionary
281
     1
  0
ACDBDICTIONARYWDFLT
  5
E
102
{ACAD_REACTORS
330
C
102
}
330
C
100
AcDbDictionary
281
     1
  3
Normal
350
F
100
AcDbDictionaryWithDefault
340
F
  0
DICTIONARY
  5
47
102
{ACAD_REACTORS
330
C
102
}
330
C
100
AcDbDictionary
281
     1
  3
A0
350
48
  3
A1
350
49
  3
A2
350
4A
  3
A3
350
4B
  3
A4
350
4C
  3
A5
350
4D
  3
A6
350
4E
  3
A7
350
4F
  3
A8
350
50
  3
A9
350
51
  3
B0
350
52
  3
B1
350
53
  3
B2
350
54
  3
B3
350
55
  3
B4
350
56
  3
B5
350
57
  3
B6
350
58
  3
B7
350
59
  3
B8
350
5A
  3
B9
350
5B
  3
C0
350
5C
  3
C1
350
5D
  3
C2
350
5E
  3
C3
350
5F
  3
C4
350
60
  3
C5
350
61
  3
C6
350
62
  3
C7
350
63
  3
C8
350
64
  3
C9
350
65
  3
D0
350
66
  3
D1
350
67
  3
D2
350
68
  0
DICTIONARY
  5
256
102
{ACAD_REACTORS
330
C
102
}
330
C
100
AcDbDictionary
281
     1
  0
DICTIONARY
  5
69
102
{ACAD_REACTORS
330
C
102
}
330
C
100
AcDbDictionary
281
     1
  3
Standard
350
6A
  0
DICTIONARY
  5
2A
102
{ACAD_REACTORS
330
C
102
}
330
C
100
AcDbDictionary
281
     1
  3
2dWireframe
350
2F
  3
Basic
350
32
  3
Brighten
350
36
  3
ColorChange
350
3A
  3
Conceptual
350
34
  3
Dim
350
35
  3
EdgeColorOff
350
3D
  3
Facepattern
350
39
  3
Flat
350
2B
  3
FlatWithEdges
350
2C
  3
Gouraud
350
2D
  3
GouraudWithEdges
350
2E
  3
Hidden
350
31
  3
JitterOff
350
3B
  3
Linepattern
350
38
  3
OverhangOff
350
3C
  3
Realistic
350
33
  3
Shaded
350
42
  3
Shaded with edges
350
41
  3
Shades of Gray
350
3E
  3
Sketchy
350
3F
  3
Thicken
350
37
  3
Wireframe
350
30
  3
X-Ray
350
40
  0
XRECORD
  5
252
102
{ACAD_REACTORS
330
C
102
}
330
C
100
AcDbXrecord
280
     1
 90
        1
330
6A
  0
DICTIONARY
  5
21A
102
{ACAD_REACTORS
330
C
102
}
330
C
100
AcDbDictionary
281
     1
  3
CANNOSCALE
350
21B
  3
CENTEREXE
350
257
  3
CENTERLTYPEFILE
350
258
  3
CMLEADERSTYLE
350
254
  3
CTABLESTYLE
350
253
  3
XCLIPFRAME
350
21C
  0
LAYOUT
  5
1E
102
{ACAD_REACTORS
330
1A
102
}
330
1A
100
AcDbPlotSettings
  1

  2
none_device
  4

  6

 40
0.0
 41
0.0
 42
0.0
 43
0.0
 44
0.0
 45
0.0
 46
0.0
 47
0.0
 48
0.0
 49
0.0
140
0.0
141
0.0
142
1.0
143
1.0
 70
   688
 72
     1
 73
     0
 74
     5
  7

 75
    16
 76
     0
 77
     2
 78
   300
147
1.0
148
0.0
149
0.0
100
AcDbLayout
  1
Layout1
 70
     1
 71
     1
 10
0.0
 20
0.0
 11
3000.0
 21
4500.0
 12
0.0
 22
0.0
 32
0.0
 14
0.0
 24
0.0
 34
0.0
 15
3000.0
 25
4500.0
 35
0.0
146
0.0
 13
0.0
 23
0.0
 33
0.0
 16
1.0
 26
0.0
 36
0.0
 17
0.0
 27
1.0
 37
0.0
 76
     0
330
1B
  0
LAYOUT
  5
22
102
{ACAD_REACTORS
330
1A
102
}
330
1A
100
AcDbPlotSettings
  1

  2
none_device
  4
Letter_(8.50_x_11.00_Inches)
  6

 40
6.35
 41
6.35
 42
6.35000508
 43
6.35000508
 44
215.9
 45
279.4
 46
0.0
 47
0.0
 48
0.0
 49
0.0
140
0.0
141
0.0
142
1.0
143
1.0
 70
  1712
 72
     1
 73
     0
 74
     0
  7

 75
     0
 76
     0
 77
     2
 78
   300
147
1.0
148
0.0
149
0.0
100
AcDbLayout
  1
Model
 70
     1
 71
     0
 10
0.0
 20
0.0
 11
3000.0
 21
4500.0
 12
0.0
 22
0.0
 32
0.0
 14
0.0
 24
0.0
 34
0.0
 15
3000.0
 25
4500.0
 35
0.0
146
0.0
 13
0.0
 23
0.0
 33
0.0
 16
1.0
 26
0.0
 36
0.0
 17
0.0
 27
1.0
 37
0.0
 76
     0
330
1F
331
29
  0
MATERIAL
  5
45
102
{ACAD_REACTORS
330
43
102
}
330
43
100
AcDbMaterial
  1
ByBlock
 72
     1
 94
      127
  0
MATERIAL
  5
44
102
{ACAD_REACTORS
330
43
102
}
330
43
100
AcDbMaterial
  1
ByLayer
 72
     1
 94
      127
  0
MATERIAL
  5
46
102
{ACAD_REACTORS
330
43
102
}
330
43
100
AcDbMaterial
  1
Global
 72
     1
 94
      127
  0
MLEADERSTYLE
  5
6C
102
{ACAD_REACTORS
330
6B
102
}
102
{ACAD_XDICTIONARY
360
250
102
}
330
6B
100
AcDbMLeaderStyle
170
     2
171
     1
172
     0
 90
        2
 40
0.0
 41
0.0
173
     1
 91
-1056964608
340
14
 92
       -2
290
     1
 42
2.0
291
     1
 43
8.0
  3
Standard
341
0
 44
4.0
300

342
11
174
     1
178
     6
175
     1
176
     0
 93
-1056964608
 45
4.0
292
     0
297
     0
 46
4.0
343
0
 94
-1056964608
 47
1.0
 49
1.0
140
1.0
293
     1
141
0.0
294
     1
177
     0
142
1.0
295
     0
296
     0
143
3.75
1001
ACAD_MLEADERVER
1070
     2
  0
MLINESTYLE
  5
18
102
{ACAD_REACTORS
330
17
102
}
330
17
100
AcDbMlineStyle
  2
Standard
 70
     0
  3

 62
   256
 51
90.0
 52
90.0
 71
     2
 49
0.5
 62
   256
  6
BYLAYER
 49
-0.5
 62
   256
  6
BYLAYER
  0
ACDBPLACEHOLDER
  5
F
102
{ACAD_REACTORS
330
E
102
}
330
E
  0
SCALE
  5
48
102
{ACAD_REACTORS
330
47
102
}
330
47
100
AcDbScale
 70
     0
300
1:1
140
1.0
141
1.0
290
     1
  0
SCALE
  5
49
102
{ACAD_REACTORS
330
47
102
}
330
47
100
AcDbScale
 70
     0
300
1:2
140
1.0
141
2.0
290
     0
  0
SCALE
  5
4A
102
{ACAD_REACTORS
330
47
102
}
330
47
100
AcDbScale
 70
     0
300
1:4
140
1.0
141
4.0
290
     0
  0
SCALE
  5
4B
102
{ACAD_REACTORS
330
47
102
}
330
47
100
AcDbScale
 70
     0
300
1:5
140
1.0
141
5.0
290
     0
  0
SCALE
  5
4C
102
{ACAD_REACTORS
330
47
102
}
330
47
100
AcDbScale
 70
     0
300
1:8
140
1.0
141
8.0
290
     0
  0
SCALE
  5
4D
102
{ACAD_REACTORS
330
47
102
}
330
47
100
AcDbScale
 70
     0
300
1:10
140
1.0
141
10.0
290
     0
  0
SCALE
  5
4E
102
{ACAD_REACTORS
330
47
102
}
330
47
100
AcDbScale
 70
     0
300
1:16
140
1.0
141
16.0
290
     0
  0
SCALE
  5
4F
102
{ACAD_REACTORS
330
47
102
}
330
47
100
AcDbScale
 70
     0
300
1:20
140
1.0
141
20.0
290
     0
  0
SCALE
  5
50
102
{ACAD_REACTORS
330
47
102
}
330
47
100
AcDbScale
 70
     0
300
1:30
140
1.0
141
30.0
290
     0
  0
SCALE
  5
51
102
{ACAD_REACTORS
330
47
102
}
330
47
100
AcDbScale
 70
     0
300
1:40
140
1.0
141
40.0
290
     0
  0
SCALE
  5
52
102
{ACAD_REACTORS
330
47
102
}
330
47
100
AcDbScale
 70
     0
300
1:50
140
1.0
141
50.0
290
     0
  0
SCALE
  5
53
102
{ACAD_REACTORS
330
47
102
}
330
47
100
AcDbScale
 70
     0
300
1:100
140
1.0
141
100.0
290
     0
  0
SCALE
  5
54
102
{ACAD_REACTORS
330
47
102
}
330
47
100
AcDbScale
 70
     0
300
2:1
140
2.0
141
1.0
290
     0
  0
SCALE
  5
55
102
{ACAD_REACTORS
330
47
102
}
330
47
100
AcDbScale
 70
     0
300
4:1
140
4.0
141
1.0
290
     0
  0
SCALE
  5
56
102
{ACAD_REACTORS
330
47
102
}
330
47
100
AcDbScale
 70
     0
300
8:1
140
8.0
141
1.0
290
     0
  0
SCALE
  5
57
102
{ACAD_REACTORS
330
47
102
}
330
47
100
AcDbScale
 70
     0
300
10:1
140
10.0
141
1.0
290
     0
  0
SCALE
  5
58
102
{ACAD_REACTORS
330
47
102
}
330
47
100
AcDbScale
 70
     0
300
100:1
140
100.0
141
1.0
290
     0
  0
SCALE
  5
59
102
{ACAD_REACTORS
330
47
102
}
330
47
100
AcDbScale
 70
     0
300
1/128" = 1'-0"
140
0.0078125
141
12.0
290
     0
  0
SCALE
  5
5A
102
{ACAD_REACTORS
330
47
102
}
330
47
100
AcDbScale
 70
     0
300
1/64" = 1'-0"
140
0.015625
141
12.0
290
     0
  0
SCALE
  5
5B
102
{ACAD_REACTORS
330
47
102
}
330
47
100
AcDbScale
 70
     0
300
1/32" = 1'-0"
140
0.03125
141
12.0
290
     0
  0
SCALE
  5
5C
102
{ACAD_REACTORS
330
47
102
}
330
47
100
AcDbScale
 70
     0
300
1/16" = 1'-0"
140
0.0625
141
12.0
290
     0
  0
SCALE
  5
5D
102
{ACAD_REACTORS
330
47
102
}
330
47
100
AcDbScale
 70
     0
300
3/32" = 1'-0"
140
0.09375
141
12.0
290
     0
  0
SCALE
  5
5E
102
{ACAD_REACTORS
330
47
102
}
330
47
100
AcDbScale
 70
     0
300
1/8" = 1'-0"
140
0.125
141
12.0
290
     0
  0
SCALE
  5
5F
102
{ACAD_REACTORS
330
47
102
}
330
47
100
AcDbScale
 70
     0
300
3/16" = 1'-0"
140
0.1875
141
12.0
290
     0
  0
SCALE
  5
60
102
{ACAD_REACTORS
330
47
102
}
330
47
100
AcDbScale
 70
     0
300
1/4" = 1'-0"
140
0.25
141
12.0
290
     0
  0
SCALE
  5
61
102
{ACAD_REACTORS
330
47
102
}
330
47
100
AcDbScale
 70
     0
300
3/8" = 1'-0"
140
0.375
141
12.0
290
     0
  0
SCALE
  5
62
102
{ACAD_REACTORS
330
47
102
}
330
47
100
AcDbScale
 70
     0
300
1/2" = 1'-0"
140
0.5
141
12.0
290
     0
  0
SCALE
  5
63
102
{ACAD_REACTORS
330
47
102
}
330
47
100
AcDbScale
 70
     0
300
3/4" = 1'-0"
140
0.75
141
12.0
290
     0
  0
SCALE
  5
64
102
{ACAD_REACTORS
330
47
102
}
330
47
100
AcDbScale
 70
     0
300
1" = 1'-0"
140
1.0
141
12.0
290
     0
  0
SCALE
  5
65
102
{ACAD_REACTORS
330
47
102
}
330
47
100
AcDbScale
 70
     0
300
1-1/2" = 1'-0"
140
1.5
141
12.0
290
     0
  0
SCALE
  5
66
102
{ACAD_REACTORS
330
47
102
}
330
47
100
AcDbScale
 70
     0
300
3" = 1'-0"
140
3.0
141
12.0
290
     0
  0
SCALE
  5
67
102
{ACAD_REACTORS
330
47
102
}
330
47
100
AcDbScale
 70
     0
300
6" = 1'-0"
140
6.0
141
12.0
290
     0
  0
SCALE
  5
68
102
{ACAD_REACTORS
330
47
102
}
330
47
100
AcDbScale
 70
     0
300
1'-0" = 1'-0"
140
12.0
141
12.0
290
     0
  0
TABLESTYLE
  5
6A
102
{ACAD_REACTORS
330
69
102
}
102
{ACAD_XDICTIONARY
360
24D
102
}
330
69
100
AcDbTableStyle
  3
Standard
 70
     0
 71
     0
 40
0.06
 41
0.06
280
     0
281
     0
  7
Standard
140
4.5
170
     2
 62
     0
 63
   257
283
     0
 90
        4
 91
        0
  1

274
    -2
284
     1
 64
     0
275
    -2
285
     1
 65
     0
276
    -2
286
     1
 66
     0
277
    -2
287
     1
 67
     0
278
    -2
288
     1
 68
     0
279
    -2
289
     1
 69
     0
  7
Standard
140
6.0
170
     5
 62
     0
 63
   257
283
     0
 90
        4
 91
        0
  1

274
    -2
284
     1
 64
     0
275
    -2
285
     1
 65
     0
276
    -2
286
     1
 66
     0
277
    -2
287
     1
 67
     0
278
    -2
288
     1
 68
     0
279
    -2
289
     1
 69
     0
  7
Standard
140
4.5
170
     5
 62
     0
 63
   257
283
     0
 90
        4
 91
        0
  1

274
    -2
284
     1
 64
     0
275
    -2
285
     1
 65
     0
276
    -2
286
     1
 66
     0
277
    -2
287
     1
 67
     0
278
    -2
288
     1
 68
     0
279
    -2
289
     1
 69
     0
  0
VISUALSTYLE
  5
2F
102
{ACAD_REACTORS
330
2A
102
}
102
{ACAD_XDICTIONARY
360
225
102
}
330
2A
100
AcDbVisualStyle
  2
2dWireframe
 70
     4
 71
     0
 72
     2
 73
     0
 90
        0
 40
0.6
 41
30.0
 62
     5
 63
     7
421
 16777215
 74
     1
 91
        4
 64
     7
 65
   257
 75
     1
175
     1
 42
1.0
 92
        0
 66
   257
 43
1.0
 76
     1
 77
     6
 78
     2
 67
     7
 79
     5
170
     0
171
     0
290
     0
174
     0
 93
        1
 44
0.0
173
     0
291
     0
 45
0.0
  0
VISUALSTYLE
  5
32
102
{ACAD_REACTORS
330
2A
102
}
102
{ACAD_XDICTIONARY
360
22B
102
}
330
2A
100
AcDbVisualStyle
  2
Basic
 70
     7
 71
     1
 72
     0
 73
     1
 90
        0
 40
0.6
 41
30.0
 62
     5
 63
     7
421
 16777215
 74
     0
 91
        4
 64
     7
 65
   257
 75
     1
175
     1
 42
1.0
 92
        8
 66
     7
 43
1.0
 76
     1
 77
     6
 78
     2
 67
     7
 79
     5
170
     0
171
     0
290
     0
174
     0
 93
        1
 44
0.0
173
     0
291
     1
 45
0.0
  0
VISUALSTYLE
  5
36
102
{ACAD_REACTORS
330
2A
102
}
102
{ACAD_XDICTIONARY
360
233
102
}
330
2A
100
AcDbVisualStyle
  2
Brighten
 70
    12
 71
     2
 72
     2
 73
     0
 90
        0
 40
0.6
 41
30.0
 62
     5
 63
     7
421
 16777215
 74
     1
 91
        4
 64
     7
 65
   257
 75
     1
175
     1
 42
1.0
 92
        8
 66
     7
 43
1.0
 76
     1
 77
     6
 78
     2
 67
     7
 79
     5
170
     0
171
     0
290
     0
174
     0
 93
        1
 44
50.0
173
     0
291
     1
 45
0.0
  0
VISUALSTYLE
  5
3A
102
{ACAD_REACTORS
330
2A
102
}
102
{ACAD_XDICTIONARY
360
23B
102
}
330
2A
100
AcDbVisualStyle
  2
ColorChange
 70
    16
 71
     2
 72
     2
 73
     3
 90
        0
 40
0.6
 41
30.0
 62
     5
 63
     8
421
  8421504
 74
     1
 91
        4
 64
     7
 65
   257
 75
     1
175
     1
 42
1.0
 92
        8
 66
     8
424
  8421504
 43
1.0
 76
     1
 77
     6
 78
     2
 67
     7
 79
     5
170
     0
171
     0
290
     0
174
     0
 93
        1
 44
0.0
173
     0
291
     1
 45
0.0
  0
VISUALSTYLE
  5
34
102
{ACAD_REACTORS
330
2A
102
}
102
{ACAD_XDICTIONARY
360
22F
102
}
330
2A
100
AcDbVisualStyle
  2
Conceptual
 70
     9
 71
     3
 72
     2
 73
     0
 90
        0
 40
0.6
 41
30.0
 62
     5
 63
     7
421
 16777215
 74
     2
 91
        2
 64
     7
 65
   257
 75
     1
175
     1
 42
179.0
 92
        8
 66
     7
 43
1.0
 76
     1
 77
     6
 78
     2
 67
     7
 79
     3
170
     0
171
     0
290
     0
174
     0
 93
        1
 44
0.0
173
     0
291
     0
 45
0.0
  0
VISUALSTYLE
  5
35
102
{ACAD_REACTORS
330
2A
102
}
102
{ACAD_XDICTIONARY
360
231
102
}
330
2A
100
AcDbVisualStyle
  2
Dim
 70
    11
 71
     2
 72
     2
 73
     0
 90
        0
 40
0.6
 41
30.0
 62
     5
 63
     7
421
 16777215
 74
     1
 91
        4
 64
     7
 65
   257
 75
     1
175
     1
 42
1.0
 92
        8
 66
     7
 43
1.0
 76
     1
 77
     6
 78
     2
 67
     7
 79
     5
170
     0
171
     0
290
     0
174
     0
 93
        1
 44
-50.0
173
     0
291
     1
 45
0.0
  0
VISUALSTYLE
  5
3D
102
{ACAD_REACTORS
330
2A
102
}
102
{ACAD_XDICTIONARY
360
241
102
}
330
2A
100
AcDbVisualStyle
  2
EdgeColorOff
 70
    22
 71
     2
 72
     2
 73
     0
 90
        0
 40
0.6
 41
30.0
 62
     5
 63
     7
421
 16777215
 74
     1
 91
        4
 64
     7
 65
   257
 75
     1
175
     1
 42
1.0
 92
        8
 66
     7
 43
1.0
 76
     1
 77
     6
 78
     2
 67
     7
 79
     5
170
     0
171
     0
290
     0
174
     0
 93
        1
 44
0.0
173
     0
291
     1
 45
0.0
  0
VISUALSTYLE
  5
39
102
{ACAD_REACTORS
330
2A
102
}
102
{ACAD_XDICTIONARY
360
239
102
}
330
2A
100
AcDbVisualStyle
  2
Facepattern
 70
    15
 71
     2
 72
     2
 73
     0
 90
        0
 40
0.6
 41
30.0
 62
     5
 63
     7
421
 16777215
 74
     1
 91
        4
 64
     7
 65
   257
 75
     1
175
     1
 42
1.0
 92
        8
 66
     7
 43
1.0
 76
     1
 77
     6
 78
     2
 67
     7
 79
     5
170
     0
171
     0
290
     0
174
     0
 93
        1
 44
0.0
173
     0
291
     1
 45
0.0
  0
VISUALSTYLE
  5
2B
102
{ACAD_REACTORS
330
2A
102
}
102
{ACAD_XDICTIONARY
360
21D
102
}
330
2A
100
AcDbVisualStyle
  2
Flat
 70
     0
 71
     2
 72
     1
 73
     1
 90
        2
 40
0.6
 41
30.0
 62
     5
 63
     7
421
 16777215
 74
     0
 91
        0
 64
     7
 65
   257
 75
     1
175
     1
 42
1.0
 92
        8
 66
     7
 43
1.0
 76
     1
 77
     6
 78
     2
 67
     7
 79
     5
170
     0
171
     0
290
     0
174
     0
 93
       13
 44
0.0
173
     0
291
     1
 45
0.0
  0
VISUALSTYLE
  5
2C
102
{ACAD_REACTORS
330
2A
102
}
102
{ACAD_XDICTIONARY
360
21F
102
}
330
2A
100
AcDbVisualStyle
  2
FlatWithEdges
 70
     1
 71
     2
 72
     1
 73
     1
 90
        2
 40
0.6
 41
30.0
 62
     5
 63
     7
421
 16777215
 74
     1
 91
        0
 64
     7
 65
   257
 75
     1
175
     1
 42
1.0
 92
        0
 66
   257
 43
1.0
 76
     1
 77
     6
 78
     2
 67
     7
 79
     5
170
     0
171
     0
290
     0
174
     0
 93
       13
 44
0.0
173
     0
291
     1
 45
0.0
  0
VISUALSTYLE
  5
2D
102
{ACAD_REACTORS
330
2A
102
}
102
{ACAD_XDICTIONARY
360
221
102
}
330
2A
100
AcDbVisualStyle
  2
Gouraud
 70
     2
 71
     2
 72
     2
 73
     1
 90
        2
 40
0.6
 41
30.0
 62
     5
 63
     7
421
 16777215
 74
     0
 91
        0
 64
     7
 65
   257
 75
     1
175
     1
 42
1.0
 92
        0
 66
     7
 43
1.0
 76
     1
 77
     6
 78
     2
 67
     7
 79
     5
170
     0
171
     0
290
     0
174
     0
 93
       13
 44
0.0
173
     0
291
     1
 45
0.0
  0
VISUALSTYLE
  5
2E
102
{ACAD_REACTORS
330
2A
102
}
102
{ACAD_XDICTIONARY
360
223
102
}
330
2A
100
AcDbVisualStyle
  2
GouraudWithEdges
 70
     3
 71
     2
 72
     2
 73
     1
 90
        2
 40
0.6
 41
30.0
 62
     5
 63
     7
421
 16777215
 74
     1
 91
        0
 64
     7
 65
   257
 75
     1
175
     1
 42
1.0
 92
        0
 66
   257
 43
1.0
 76
     1
 77
     6
 78
     2
 67
     7
 79
     5
170
     0
171
     0
290
     0
174
     0
 93
       13
 44
0.0
173
     0
291
     1
 45
0.0
  0
VISUALSTYLE
  5
31
102
{ACAD_REACTORS
330
2A
102
}
102
{ACAD_XDICTIONARY
360
229
102
}
330
2A
100
AcDbVisualStyle
  2
Hidden
 70
     6
 71
     1
 72
     2
 73
     2
 90
        0
 40
0.6
 41
30.0
 62
     5
 63
     7
421
 16777215
 74
     2
 91
        2
 64
     7
 65
   257
 75
     2
175
     1
 42
40.0
 92
        0
 66
   257
 43
1.0
 76
     1
 77
     6
 78
     2
 67
     7
 79
     3
170
     0
171
     0
290
     0
174
     0
 93
        1
 44
0.0
173
     0
291
     0
 45
0.0
  0
VISUALSTYLE
  5
3B
102
{ACAD_REACTORS
330
2A
102
}
102
{ACAD_XDICTIONARY
360
23D
102
}
330
2A
100
AcDbVisualStyle
  2
JitterOff
 70
    20
 71
     2
 72
     2
 73
     0
 90
        0
 40
0.6
 41
30.0
 62
     5
 63
     7
421
 16777215
 74
     1
 91
        4
 64
     7
 65
   257
 75
     1
175
     1
 42
1.0
 92
       10
 66
     7
 43
1.0
 76
     1
 77
     6
 78
     2
 67
     7
 79
     5
170
     0
171
     0
290
     0
174
     0
 93
        1
 44
0.0
173
     0
291
     1
 45
0.0
  0
VISUALSTYLE
  5
38
102
{ACAD_REACTORS
330
2A
102
}
102
{ACAD_XDICTIONARY
360
237
102
}
330
2A
100
AcDbVisualStyle
  2
Linepattern
 70
    14
 71
     2
 72
     2
 73
     0
 90
        0
 40
0.6
 41
30.0
 62
     5
 63
     7
421
 16777215
 74
     1
 91
        4
 64
     7
 65
   257
 75
     7
175
     7
 42
1.0
 92
        8
 66
     7
 43
1.0
 76
     1
 77
     6
 78
     2
 67
     7
 79
     5
170
     0
171
     0
290
     0
174
     0
 93
        1
 44
0.0
173
     0
291
     1
 45
0.0
  0
VISUALSTYLE
  5
3C
102
{ACAD_REACTORS
330
2A
102
}
102
{ACAD_XDICTIONARY
360
23F
102
}
330
2A
100
AcDbVisualStyle
  2
OverhangOff
 70
    21
 71
     2
 72
     2
 73
     0
 90
        0
 40
0.6
 41
30.0
 62
     5
 63
     7
421
 16777215
 74
     1
 91
        4
 64
     7
 65
   257
 75
     1
175
     1
 42
1.0
 92
        9
 66
     7
 43
1.0
 76
     1
 77
     6
 78
     2
 67
     7
 79
     5
170
     0
171
     0
290
     0
174
     0
 93
        1
 44
0.0
173
     0
291
     1
 45
0.0
  0
VISUALSTYLE
  5
33
102
{ACAD_REACTORS
330
2A
102
}
102
{ACAD_XDICTIONARY
360
22D
102
}
330
2A
100
AcDbVisualStyle
  2
Realistic
 70
     8
 71
     2
 72
     3
 73
     0
 90
        2
 40
0.6
 41
30.0
 62
     5
 63
     7
421
 16777215
 74
     0
 91
        0
 64
     7
 65
   257
 75
     1
175
     1
 42
1.0
 92
        8
 66
   257
 43
1.0
 76
     1
 77
     6
 78
     2
 67
     7
 79
     3
170
     0
171
     0
290
     0
174
     0
 93
       13
 44
0.0
173
     0
291
     0
 45
0.0
  0
VISUALSTYLE
  5
42
102
{ACAD_REACTORS
330
2A
102
}
102
{ACAD_XDICTIONARY
360
24B
102
}
330
2A
100
AcDbVisualStyle
  2
Shaded
 70
    27
 71
     2
 72
     2
 73
     1
 90
        2
 40
0.6
 41
30.0
 62
     5
 63
     7
421
 16777215
 74
     0
 91
        4
 64
     7
 65
   257
 75
     1
175
     1
 42
1.0
 92
        8
 66
   257
 43
1.0
 76
     1
 77
     6
 78
     2
 67
     8
425
  7895160
 79
     3
170
     0
171
     0
290
     0
174
     0
 93
        5
 44
0.0
173
     0
291
     0
 45
0.0
  0
VISUALSTYLE
  5
41
102
{ACAD_REACTORS
330
2A
102
}
102
{ACAD_XDICTIONARY
360
249
102
}
330
2A
100
AcDbVisualStyle
  2
Shaded with edges
 70
    26
 71
     2
 72
     2
 73
     1
 90
        2
 40
0.6
 41
30.0
 62
     5
 63
     7
421
 16777215
 74
     1
 91
       10
 64
     7
 65
   257
 75
     2
175
     1
 42
1.0
 92
        8
 66
   257
 43
1.0
 76
     1
 77
     6
 78
     2
 67
     7
 79
     3
170
     0
171
     0
290
     0
174
     0
 93
        5
 44
0.0
173
     0
291
     0
 45
0.0
  0
VISUALSTYLE
  5
3E
102
{ACAD_REACTORS
330
2A
102
}
102
{ACAD_XDICTIONARY
360
243
102
}
330
2A
100
AcDbVisualStyle
  2
Shades of Gray
 70
    23
 71
     2
 72
     2
 73
     3
 90
        0
 40
0.6
 41
30.0
 62
     5
 63
     7
421
 16777215
 74
     2
 91
        2
 64
     7
 65
     7
 75
     1
175
     1
 42
40.0
 92
        8
 66
     7
 43
1.0
 76
     1
 77
     6
 78
     2
 67
     7
 79
     3
170
     0
171
     0
290
     0
174
     0
 93
        1
 44
0.0
173
     0
291
     0
 45
0.0
  0
VISUALSTYLE
  5
3F
102
{ACAD_REACTORS
330
2A
102
}
102
{ACAD_XDICTIONARY
360
245
102
}
330
2A
100
AcDbVisualStyle
  2
Sketchy
 70
    24
 71
     1
 72
     2
 73
     2
 90
        0
 40
0.6
 41
30.0
 62
     5
 63
     7
421
 16777215
 74
     2
 91
        2
 64
     7
 65
     7
 75
     1
175
     1
 42
40.0
 92
       11
 66
     7
 43
1.0
 76
     1
 77
     6
 78
     2
 67
     7
 79
     6
170
     0
171
     0
290
     0
174
     0
 93
        1
 44
0.0
173
     0
291
     0
 45
0.0
  0
VISUALSTYLE
  5
37
102
{ACAD_REACTORS
330
2A
102
}
102
{ACAD_XDICTIONARY
360
235
102
}
330
2A
100
AcDbVisualStyle
  2
Thicken
 70
    13
 71
     2
 72
     2
 73
     0
 90
        0
 40
0.6
 41
30.0
 62
     5
 63
     7
421
 16777215
 74
     1
 91
        4
 64
     7
 65
   257
 75
     1
175
     1
 42
1.0
 92
       12
 66
     7
 43
1.0
 76
     1
 77
     6
 78
     2
 67
     7
 79
     5
170
     0
171
     0
290
     0
174
     0
 93
        1
 44
0.0
173
     0
291
     1
 45
0.0
  0
VISUALSTYLE
  5
30
102
{ACAD_REACTORS
330
2A
102
}
102
{ACAD_XDICTIONARY
360
227
102
}
330
2A
100
AcDbVisualStyle
  2
Wireframe
 70
     5
 71
     0
 72
     2
 73
     0
 90
        0
 40
0.6
 41
30.0
 62
     5
 63
     7
421
 16777215
 74
     1
 91
        4
 64
     7
 65
   257
 75
     1
175
     1
 42
1.0
 92
        0
 66
   257
 43
1.0
 76
     1
 77
     6
 78
     2
 67
     7
 79
     3
170
     0
171
     0
290
     0
174
     0
 93
        1
 44
0.0
173
     0
291
     0
 45
0.0
  0
VISUALSTYLE
  5
40
102
{ACAD_REACTORS
330
2A
102
}
102
{ACAD_XDICTIONARY
360
247
102
}
330
2A
100
AcDbVisualStyle
  2
X-Ray
 70
    25
 71
     2
 72
     2
 73
     1
 90
        1
 40
0.5
 41
30.0
 62
     5
 63
     7
421
 16777215
 74
     1
 91
        0
 64
     7
 65
   257
 75
     1
175
     1
 42
1.0
 92
        8
 66
     7
 43
1.0
 76
     1
 77
     6
 78
     2
 67
     7
 79
     3
170
     0
171
     0
290
     0
174
     0
 93
       13
 44
0.0
173
     0
291
     0
 45
0.0
  0
DICTIONARYVAR
  5
21B
102
{ACAD_REACTORS
330
21A
102
}
330
21A
100
DictionaryVariables
280
     0
  1
1:1
  0
DICTIONARYVAR
  5
257
102
{ACAD_REACTORS
330
21A
102
}
330
21A
100
DictionaryVariables
280
     0
  1
3.500000
  0
DICTIONARYVAR
  5
258
102
{ACAD_REACTORS
330
21A
102
}
330
21A
100
DictionaryVariables
280
     0
  1
acadiso.lin
  0
DICTIONARYVAR
  5
254
102
{ACAD_REACTORS
330
21A
102
}
330
21A
100
DictionaryVariables
280
     0
  1
Standard
  0
DICTIONARYVAR
  5
253
102
{ACAD_REACTORS
330
21A
102
}
330
21A
100
DictionaryVariables
280
     0
  1
Standard
  0
DICTIONARYVAR
  5
21C
102
{ACAD_REACTORS
330
21A
102
}
330
21A
100
DictionaryVariables
280
     0
  1
2
  0
DICTIONARY
  5
250
330
6C
100
AcDbDictionary
280
     1
281
     1
  3
ACAD_XREC_ROUNDTRIP
360
251
  0
DICTIONARY
  5
24D
330
6A
100
AcDbDictionary
280
     1
281
     1
  3
ACAD_ROUNDTRIP_2008_TABLESTYLE_CELLSTYLEMAP
360
24E
  0
DICTIONARY
  5
225
330
2F
100
AcDbDictionary
280
     1
281
     1
  3
ACAD_XREC_ROUNDTRIP
360
226
  0
DICTIONARY
  5
22B
330
32
100
AcDbDictionary
280
     1
281
     1
  3
ACAD_XREC_ROUNDTRIP
360
22C
  0
DICTIONARY
  5
233
330
36
100
AcDbDictionary
280
     1
281
     1
  3
ACAD_XREC_ROUNDTRIP
360
234
  0
DICTIONARY
  5
23B
330
3A
100
AcDbDictionary
280
     1
281
     1
  3
ACAD_XREC_ROUNDTRIP
360
23C
  0
DICTIONARY
  5
22F
330
34
100
AcDbDictionary
280
     1
281
     1
  3
ACAD_XREC_ROUNDTRIP
360
230
  0
DICTIONARY
  5
231
330
35
100
AcDbDictionary
280
     1
281
     1
  3
ACAD_XREC_ROUNDTRIP
360
232
  0
DICTIONARY
  5
241
330
3D
100
AcDbDictionary
280
     1
281
     1
  3
ACAD_XREC_ROUNDTRIP
360
242
  0
DICTIONARY
  5
239
330
39
100
AcDbDictionary
280
     1
281
     1
  3
ACAD_XREC_ROUNDTRIP
360
23A
  0
DICTIONARY
  5
21D
330
2B
100
AcDbDictionary
280
     1
281
     1
  3
ACAD_XREC_ROUNDTRIP
360
21E
  0
DICTIONARY
  5
21F
330
2C
100
AcDbDictionary
280
     1
281
     1
  3
ACAD_XREC_ROUNDTRIP
360
220
  0
DICTIONARY
  5
221
330
2D
100
AcDbDictionary
280
     1
281
     1
  3
ACAD_XREC_ROUNDTRIP
360
222
  0
DICTIONARY
  5
223
330
2E
100
AcDbDictionary
280
     1
281
     1
  3
ACAD_XREC_ROUNDTRIP
360
224
  0
DICTIONARY
  5
229
330
31
100
AcDbDictionary
280
     1
281
     1
  3
ACAD_XREC_ROUNDTRIP
360
22A
  0
DICTIONARY
  5
23D
330
3B
100
AcDbDictionary
280
     1
281
     1
  3
ACAD_XREC_ROUNDTRIP
360
23E
  0
DICTIONARY
  5
237
330
38
100
AcDbDictionary
280
     1
281
     1
  3
ACAD_XREC_ROUNDTRIP
360
238
  0
DICTIONARY
  5
23F
330
3C
100
AcDbDictionary
280
     1
281
     1
  3
ACAD_XREC_ROUNDTRIP
360
240
  0
DICTIONARY
  5
22D
330
33
100
AcDbDictionary
280
     1
281
     1
  3
ACAD_XREC_ROUNDTRIP
360
22E
  0
DICTIONARY
  5
24B
330
42
100
AcDbDictionary
280
     1
281
     1
  3
ACAD_XREC_ROUNDTRIP
360
24C
  0
DICTIONARY
  5
249
330
41
100
AcDbDictionary
280
     1
281
     1
  3
ACAD_XREC_ROUNDTRIP
360
24A
  0
DICTIONARY
  5
243
330
3E
100
AcDbDictionary
280
     1
281
     1
  3
ACAD_XREC_ROUNDTRIP
360
244
  0
DICTIONARY
  5
245
330
3F
100
AcDbDictionary
280
     1
281
     1
  3
ACAD_XREC_ROUNDTRIP
360
246
  0
DICTIONARY
  5
235
330
37
100
AcDbDictionary
280
     1
281
     1
  3
ACAD_XREC_ROUNDTRIP
360
236
  0
DICTIONARY
  5
227
330
30
100
AcDbDictionary
280
     1
281
     1
  3
ACAD_XREC_ROUNDTRIP
360
228
  0
DICTIONARY
  5
247
330
40
100
AcDbDictionary
280
     1
281
     1
  3
ACAD_XREC_ROUNDTRIP
360
248
  0
XRECORD
  5
251
102
{ACAD_REACTORS
330
250
102
}
330
250
100
AcDbXrecord
280
     1
102
ACAD_ROUNDTRIP_2010_MLEADER_STYLE
  0
CELLSTYLEMAP
  5
24E
102
{ACAD_REACTORS
330
24D
102
}
330
24D
100
AcDbCellStyleMap
 90
        3
300
CELLSTYLE
  1
TABLEFORMAT_BEGIN
 90
        5
170
     1
 91
        0
 92
    32768
 62
   257
 93
        1
300
CONTENTFORMAT
  1
CONTENTFORMAT_BEGIN
 90
        0
 91
        0
 92
        4
 93
        0
300

 40
0.0
140
1.0
 94
        5
 62
     0
340
11
144
6.0
309
CONTENTFORMAT_END
171
     1
301
MARGIN
  1
CELLMARGIN_BEGIN
 40
1.5
 40
1.5
 40
1.5
 40
1.5
 40
1.5
 40
1.5
309
CELLMARGIN_END
 94
        6
 95
        1
302
GRIDFORMAT
  1
GRIDFORMAT_BEGIN
 90
        0
 91
        1
 62
     0
 92
       -2
340
14
 93
        0
 40
0.045
309
GRIDFORMAT_END
 95
        2
302
GRIDFORMAT
  1
GRIDFORMAT_BEGIN
 90
        0
 91
        1
 62
     0
 92
       -2
340
14
 93
        0
 40
0.045
309
GRIDFORMAT_END
 95
        4
302
GRIDFORMAT
  1
GRIDFORMAT_BEGIN
 90
        0
 91
        1
 62
     0
 92
       -2
340
14
 93
        0
 40
0.045
309
GRIDFORMAT_END
 95
        8
302
GRIDFORMAT
  1
GRIDFORMAT_BEGIN
 90
        0
 91
        1
 62
     0
 92
       -2
340
14
 93
        0
 40
0.045
309
GRIDFORMAT_END
 95
       16
302
GRIDFORMAT
  1
GRIDFORMAT_BEGIN
 90
        0
 91
        1
 62
     0
 92
       -2
340
14
 93
        0
 40
0.045
309
GRIDFORMAT_END
 95
       32
302
GRIDFORMAT
  1
GRIDFORMAT_BEGIN
 90
        0
 91
        1
 62
     0
 92
       -2
340
14
 93
        0
 40
0.045
309
GRIDFORMAT_END
309
TABLEFORMAT_END
  1
CELLSTYLE_BEGIN
 90
        1
 91
        1
300
_TITLE
309
CELLSTYLE_END
300
CELLSTYLE
  1
TABLEFORMAT_BEGIN
 90
        5
170
     1
 91
        0
 92
        0
 62
   257
 93
        1
300
CONTENTFORMAT
  1
CONTENTFORMAT_BEGIN
 90
        0
 91
        0
 92
        4
 93
        0
300

 40
0.0
140
1.0
 94
        5
 62
     0
340
11
144
4.5
309
CONTENTFORMAT_END
171
     1
301
MARGIN
  1
CELLMARGIN_BEGIN
 40
1.5
 40
1.5
 40
1.5
 40
1.5
 40
1.5
 40
1.5
309
CELLMARGIN_END
 94
        6
 95
        1
302
GRIDFORMAT
  1
GRIDFORMAT_BEGIN
 90
        0
 91
        1
 62
     0
 92
       -2
340
14
 93
        0
 40
0.045
309
GRIDFORMAT_END
 95
        2
302
GRIDFORMAT
  1
GRIDFORMAT_BEGIN
 90
        0
 91
        1
 62
     0
 92
       -2
340
14
 93
        0
 40
0.045
309
GRIDFORMAT_END
 95
        4
302
GRIDFORMAT
  1
GRIDFORMAT_BEGIN
 90
        0
 91
        1
 62
     0
 92
       -2
340
14
 93
        0
 40
0.045
309
GRIDFORMAT_END
 95
        8
302
GRIDFORMAT
  1
GRIDFORMAT_BEGIN
 90
        0
 91
        1
 62
     0
 92
       -2
340
14
 93
        0
 40
0.045
309
GRIDFORMAT_END
 95
       16
302
GRIDFORMAT
  1
GRIDFORMAT_BEGIN
 90
        0
 91
        1
 62
     0
 92
       -2
340
14
 93
        0
 40
0.045
309
GRIDFORMAT_END
 95
       32
302
GRIDFORMAT
  1
GRIDFORMAT_BEGIN
 90
        0
 91
        1
 62
     0
 92
       -2
340
14
 93
        0
 40
0.045
309
GRIDFORMAT_END
309
TABLEFORMAT_END
  1
CELLSTYLE_BEGIN
 90
        2
 91
        1
300
_HEADER
309
CELLSTYLE_END
300
CELLSTYLE
  1
TABLEFORMAT_BEGIN
 90
        5
170
     1
 91
        0
 92
        0
 62
   257
 93
        1
300
CONTENTFORMAT
  1
CONTENTFORMAT_BEGIN
 90
        0
 91
        0
 92
        4
 93
        0
300

 40
0.0
140
1.0
 94
        2
 62
     0
340
11
144
4.5
309
CONTENTFORMAT_END
171
     1
301
MARGIN
  1
CELLMARGIN_BEGIN
 40
1.5
 40
1.5
 40
1.5
 40
1.5
 40
1.5
 40
1.5
309
CELLMARGIN_END
 94
        6
 95
        1
302
GRIDFORMAT
  1
GRIDFORMAT_BEGIN
 90
        0
 91
        1
 62
     0
 92
       -2
340
14
 93
        0
 40
0.045
309
GRIDFORMAT_END
 95
        2
302
GRIDFORMAT
  1
GRIDFORMAT_BEGIN
 90
        0
 91
        1
 62
     0
 92
       -2
340
14
 93
        0
 40
0.045
309
GRIDFORMAT_END
 95
        4
302
GRIDFORMAT
  1
GRIDFORMAT_BEGIN
 90
        0
 91
        1
 62
     0
 92
       -2
340
14
 93
        0
 40
0.045
309
GRIDFORMAT_END
 95
        8
302
GRIDFORMAT
  1
GRIDFORMAT_BEGIN
 90
        0
 91
        1
 62
     0
 92
       -2
340
14
 93
        0
 40
0.045
309
GRIDFORMAT_END
 95
       16
302
GRIDFORMAT
  1
GRIDFORMAT_BEGIN
 90
        0
 91
        1
 62
     0
 92
       -2
340
14
 93
        0
 40
0.045
309
GRIDFORMAT_END
 95
       32
302
GRIDFORMAT
  1
GRIDFORMAT_BEGIN
 90
        0
 91
        1
 62
     0
 92
       -2
340
14
 93
        0
 40
0.045
309
GRIDFORMAT_END
309
TABLEFORMAT_END
  1
CELLSTYLE_BEGIN
 90
        3
 91
        2
300
_DATA
309
CELLSTYLE_END
  0
XRECORD
  5
226
102
{ACAD_REACTORS
330
225
102
}
330
225
100
AcDbXrecord
280
     1
102
RTVSPropertyOp0
 70
     1
102
RTVSPropertyOp1
 70
     1
102
RTVSPropertyOp2
 70
     1
102
RTVSPropertyOp3
 70
     1
102
RTVSPropertyOp4
 70
     1
102
RTVSPropertyOp5
 70
     1
102
RTVSPropertyOp6
 70
     1
102
RTVSPropertyOp7
 70
     1
102
RTVSPropertyOp8
 70
     1
102
RTVSPropertyOp9
 70
     1
102
RTVSPropertyOp10
 70
     1
102
RTVSPropertyOp11
 70
     1
102
RTVSPropertyOp12
 70
     1
102
RTVSPropertyOp13
 70
     1
102
RTVSPropertyOp14
 70
     1
102
RTVSPropertyOp15
 70
     1
102
RTVSPropertyOp16
 70
     1
102
RTVSPropertyOp17
 70
     1
102
RTVSPropertyOp18
 70
     1
102
RTVSPropertyOp19
 70
     1
102
RTVSPropertyOp20
 70
     1
102
RTVSPropertyOp21
 70
     1
102
RTVSPropertyOp22
 70
     1
102
RTVSPropertyOp23
 70
     1
102
RTVSPropertyOp24
 70
     1
102
RTVSPropertyOp25
 70
     1
102
RTVSPropertyOp26
 70
     1
102
RTVSPropertyOp27
 70
     1
102
RTVSPropertyOp28
 70
     1
102
RTVSPropertyOp29
 70
     1
102
RTVSPropertyOp30
 70
     1
102
RTVSPropertyOp31
 70
     1
102
RTVSPropertyOp32
 70
     1
102
RTVSPropertyOp33
 70
     1
102
RTVSPropertyOp34
 70
     1
102
RTVSPropertyOp35
 70
     1
102
RTVSPropertyOp36
 70
     1
102
RTVSPropertyOp37
 70
     1
102
RTVSPropertyOp38
 70
     1
102
RTVSPropertyOp39
 70
     1
102
RTVSPropertyOp40
 70
     1
102
RTVSPropertyOp41
 70
     1
102
RTVSPropertyOp42
 70
     1
102
RTVSPropertyOp43
 70
     1
102
RTVSPropertyOp44
 70
     1
102
RTVSPropertyOp45
 70
     1
102
RTVSPropertyOp46
 70
     1
102
RTVSPropertyOp47
 70
     1
102
RTVSPropertyOp48
 70
     1
102
RTVSPropertyOp49
 70
     1
102
RTVSPropertyOp50
 70
     1
102
RTVSPropertyOp51
 70
     0
102
RTVSPropertyOp52
 70
     0
102
RTVSPropertyOp53
 70
     1
102
RTVSPropertyOp54
 70
     1
102
RTVSPropertyOp55
 70
     1
102
RTVSPropertyOp56
 70
     1
102
RTVSPropertyOp57
 70
     1
102
RTVSPost2010Prop28
280
     1
102
RTVSPost2010PropOp28
 70
     1
102
RTVSPost2010Prop29
280
     1
102
RTVSPost2010PropOp29
 70
     1
102
RTVSPost2010Prop30
280
     0
102
RTVSPost2010PropOp30
 70
     1
102
RTVSPost2010Prop31
280
     0
102
RTVSPost2010PropOp31
 70
     1
102
RTVSPost2010Prop32
280
     0
102
RTVSPost2010PropOp32
 70
     1
102
RTVSPost2010Prop33
280
     0
102
RTVSPost2010PropOp33
 70
     1
102
RTVSPost2010Prop34
280
     0
102
RTVSPost2010PropOp34
 70
     1
102
RTVSPost2010Prop35
280
     0
102
RTVSPost2010PropOp35
 70
     1
102
RTVSPost2010Prop36
280
     0
102
RTVSPost2010PropOp36
 70
     1
102
RTVSPost2010Prop37
 90
       50
102
RTVSPost2010PropOp37
 70
     1
102
RTVSPost2010Prop38
140
0.0
102
RTVSPost2010PropOp38
 70
     1
102
RTVSPost2010Prop39
140
1.0
102
RTVSPost2010PropOp39
 70
     1
102
RTVSPost2010Prop40
 90
        0
102
RTVSPost2010PropOp40
 70
     1
102
RTVSPost2010Prop41ColorIndex
 90
       18
102
RTVSPost2010Prop41ColorRGB
 90
        0
102
RTVSPost2010PropOp41
 70
     1
102
RTVSPost2010Prop42
 90
       50
102
RTVSPost2010PropOp42
 70
     1
102
RTVSPost2010Prop43
 90
        3
102
RTVSPost2010PropOp43
 70
     1
102
RTVSPost2010Prop44ColorIndex
 90
        5
102
RTVSPost2010Prop44ColorRGB
 90
      255
102
RTVSPost2010PropOp44
 70
     1
102
RTVSPost2010Prop45
280
     0
102
RTVSPost2010PropOp45
 70
     1
102
RTVSPost2010Prop46
 90
       50
102
RTVSPost2010PropOp46
 70
     1
102
RTVSPost2010Prop47
 90
       50
102
RTVSPost2010PropOp47
 70
     1
102
RTVSPost2010Prop48
 90
       50
102
RTVSPost2010PropOp48
 70
     1
102
RTVSPost2010Prop49
280
     0
102
RTVSPost2010PropOp49
 70
     1
102
RTVSPost2010Prop50
 90
       50
102
RTVSPost2010PropOp50
 70
     1
102
RTVSPost2010Prop51ColorIndex
 90
      256
102
RTVSPost2010Prop51ColorRGB
 90
-16777216
102
RTVSPost2010PropOp51
 70
     0
102
RTVSPost2010Prop52
140
1.0
102
RTVSPost2010PropOp52
 70
     0
102
RTVSPost2010Prop53
 90
        2
102
RTVSPost2010PropOp53
 70
     1
102
RTVSPost2010Prop54
  1
strokes_ogs.tif
102
RTVSPost2010PropOp54
 70
     1
102
RTVSPost2010Prop55
280
     0
102
RTVSPost2010PropOp55
 70
     1
102
RTVSPost2010Prop56
140
1.0
102
RTVSPost2010PropOp56
 70
     1
102
RTVSPost2010Prop57
140
1.0
102
RTVSPost2010PropOp57
 70
     1
  0
XRECORD
  5
22C
102
{ACAD_REACTORS
330
22B
102
}
330
22B
100
AcDbXrecord
280
     1
102
RTVSPropertyOp0
 70
     1
102
RTVSPropertyOp1
 70
     1
102
RTVSPropertyOp2
 70
     1
102
RTVSPropertyOp3
 70
     1
102
RTVSPropertyOp4
 70
     1
102
RTVSPropertyOp5
 70
     1
102
RTVSPropertyOp6
 70
     1
102
RTVSPropertyOp7
 70
     1
102
RTVSPropertyOp8
 70
     1
102
RTVSPropertyOp9
 70
     1
102
RTVSPropertyOp10
 70
     1
102
RTVSPropertyOp11
 70
     1
102
RTVSPropertyOp12
 70
     1
102
RTVSPropertyOp13
 70
     1
102
RTVSPropertyOp14
 70
     1
102
RTVSPropertyOp15
 70
     1
102
RTVSPropertyOp16
 70
     1
102
RTVSPropertyOp17
 70
     1
102
RTVSPropertyOp18
 70
     1
102
RTVSPropertyOp19
 70
     1
102
RTVSPropertyOp20
 70
     1
102
RTVSPropertyOp21
 70
     1
102
RTVSPropertyOp22
 70
     1
102
RTVSPropertyOp23
 70
     1
102
RTVSPropertyOp24
 70
     1
102
RTVSPropertyOp25
 70
     1
102
RTVSPropertyOp26
 70
     1
102
RTVSPropertyOp27
 70
     1
102
RTVSPropertyOp28
 70
     1
102
RTVSPropertyOp29
 70
     1
102
RTVSPropertyOp30
 70
     1
102
RTVSPropertyOp31
 70
     1
102
RTVSPropertyOp32
 70
     1
102
RTVSPropertyOp33
 70
     1
102
RTVSPropertyOp34
 70
     1
102
RTVSPropertyOp35
 70
     1
102
RTVSPropertyOp36
 70
     1
102
RTVSPropertyOp37
 70
     1
102
RTVSPropertyOp38
 70
     1
102
RTVSPropertyOp39
 70
     1
102
RTVSPropertyOp40
 70
     1
102
RTVSPropertyOp41
 70
     1
102
RTVSPropertyOp42
 70
     1
102
RTVSPropertyOp43
 70
     1
102
RTVSPropertyOp44
 70
     1
102
RTVSPropertyOp45
 70
     1
102
RTVSPropertyOp46
 70
     1
102
RTVSPropertyOp47
 70
     1
102
RTVSPropertyOp48
 70
     1
102
RTVSPropertyOp49
 70
     1
102
RTVSPropertyOp50
 70
     1
102
RTVSPropertyOp51
 70
     0
102
RTVSPropertyOp52
 70
     0
102
RTVSPropertyOp53
 70
     1
102
RTVSPropertyOp54
 70
     1
102
RTVSPropertyOp55
 70
     1
102
RTVSPropertyOp56
 70
     1
102
RTVSPropertyOp57
 70
     1
102
RTVSPost2010Prop28
280
     0
102
RTVSPost2010PropOp28
 70
     1
102
RTVSPost2010Prop29
280
     1
102
RTVSPost2010PropOp29
 70
     1
102
RTVSPost2010Prop30
280
     1
102
RTVSPost2010PropOp30
 70
     1
102
RTVSPost2010Prop31
280
     0
102
RTVSPost2010PropOp31
 70
     1
102
RTVSPost2010Prop32
280
     0
102
RTVSPost2010PropOp32
 70
     1
102
RTVSPost2010Prop33
280
     0
102
RTVSPost2010PropOp33
 70
     1
102
RTVSPost2010Prop34
280
     0
102
RTVSPost2010PropOp34
 70
     1
102
RTVSPost2010Prop35
280
     0
102
RTVSPost2010PropOp35
 70
     1
102
RTVSPost2010Prop36
280
     0
102
RTVSPost2010PropOp36
 70
     1
102
RTVSPost2010Prop37
 90
       50
102
RTVSPost2010PropOp37
 70
     1
102
RTVSPost2010Prop38
140
0.0
102
RTVSPost2010PropOp38
 70
     1
102
RTVSPost2010Prop39
140
1.0
102
RTVSPost2010PropOp39
 70
     1
102
RTVSPost2010Prop40
 90
        0
102
RTVSPost2010PropOp40
 70
     1
102
RTVSPost2010Prop41ColorIndex
 90
       18
102
RTVSPost2010Prop41ColorRGB
 90
        0
102
RTVSPost2010PropOp41
 70
     1
102
RTVSPost2010Prop42
 90
       50
102
RTVSPost2010PropOp42
 70
     1
102
RTVSPost2010Prop43
 90
        3
102
RTVSPost2010PropOp43
 70
     1
102
RTVSPost2010Prop44ColorIndex
 90
        5
102
RTVSPost2010Prop44ColorRGB
 90
      255
102
RTVSPost2010PropOp44
 70
     1
102
RTVSPost2010Prop45
280
     0
102
RTVSPost2010PropOp45
 70
     1
102
RTVSPost2010Prop46
 90
       50
102
RTVSPost2010PropOp46
 70
     1
102
RTVSPost2010Prop47
 90
       50
102
RTVSPost2010PropOp47
 70
     1
102
RTVSPost2010Prop48
 90
       50
102
RTVSPost2010PropOp48
 70
     1
102
RTVSPost2010Prop49
280
     0
102
RTVSPost2010PropOp49
 70
     1
102
RTVSPost2010Prop50
 90
       50
102
RTVSPost2010PropOp50
 70
     1
102
RTVSPost2010Prop51ColorIndex
 90
      256
102
RTVSPost2010Prop51ColorRGB
 90
-16777216
102
RTVSPost2010PropOp51
 70
     0
102
RTVSPost2010Prop52
140
1.0
102
RTVSPost2010PropOp52
 70
     0
102
RTVSPost2010Prop53
 90
        2
102
RTVSPost2010PropOp53
 70
     1
102
RTVSPost2010Prop54
  1
strokes_ogs.tif
102
RTVSPost2010PropOp54
 70
     1
102
RTVSPost2010Prop55
280
     0
102
RTVSPost2010PropOp55
 70
     1
102
RTVSPost2010Prop56
140
1.0
102
RTVSPost2010PropOp56
 70
     1
102
RTVSPost2010Prop57
140
1.0
102
RTVSPost2010PropOp57
 70
     1
  0
XRECORD
  5
234
102
{ACAD_REACTORS
330
233
102
}
330
233
100
AcDbXrecord
280
     1
102
RTVSPropertyOp0
 70
     1
102
RTVSPropertyOp1
 70
     1
102
RTVSPropertyOp2
 70
     1
102
RTVSPropertyOp3
 70
     1
102
RTVSPropertyOp4
 70
     1
102
RTVSPropertyOp5
 70
     1
102
RTVSPropertyOp6
 70
     1
102
RTVSPropertyOp7
 70
     1
102
RTVSPropertyOp8
 70
     1
102
RTVSPropertyOp9
 70
     1
102
RTVSPropertyOp10
 70
     1
102
RTVSPropertyOp11
 70
     1
102
RTVSPropertyOp12
 70
     1
102
RTVSPropertyOp13
 70
     1
102
RTVSPropertyOp14
 70
     1
102
RTVSPropertyOp15
 70
     1
102
RTVSPropertyOp16
 70
     1
102
RTVSPropertyOp17
 70
     1
102
RTVSPropertyOp18
 70
     1
102
RTVSPropertyOp19
 70
     1
102
RTVSPropertyOp20
 70
     1
102
RTVSPropertyOp21
 70
     1
102
RTVSPropertyOp22
 70
     1
102
RTVSPropertyOp23
 70
     1
102
RTVSPropertyOp24
 70
     1
102
RTVSPropertyOp25
 70
     1
102
RTVSPropertyOp26
 70
     1
102
RTVSPropertyOp27
 70
     1
102
RTVSPropertyOp28
 70
     1
102
RTVSPropertyOp29
 70
     1
102
RTVSPropertyOp30
 70
     1
102
RTVSPropertyOp31
 70
     1
102
RTVSPropertyOp32
 70
     1
102
RTVSPropertyOp33
 70
     1
102
RTVSPropertyOp34
 70
     1
102
RTVSPropertyOp35
 70
     1
102
RTVSPropertyOp36
 70
     1
102
RTVSPropertyOp37
 70
     1
102
RTVSPropertyOp38
 70
     1
102
RTVSPropertyOp39
 70
     1
102
RTVSPropertyOp40
 70
     1
102
RTVSPropertyOp41
 70
     1
102
RTVSPropertyOp42
 70
     1
102
RTVSPropertyOp43
 70
     1
102
RTVSPropertyOp44
 70
     1
102
RTVSPropertyOp45
 70
     1
102
RTVSPropertyOp46
 70
     1
102
RTVSPropertyOp47
 70
     1
102
RTVSPropertyOp48
 70
     1
102
RTVSPropertyOp49
 70
     1
102
RTVSPropertyOp50
 70
     1
102
RTVSPropertyOp51
 70
     0
102
RTVSPropertyOp52
 70
     0
102
RTVSPropertyOp53
 70
     1
102
RTVSPropertyOp54
 70
     1
102
RTVSPropertyOp55
 70
     1
102
RTVSPropertyOp56
 70
     1
102
RTVSPropertyOp57
 70
     1
102
RTVSPost2010Prop28
280
     0
102
RTVSPost2010PropOp28
 70
     1
102
RTVSPost2010Prop29
280
     1
102
RTVSPost2010PropOp29
 70
     1
102
RTVSPost2010Prop30
280
     1
102
RTVSPost2010PropOp30
 70
     1
102
RTVSPost2010Prop31
280
     0
102
RTVSPost2010PropOp31
 70
     1
102
RTVSPost2010Prop32
280
     0
102
RTVSPost2010PropOp32
 70
     1
102
RTVSPost2010Prop33
280
     0
102
RTVSPost2010PropOp33
 70
     1
102
RTVSPost2010Prop34
280
     0
102
RTVSPost2010PropOp34
 70
     1
102
RTVSPost2010Prop35
280
     0
102
RTVSPost2010PropOp35
 70
     1
102
RTVSPost2010Prop36
280
     0
102
RTVSPost2010PropOp36
 70
     1
102
RTVSPost2010Prop37
 90
       50
102
RTVSPost2010PropOp37
 70
     1
102
RTVSPost2010Prop38
140
0.0
102
RTVSPost2010PropOp38
 70
     1
102
RTVSPost2010Prop39
140
1.0
102
RTVSPost2010PropOp39
 70
     1
102
RTVSPost2010Prop40
 90
        0
102
RTVSPost2010PropOp40
 70
     1
102
RTVSPost2010Prop41ColorIndex
 90
       18
102
RTVSPost2010Prop41ColorRGB
 90
        0
102
RTVSPost2010PropOp41
 70
     1
102
RTVSPost2010Prop42
 90
       50
102
RTVSPost2010PropOp42
 70
     1
102
RTVSPost2010Prop43
 90
        3
102
RTVSPost2010PropOp43
 70
     1
102
RTVSPost2010Prop44ColorIndex
 90
        5
102
RTVSPost2010Prop44ColorRGB
 90
      255
102
RTVSPost2010PropOp44
 70
     1
102
RTVSPost2010Prop45
280
     0
102
RTVSPost2010PropOp45
 70
     1
102
RTVSPost2010Prop46
 90
       50
102
RTVSPost2010PropOp46
 70
     1
102
RTVSPost2010Prop47
 90
       50
102
RTVSPost2010PropOp47
 70
     1
102
RTVSPost2010Prop48
 90
       50
102
RTVSPost2010PropOp48
 70
     1
102
RTVSPost2010Prop49
280
     0
102
RTVSPost2010PropOp49
 70
     1
102
RTVSPost2010Prop50
 90
       50
102
RTVSPost2010PropOp50
 70
     1
102
RTVSPost2010Prop51ColorIndex
 90
      256
102
RTVSPost2010Prop51ColorRGB
 90
-16777216
102
RTVSPost2010PropOp51
 70
     0
102
RTVSPost2010Prop52
140
1.0
102
RTVSPost2010PropOp52
 70
     0
102
RTVSPost2010Prop53
 90
        2
102
RTVSPost2010PropOp53
 70
     1
102
RTVSPost2010Prop54
  1
strokes_ogs.tif
102
RTVSPost2010PropOp54
 70
     1
102
RTVSPost2010Prop55
280
     0
102
RTVSPost2010PropOp55
 70
     1
102
RTVSPost2010Prop56
140
1.0
102
RTVSPost2010PropOp56
 70
     1
102
RTVSPost2010Prop57
140
1.0
102
RTVSPost2010PropOp57
 70
     1
  0
XRECORD
  5
23C
102
{ACAD_REACTORS
330
23B
102
}
330
23B
100
AcDbXrecord
280
     1
102
RTVSPropertyOp0
 70
     1
102
RTVSPropertyOp1
 70
     1
102
RTVSPropertyOp2
 70
     1
102
RTVSPropertyOp3
 70
     1
102
RTVSPropertyOp4
 70
     1
102
RTVSPropertyOp5
 70
     1
102
RTVSPropertyOp6
 70
     1
102
RTVSPropertyOp7
 70
     1
102
RTVSPropertyOp8
 70
     1
102
RTVSPropertyOp9
 70
     1
102
RTVSPropertyOp10
 70
     1
102
RTVSPropertyOp11
 70
     1
102
RTVSPropertyOp12
 70
     1
102
RTVSPropertyOp13
 70
     1
102
RTVSPropertyOp14
 70
     1
102
RTVSPropertyOp15
 70
     1
102
RTVSPropertyOp16
 70
     1
102
RTVSPropertyOp17
 70
     1
102
RTVSPropertyOp18
 70
     1
102
RTVSPropertyOp19
 70
     1
102
RTVSPropertyOp20
 70
     1
102
RTVSPropertyOp21
 70
     1
102
RTVSPropertyOp22
 70
     1
102
RTVSPropertyOp23
 70
     1
102
RTVSPropertyOp24
 70
     1
102
RTVSPropertyOp25
 70
     1
102
RTVSPropertyOp26
 70
     1
102
RTVSPropertyOp27
 70
     1
102
RTVSPropertyOp28
 70
     1
102
RTVSPropertyOp29
 70
     1
102
RTVSPropertyOp30
 70
     1
102
RTVSPropertyOp31
 70
     1
102
RTVSPropertyOp32
 70
     1
102
RTVSPropertyOp33
 70
     1
102
RTVSPropertyOp34
 70
     1
102
RTVSPropertyOp35
 70
     1
102
RTVSPropertyOp36
 70
     1
102
RTVSPropertyOp37
 70
     1
102
RTVSPropertyOp38
 70
     1
102
RTVSPropertyOp39
 70
     1
102
RTVSPropertyOp40
 70
     1
102
RTVSPropertyOp41
 70
     1
102
RTVSPropertyOp42
 70
     1
102
RTVSPropertyOp43
 70
     1
102
RTVSPropertyOp44
 70
     1
102
RTVSPropertyOp45
 70
     1
102
RTVSPropertyOp46
 70
     1
102
RTVSPropertyOp47
 70
     1
102
RTVSPropertyOp48
 70
     1
102
RTVSPropertyOp49
 70
     1
102
RTVSPropertyOp50
 70
     1
102
RTVSPropertyOp51
 70
     0
102
RTVSPropertyOp52
 70
     0
102
RTVSPropertyOp53
 70
     1
102
RTVSPropertyOp54
 70
     1
102
RTVSPropertyOp55
 70
     1
102
RTVSPropertyOp56
 70
     1
102
RTVSPropertyOp57
 70
     1
102
RTVSPost2010Prop28
280
     0
102
RTVSPost2010PropOp28
 70
     1
102
RTVSPost2010Prop29
280
     1
102
RTVSPost2010PropOp29
 70
     1
102
RTVSPost2010Prop30
280
     1
102
RTVSPost2010PropOp30
 70
     1
102
RTVSPost2010Prop31
280
     0
102
RTVSPost2010PropOp31
 70
     1
102
RTVSPost2010Prop32
280
     0
102
RTVSPost2010PropOp32
 70
     1
102
RTVSPost2010Prop33
280
     0
102
RTVSPost2010PropOp33
 70
     1
102
RTVSPost2010Prop34
280
     0
102
RTVSPost2010PropOp34
 70
     1
102
RTVSPost2010Prop35
280
     0
102
RTVSPost2010PropOp35
 70
     1
102
RTVSPost2010Prop36
280
     0
102
RTVSPost2010PropOp36
 70
     1
102
RTVSPost2010Prop37
 90
       50
102
RTVSPost2010PropOp37
 70
     1
102
RTVSPost2010Prop38
140
0.0
102
RTVSPost2010PropOp38
 70
     1
102
RTVSPost2010Prop39
140
1.0
102
RTVSPost2010PropOp39
 70
     1
102
RTVSPost2010Prop40
 90
        0
102
RTVSPost2010PropOp40
 70
     1
102
RTVSPost2010Prop41ColorIndex
 90
       18
102
RTVSPost2010Prop41ColorRGB
 90
        0
102
RTVSPost2010PropOp41
 70
     1
102
RTVSPost2010Prop42
 90
       50
102
RTVSPost2010PropOp42
 70
     1
102
RTVSPost2010Prop43
 90
        3
102
RTVSPost2010PropOp43
 70
     1
102
RTVSPost2010Prop44ColorIndex
 90
        5
102
RTVSPost2010Prop44ColorRGB
 90
      255
102
RTVSPost2010PropOp44
 70
     1
102
RTVSPost2010Prop45
280
     0
102
RTVSPost2010PropOp45
 70
     1
102
RTVSPost2010Prop46
 90
       50
102
RTVSPost2010PropOp46
 70
     1
102
RTVSPost2010Prop47
 90
       50
102
RTVSPost2010PropOp47
 70
     1
102
RTVSPost2010Prop48
 90
       50
102
RTVSPost2010PropOp48
 70
     1
102
RTVSPost2010Prop49
280
     0
102
RTVSPost2010PropOp49
 70
     1
102
RTVSPost2010Prop50
 90
       50
102
RTVSPost2010PropOp50
 70
     1
102
RTVSPost2010Prop51ColorIndex
 90
      256
102
RTVSPost2010Prop51ColorRGB
 90
-16777216
102
RTVSPost2010PropOp51
 70
     0
102
RTVSPost2010Prop52
140
1.0
102
RTVSPost2010PropOp52
 70
     0
102
RTVSPost2010Prop53
 90
        2
102
RTVSPost2010PropOp53
 70
     1
102
RTVSPost2010Prop54
  1
strokes_ogs.tif
102
RTVSPost2010PropOp54
 70
     1
102
RTVSPost2010Prop55
280
     0
102
RTVSPost2010PropOp55
 70
     1
102
RTVSPost2010Prop56
140
1.0
102
RTVSPost2010PropOp56
 70
     1
102
RTVSPost2010Prop57
140
1.0
102
RTVSPost2010PropOp57
 70
     1
  0
XRECORD
  5
230
102
{ACAD_REACTORS
330
22F
102
}
330
22F
100
AcDbXrecord
280
     1
102
RTVSPropertyOp0
 70
     1
102
RTVSPropertyOp1
 70
     1
102
RTVSPropertyOp2
 70
     1
102
RTVSPropertyOp3
 70
     1
102
RTVSPropertyOp4
 70
     1
102
RTVSPropertyOp5
 70
     1
102
RTVSPropertyOp6
 70
     1
102
RTVSPropertyOp7
 70
     1
102
RTVSPropertyOp8
 70
     1
102
RTVSPropertyOp9
 70
     1
102
RTVSPropertyOp10
 70
     1
102
RTVSPropertyOp11
 70
     1
102
RTVSPropertyOp12
 70
     1
102
RTVSPropertyOp13
 70
     1
102
RTVSPropertyOp14
 70
     1
102
RTVSPropertyOp15
 70
     1
102
RTVSPropertyOp16
 70
     1
102
RTVSPropertyOp17
 70
     1
102
RTVSPropertyOp18
 70
     1
102
RTVSPropertyOp19
 70
     1
102
RTVSPropertyOp20
 70
     1
102
RTVSPropertyOp21
 70
     1
102
RTVSPropertyOp22
 70
     1
102
RTVSPropertyOp23
 70
     1
102
RTVSPropertyOp24
 70
     1
102
RTVSPropertyOp25
 70
     1
102
RTVSPropertyOp26
 70
     1
102
RTVSPropertyOp27
 70
     1
102
RTVSPropertyOp28
 70
     1
102
RTVSPropertyOp29
 70
     1
102
RTVSPropertyOp30
 70
     1
102
RTVSPropertyOp31
 70
     1
102
RTVSPropertyOp32
 70
     1
102
RTVSPropertyOp33
 70
     1
102
RTVSPropertyOp34
 70
     1
102
RTVSPropertyOp35
 70
     1
102
RTVSPropertyOp36
 70
     1
102
RTVSPropertyOp37
 70
     1
102
RTVSPropertyOp38
 70
     1
102
RTVSPropertyOp39
 70
     1
102
RTVSPropertyOp40
 70
     1
102
RTVSPropertyOp41
 70
     1
102
RTVSPropertyOp42
 70
     1
102
RTVSPropertyOp43
 70
     1
102
RTVSPropertyOp44
 70
     1
102
RTVSPropertyOp45
 70
     1
102
RTVSPropertyOp46
 70
     1
102
RTVSPropertyOp47
 70
     1
102
RTVSPropertyOp48
 70
     1
102
RTVSPropertyOp49
 70
     1
102
RTVSPropertyOp50
 70
     1
102
RTVSPropertyOp51
 70
     0
102
RTVSPropertyOp52
 70
     0
102
RTVSPropertyOp53
 70
     1
102
RTVSPropertyOp54
 70
     1
102
RTVSPropertyOp55
 70
     1
102
RTVSPropertyOp56
 70
     1
102
RTVSPropertyOp57
 70
     1
102
RTVSPost2010Prop28
280
     0
102
RTVSPost2010PropOp28
 70
     1
102
RTVSPost2010Prop29
280
     1
102
RTVSPost2010PropOp29
 70
     1
102
RTVSPost2010Prop30
280
     1
102
RTVSPost2010PropOp30
 70
     1
102
RTVSPost2010Prop31
280
     0
102
RTVSPost2010PropOp31
 70
     1
102
RTVSPost2010Prop32
280
     0
102
RTVSPost2010PropOp32
 70
     1
102
RTVSPost2010Prop33
280
     0
102
RTVSPost2010PropOp33
 70
     1
102
RTVSPost2010Prop34
280
     0
102
RTVSPost2010PropOp34
 70
     1
102
RTVSPost2010Prop35
280
     0
102
RTVSPost2010PropOp35
 70
     1
102
RTVSPost2010Prop36
280
     0
102
RTVSPost2010PropOp36
 70
     1
102
RTVSPost2010Prop37
 90
       50
102
RTVSPost2010PropOp37
 70
     1
102
RTVSPost2010Prop38
140
0.0
102
RTVSPost2010PropOp38
 70
     1
102
RTVSPost2010Prop39
140
1.0
102
RTVSPost2010PropOp39
 70
     1
102
RTVSPost2010Prop40
 90
        0
102
RTVSPost2010PropOp40
 70
     1
102
RTVSPost2010Prop41ColorIndex
 90
       18
102
RTVSPost2010Prop41ColorRGB
 90
        0
102
RTVSPost2010PropOp41
 70
     1
102
RTVSPost2010Prop42
 90
       50
102
RTVSPost2010PropOp42
 70
     1
102
RTVSPost2010Prop43
 90
        3
102
RTVSPost2010PropOp43
 70
     1
102
RTVSPost2010Prop44ColorIndex
 90
        5
102
RTVSPost2010Prop44ColorRGB
 90
      255
102
RTVSPost2010PropOp44
 70
     1
102
RTVSPost2010Prop45
280
     0
102
RTVSPost2010PropOp45
 70
     1
102
RTVSPost2010Prop46
 90
       50
102
RTVSPost2010PropOp46
 70
     1
102
RTVSPost2010Prop47
 90
       50
102
RTVSPost2010PropOp47
 70
     1
102
RTVSPost2010Prop48
 90
       50
102
RTVSPost2010PropOp48
 70
     1
102
RTVSPost2010Prop49
280
     0
102
RTVSPost2010PropOp49
 70
     1
102
RTVSPost2010Prop50
 90
       50
102
RTVSPost2010PropOp50
 70
     1
102
RTVSPost2010Prop51ColorIndex
 90
      256
102
RTVSPost2010Prop51ColorRGB
 90
-16777216
102
RTVSPost2010PropOp51
 70
     0
102
RTVSPost2010Prop52
140
1.0
102
RTVSPost2010PropOp52
 70
     0
102
RTVSPost2010Prop53
 90
        2
102
RTVSPost2010PropOp53
 70
     1
102
RTVSPost2010Prop54
  1
strokes_ogs.tif
102
RTVSPost2010PropOp54
 70
     1
102
RTVSPost2010Prop55
280
     0
102
RTVSPost2010PropOp55
 70
     1
102
RTVSPost2010Prop56
140
1.0
102
RTVSPost2010PropOp56
 70
     1
102
RTVSPost2010Prop57
140
1.0
102
RTVSPost2010PropOp57
 70
     1
  0
XRECORD
  5
232
102
{ACAD_REACTORS
330
231
102
}
330
231
100
AcDbXrecord
280
     1
102
RTVSPropertyOp0
 70
     1
102
RTVSPropertyOp1
 70
     1
102
RTVSPropertyOp2
 70
     1
102
RTVSPropertyOp3
 70
     1
102
RTVSPropertyOp4
 70
     1
102
RTVSPropertyOp5
 70
     1
102
RTVSPropertyOp6
 70
     1
102
RTVSPropertyOp7
 70
     1
102
RTVSPropertyOp8
 70
     1
102
RTVSPropertyOp9
 70
     1
102
RTVSPropertyOp10
 70
     1
102
RTVSPropertyOp11
 70
     1
102
RTVSPropertyOp12
 70
     1
102
RTVSPropertyOp13
 70
     1
102
RTVSPropertyOp14
 70
     1
102
RTVSPropertyOp15
 70
     1
102
RTVSPropertyOp16
 70
     1
102
RTVSPropertyOp17
 70
     1
102
RTVSPropertyOp18
 70
     1
102
RTVSPropertyOp19
 70
     1
102
RTVSPropertyOp20
 70
     1
102
RTVSPropertyOp21
 70
     1
102
RTVSPropertyOp22
 70
     1
102
RTVSPropertyOp23
 70
     1
102
RTVSPropertyOp24
 70
     1
102
RTVSPropertyOp25
 70
     1
102
RTVSPropertyOp26
 70
     1
102
RTVSPropertyOp27
 70
     1
102
RTVSPropertyOp28
 70
     1
102
RTVSPropertyOp29
 70
     1
102
RTVSPropertyOp30
 70
     1
102
RTVSPropertyOp31
 70
     1
102
RTVSPropertyOp32
 70
     1
102
RTVSPropertyOp33
 70
     1
102
RTVSPropertyOp34
 70
     1
102
RTVSPropertyOp35
 70
     1
102
RTVSPropertyOp36
 70
     1
102
RTVSPropertyOp37
 70
     1
102
RTVSPropertyOp38
 70
     1
102
RTVSPropertyOp39
 70
     1
102
RTVSPropertyOp40
 70
     1
102
RTVSPropertyOp41
 70
     1
102
RTVSPropertyOp42
 70
     1
102
RTVSPropertyOp43
 70
     1
102
RTVSPropertyOp44
 70
     1
102
RTVSPropertyOp45
 70
     1
102
RTVSPropertyOp46
 70
     1
102
RTVSPropertyOp47
 70
     1
102
RTVSPropertyOp48
 70
     1
102
RTVSPropertyOp49
 70
     1
102
RTVSPropertyOp50
 70
     1
102
RTVSPropertyOp51
 70
     0
102
RTVSPropertyOp52
 70
     0
102
RTVSPropertyOp53
 70
     1
102
RTVSPropertyOp54
 70
     1
102
RTVSPropertyOp55
 70
     1
102
RTVSPropertyOp56
 70
     1
102
RTVSPropertyOp57
 70
     1
102
RTVSPost2010Prop28
280
     0
102
RTVSPost2010PropOp28
 70
     1
102
RTVSPost2010Prop29
280
     1
102
RTVSPost2010PropOp29
 70
     1
102
RTVSPost2010Prop30
280
     1
102
RTVSPost2010PropOp30
 70
     1
102
RTVSPost2010Prop31
280
     0
102
RTVSPost2010PropOp31
 70
     1
102
RTVSPost2010Prop32
280
     0
102
RTVSPost2010PropOp32
 70
     1
102
RTVSPost2010Prop33
280
     0
102
RTVSPost2010PropOp33
 70
     1
102
RTVSPost2010Prop34
280
     0
102
RTVSPost2010PropOp34
 70
     1
102
RTVSPost2010Prop35
280
     0
102
RTVSPost2010PropOp35
 70
     1
102
RTVSPost2010Prop36
280
     0
102
RTVSPost2010PropOp36
 70
     1
102
RTVSPost2010Prop37
 90
       50
102
RTVSPost2010PropOp37
 70
     1
102
RTVSPost2010Prop38
140
0.0
102
RTVSPost2010PropOp38
 70
     1
102
RTVSPost2010Prop39
140
1.0
102
RTVSPost2010PropOp39
 70
     1
102
RTVSPost2010Prop40
 90
        0
102
RTVSPost2010PropOp40
 70
     1
102
RTVSPost2010Prop41ColorIndex
 90
       18
102
RTVSPost2010Prop41ColorRGB
 90
        0
102
RTVSPost2010PropOp41
 70
     1
102
RTVSPost2010Prop42
 90
       50
102
RTVSPost2010PropOp42
 70
     1
102
RTVSPost2010Prop43
 90
        3
102
RTVSPost2010PropOp43
 70
     1
102
RTVSPost2010Prop44ColorIndex
 90
        5
102
RTVSPost2010Prop44ColorRGB
 90
      255
102
RTVSPost2010PropOp44
 70
     1
102
RTVSPost2010Prop45
280
     0
102
RTVSPost2010PropOp45
 70
     1
102
RTVSPost2010Prop46
 90
       50
102
RTVSPost2010PropOp46
 70
     1
102
RTVSPost2010Prop47
 90
       50
102
RTVSPost2010PropOp47
 70
     1
102
RTVSPost2010Prop48
 90
       50
102
RTVSPost2010PropOp48
 70
     1
102
RTVSPost2010Prop49
280
     0
102
RTVSPost2010PropOp49
 70
     1
102
RTVSPost2010Prop50
 90
       50
102
RTVSPost2010PropOp50
 70
     1
102
RTVSPost2010Prop51ColorIndex
 90
      256
102
RTVSPost2010Prop51ColorRGB
 90
-16777216
102
RTVSPost2010PropOp51
 70
     0
102
RTVSPost2010Prop52
140
1.0
102
RTVSPost2010PropOp52
 70
     0
102
RTVSPost2010Prop53
 90
        2
102
RTVSPost2010PropOp53
 70
     1
102
RTVSPost2010Prop54
  1
strokes_ogs.tif
102
RTVSPost2010PropOp54
 70
     1
102
RTVSPost2010Prop55
280
     0
102
RTVSPost2010PropOp55
 70
     1
102
RTVSPost2010Prop56
140
1.0
102
RTVSPost2010PropOp56
 70
     1
102
RTVSPost2010Prop57
140
1.0
102
RTVSPost2010PropOp57
 70
     1
  0
XRECORD
  5
242
102
{ACAD_REACTORS
330
241
102
}
330
241
100
AcDbXrecord
280
     1
102
RTVSPropertyOp0
 70
     0
102
RTVSPropertyOp1
 70
     0
102
RTVSPropertyOp2
 70
     0
102
RTVSPropertyOp3
 70
     0
102
RTVSPropertyOp4
 70
     0
102
RTVSPropertyOp5
 70
     0
102
RTVSPropertyOp6
 70
     0
102
RTVSPropertyOp7
 70
     0
102
RTVSPropertyOp8
 70
     0
102
RTVSPropertyOp9
 70
     0
102
RTVSPropertyOp10
 70
     0
102
RTVSPropertyOp11
 70
     0
102
RTVSPropertyOp12
 70
     0
102
RTVSPropertyOp13
 70
     0
102
RTVSPropertyOp14
 70
     2
102
RTVSPropertyOp15
 70
     0
102
RTVSPropertyOp16
 70
     0
102
RTVSPropertyOp17
 70
     0
102
RTVSPropertyOp18
 70
     0
102
RTVSPropertyOp19
 70
     0
102
RTVSPropertyOp20
 70
     0
102
RTVSPropertyOp21
 70
     0
102
RTVSPropertyOp22
 70
     0
102
RTVSPropertyOp23
 70
     0
102
RTVSPropertyOp24
 70
     0
102
RTVSPropertyOp25
 70
     0
102
RTVSPropertyOp26
 70
     0
102
RTVSPropertyOp27
 70
     0
102
RTVSPropertyOp28
 70
     0
102
RTVSPropertyOp29
 70
     0
102
RTVSPropertyOp30
 70
     0
102
RTVSPropertyOp31
 70
     0
102
RTVSPropertyOp32
 70
     0
102
RTVSPropertyOp33
 70
     0
102
RTVSPropertyOp34
 70
     0
102
RTVSPropertyOp35
 70
     0
102
RTVSPropertyOp36
 70
     0
102
RTVSPropertyOp37
 70
     0
102
RTVSPropertyOp38
 70
     0
102
RTVSPropertyOp39
 70
     0
102
RTVSPropertyOp40
 70
     0
102
RTVSPropertyOp41
 70
     0
102
RTVSPropertyOp42
 70
     0
102
RTVSPropertyOp43
 70
     0
102
RTVSPropertyOp44
 70
     0
102
RTVSPropertyOp45
 70
     0
102
RTVSPropertyOp46
 70
     0
102
RTVSPropertyOp47
 70
     0
102
RTVSPropertyOp48
 70
     0
102
RTVSPropertyOp49
 70
     0
102
RTVSPropertyOp50
 70
     0
102
RTVSPropertyOp51
 70
     0
102
RTVSPropertyOp52
 70
     0
102
RTVSPropertyOp53
 70
     0
102
RTVSPropertyOp54
 70
     0
102
RTVSPropertyOp55
 70
     0
102
RTVSPropertyOp56
 70
     0
102
RTVSPropertyOp57
 70
     0
102
RTVSPost2010Prop28
280
     0
102
RTVSPost2010PropOp28
 70
     0
102
RTVSPost2010Prop29
280
     1
102
RTVSPost2010PropOp29
 70
     0
102
RTVSPost2010Prop30
280
     1
102
RTVSPost2010PropOp30
 70
     0
102
RTVSPost2010Prop31
280
     0
102
RTVSPost2010PropOp31
 70
     0
102
RTVSPost2010Prop32
280
     0
102
RTVSPost2010PropOp32
 70
     0
102
RTVSPost2010Prop33
280
     0
102
RTVSPost2010PropOp33
 70
     0
102
RTVSPost2010Prop34
280
     0
102
RTVSPost2010PropOp34
 70
     0
102
RTVSPost2010Prop35
280
     0
102
RTVSPost2010PropOp35
 70
     0
102
RTVSPost2010Prop36
280
     0
102
RTVSPost2010PropOp36
 70
     0
102
RTVSPost2010Prop37
 90
       50
102
RTVSPost2010PropOp37
 70
     0
102
RTVSPost2010Prop38
140
0.0
102
RTVSPost2010PropOp38
 70
     0
102
RTVSPost2010Prop39
140
1.0
102
RTVSPost2010PropOp39
 70
     0
102
RTVSPost2010Prop40
 90
        0
102
RTVSPost2010PropOp40
 70
     0
102
RTVSPost2010Prop41ColorIndex
 90
       18
102
RTVSPost2010Prop41ColorRGB
 90
        0
102
RTVSPost2010PropOp41
 70
     0
102
RTVSPost2010Prop42
 90
       50
102
RTVSPost2010PropOp42
 70
     0
102
RTVSPost2010Prop43
 90
        3
102
RTVSPost2010PropOp43
 70
     0
102
RTVSPost2010Prop44ColorIndex
 90
        5
102
RTVSPost2010Prop44ColorRGB
 90
      255
102
RTVSPost2010PropOp44
 70
     0
102
RTVSPost2010Prop45
280
     0
102
RTVSPost2010PropOp45
 70
     0
102
RTVSPost2010Prop46
 90
       50
102
RTVSPost2010PropOp46
 70
     0
102
RTVSPost2010Prop47
 90
       50
102
RTVSPost2010PropOp47
 70
     0
102
RTVSPost2010Prop48
 90
       50
102
RTVSPost2010PropOp48
 70
     0
102
RTVSPost2010Prop49
280
     0
102
RTVSPost2010PropOp49
 70
     0
102
RTVSPost2010Prop50
 90
       50
102
RTVSPost2010PropOp50
 70
     0
102
RTVSPost2010Prop51ColorIndex
 90
      256
102
RTVSPost2010Prop51ColorRGB
 90
-16777216
102
RTVSPost2010PropOp51
 70
     0
102
RTVSPost2010Prop52
140
1.0
102
RTVSPost2010PropOp52
 70
     0
102
RTVSPost2010Prop53
 90
        2
102
RTVSPost2010PropOp53
 70
     0
102
RTVSPost2010Prop54
  1
strokes_ogs.tif
102
RTVSPost2010PropOp54
 70
     0
102
RTVSPost2010Prop55
280
     0
102
RTVSPost2010PropOp55
 70
     0
102
RTVSPost2010Prop56
140
1.0
102
RTVSPost2010PropOp56
 70
     0
102
RTVSPost2010Prop57
140
1.0
102
RTVSPost2010PropOp57
 70
     0
  0
XRECORD
  5
23A
102
{ACAD_REACTORS
330
239
102
}
330
239
100
AcDbXrecord
280
     1
102
RTVSPropertyOp0
 70
     1
102
RTVSPropertyOp1
 70
     1
102
RTVSPropertyOp2
 70
     1
102
RTVSPropertyOp3
 70
     1
102
RTVSPropertyOp4
 70
     1
102
RTVSPropertyOp5
 70
     1
102
RTVSPropertyOp6
 70
     1
102
RTVSPropertyOp7
 70
     1
102
RTVSPropertyOp8
 70
     1
102
RTVSPropertyOp9
 70
     1
102
RTVSPropertyOp10
 70
     1
102
RTVSPropertyOp11
 70
     1
102
RTVSPropertyOp12
 70
     1
102
RTVSPropertyOp13
 70
     1
102
RTVSPropertyOp14
 70
     1
102
RTVSPropertyOp15
 70
     1
102
RTVSPropertyOp16
 70
     1
102
RTVSPropertyOp17
 70
     1
102
RTVSPropertyOp18
 70
     1
102
RTVSPropertyOp19
 70
     1
102
RTVSPropertyOp20
 70
     1
102
RTVSPropertyOp21
 70
     1
102
RTVSPropertyOp22
 70
     1
102
RTVSPropertyOp23
 70
     1
102
RTVSPropertyOp24
 70
     1
102
RTVSPropertyOp25
 70
     1
102
RTVSPropertyOp26
 70
     1
102
RTVSPropertyOp27
 70
     1
102
RTVSPropertyOp28
 70
     1
102
RTVSPropertyOp29
 70
     1
102
RTVSPropertyOp30
 70
     1
102
RTVSPropertyOp31
 70
     1
102
RTVSPropertyOp32
 70
     1
102
RTVSPropertyOp33
 70
     1
102
RTVSPropertyOp34
 70
     1
102
RTVSPropertyOp35
 70
     1
102
RTVSPropertyOp36
 70
     1
102
RTVSPropertyOp37
 70
     1
102
RTVSPropertyOp38
 70
     1
102
RTVSPropertyOp39
 70
     1
102
RTVSPropertyOp40
 70
     1
102
RTVSPropertyOp41
 70
     1
102
RTVSPropertyOp42
 70
     1
102
RTVSPropertyOp43
 70
     1
102
RTVSPropertyOp44
 70
     1
102
RTVSPropertyOp45
 70
     1
102
RTVSPropertyOp46
 70
     1
102
RTVSPropertyOp47
 70
     1
102
RTVSPropertyOp48
 70
     1
102
RTVSPropertyOp49
 70
     1
102
RTVSPropertyOp50
 70
     1
102
RTVSPropertyOp51
 70
     0
102
RTVSPropertyOp52
 70
     0
102
RTVSPropertyOp53
 70
     1
102
RTVSPropertyOp54
 70
     1
102
RTVSPropertyOp55
 70
     1
102
RTVSPropertyOp56
 70
     1
102
RTVSPropertyOp57
 70
     1
102
RTVSPost2010Prop28
280
     0
102
RTVSPost2010PropOp28
 70
     1
102
RTVSPost2010Prop29
280
     1
102
RTVSPost2010PropOp29
 70
     1
102
RTVSPost2010Prop30
280
     1
102
RTVSPost2010PropOp30
 70
     1
102
RTVSPost2010Prop31
280
     0
102
RTVSPost2010PropOp31
 70
     1
102
RTVSPost2010Prop32
280
     0
102
RTVSPost2010PropOp32
 70
     1
102
RTVSPost2010Prop33
280
     0
102
RTVSPost2010PropOp33
 70
     1
102
RTVSPost2010Prop34
280
     0
102
RTVSPost2010PropOp34
 70
     1
102
RTVSPost2010Prop35
280
     0
102
RTVSPost2010PropOp35
 70
     1
102
RTVSPost2010Prop36
280
     0
102
RTVSPost2010PropOp36
 70
     1
102
RTVSPost2010Prop37
 90
       50
102
RTVSPost2010PropOp37
 70
     1
102
RTVSPost2010Prop38
140
0.0
102
RTVSPost2010PropOp38
 70
     1
102
RTVSPost2010Prop39
140
1.0
102
RTVSPost2010PropOp39
 70
     1
102
RTVSPost2010Prop40
 90
        0
102
RTVSPost2010PropOp40
 70
     1
102
RTVSPost2010Prop41ColorIndex
 90
       18
102
RTVSPost2010Prop41ColorRGB
 90
        0
102
RTVSPost2010PropOp41
 70
     1
102
RTVSPost2010Prop42
 90
       50
102
RTVSPost2010PropOp42
 70
     1
102
RTVSPost2010Prop43
 90
        3
102
RTVSPost2010PropOp43
 70
     1
102
RTVSPost2010Prop44ColorIndex
 90
        5
102
RTVSPost2010Prop44ColorRGB
 90
      255
102
RTVSPost2010PropOp44
 70
     1
102
RTVSPost2010Prop45
280
     0
102
RTVSPost2010PropOp45
 70
     1
102
RTVSPost2010Prop46
 90
       50
102
RTVSPost2010PropOp46
 70
     1
102
RTVSPost2010Prop47
 90
       50
102
RTVSPost2010PropOp47
 70
     1
102
RTVSPost2010Prop48
 90
       50
102
RTVSPost2010PropOp48
 70
     1
102
RTVSPost2010Prop49
280
     0
102
RTVSPost2010PropOp49
 70
     1
102
RTVSPost2010Prop50
 90
       50
102
RTVSPost2010PropOp50
 70
     1
102
RTVSPost2010Prop51ColorIndex
 90
      256
102
RTVSPost2010Prop51ColorRGB
 90
-16777216
102
RTVSPost2010PropOp51
 70
     0
102
RTVSPost2010Prop52
140
1.0
102
RTVSPost2010PropOp52
 70
     0
102
RTVSPost2010Prop53
 90
        2
102
RTVSPost2010PropOp53
 70
     1
102
RTVSPost2010Prop54
  1
strokes_ogs.tif
102
RTVSPost2010PropOp54
 70
     1
102
RTVSPost2010Prop55
280
     0
102
RTVSPost2010PropOp55
 70
     1
102
RTVSPost2010Prop56
140
1.0
102
RTVSPost2010PropOp56
 70
     1
102
RTVSPost2010Prop57
140
1.0
102
RTVSPost2010PropOp57
 70
     1
  0
XRECORD
  5
21E
102
{ACAD_REACTORS
330
21D
102
}
330
21D
100
AcDbXrecord
280
     1
102
RTVSPropertyOp0
 70
     1
102
RTVSPropertyOp1
 70
     1
102
RTVSPropertyOp2
 70
     1
102
RTVSPropertyOp3
 70
     1
102
RTVSPropertyOp4
 70
     1
102
RTVSPropertyOp5
 70
     1
102
RTVSPropertyOp6
 70
     1
102
RTVSPropertyOp7
 70
     1
102
RTVSPropertyOp8
 70
     1
102
RTVSPropertyOp9
 70
     1
102
RTVSPropertyOp10
 70
     1
102
RTVSPropertyOp11
 70
     1
102
RTVSPropertyOp12
 70
     1
102
RTVSPropertyOp13
 70
     1
102
RTVSPropertyOp14
 70
     1
102
RTVSPropertyOp15
 70
     1
102
RTVSPropertyOp16
 70
     1
102
RTVSPropertyOp17
 70
     1
102
RTVSPropertyOp18
 70
     1
102
RTVSPropertyOp19
 70
     1
102
RTVSPropertyOp20
 70
     1
102
RTVSPropertyOp21
 70
     1
102
RTVSPropertyOp22
 70
     1
102
RTVSPropertyOp23
 70
     1
102
RTVSPropertyOp24
 70
     1
102
RTVSPropertyOp25
 70
     1
102
RTVSPropertyOp26
 70
     1
102
RTVSPropertyOp27
 70
     1
102
RTVSPropertyOp28
 70
     1
102
RTVSPropertyOp29
 70
     1
102
RTVSPropertyOp30
 70
     1
102
RTVSPropertyOp31
 70
     1
102
RTVSPropertyOp32
 70
     1
102
RTVSPropertyOp33
 70
     1
102
RTVSPropertyOp34
 70
     1
102
RTVSPropertyOp35
 70
     1
102
RTVSPropertyOp36
 70
     1
102
RTVSPropertyOp37
 70
     1
102
RTVSPropertyOp38
 70
     1
102
RTVSPropertyOp39
 70
     1
102
RTVSPropertyOp40
 70
     1
102
RTVSPropertyOp41
 70
     1
102
RTVSPropertyOp42
 70
     1
102
RTVSPropertyOp43
 70
     1
102
RTVSPropertyOp44
 70
     1
102
RTVSPropertyOp45
 70
     1
102
RTVSPropertyOp46
 70
     1
102
RTVSPropertyOp47
 70
     1
102
RTVSPropertyOp48
 70
     1
102
RTVSPropertyOp49
 70
     1
102
RTVSPropertyOp50
 70
     1
102
RTVSPropertyOp51
 70
     0
102
RTVSPropertyOp52
 70
     0
102
RTVSPropertyOp53
 70
     1
102
RTVSPropertyOp54
 70
     1
102
RTVSPropertyOp55
 70
     1
102
RTVSPropertyOp56
 70
     1
102
RTVSPropertyOp57
 70
     1
102
RTVSPost2010Prop28
280
     0
102
RTVSPost2010PropOp28
 70
     1
102
RTVSPost2010Prop29
280
     1
102
RTVSPost2010PropOp29
 70
     1
102
RTVSPost2010Prop30
280
     1
102
RTVSPost2010PropOp30
 70
     1
102
RTVSPost2010Prop31
280
     0
102
RTVSPost2010PropOp31
 70
     1
102
RTVSPost2010Prop32
280
     0
102
RTVSPost2010PropOp32
 70
     1
102
RTVSPost2010Prop33
280
     0
102
RTVSPost2010PropOp33
 70
     1
102
RTVSPost2010Prop34
280
     0
102
RTVSPost2010PropOp34
 70
     1
102
RTVSPost2010Prop35
280
     0
102
RTVSPost2010PropOp35
 70
     1
102
RTVSPost2010Prop36
280
     0
102
RTVSPost2010PropOp36
 70
     1
102
RTVSPost2010Prop37
 90
       50
102
RTVSPost2010PropOp37
 70
     1
102
RTVSPost2010Prop38
140
0.0
102
RTVSPost2010PropOp38
 70
     1
102
RTVSPost2010Prop39
140
1.0
102
RTVSPost2010PropOp39
 70
     1
102
RTVSPost2010Prop40
 90
        0
102
RTVSPost2010PropOp40
 70
     1
102
RTVSPost2010Prop41ColorIndex
 90
       18
102
RTVSPost2010Prop41ColorRGB
 90
        0
102
RTVSPost2010PropOp41
 70
     1
102
RTVSPost2010Prop42
 90
       50
102
RTVSPost2010PropOp42
 70
     1
102
RTVSPost2010Prop43
 90
        3
102
RTVSPost2010PropOp43
 70
     1
102
RTVSPost2010Prop44ColorIndex
 90
        5
102
RTVSPost2010Prop44ColorRGB
 90
      255
102
RTVSPost2010PropOp44
 70
     1
102
RTVSPost2010Prop45
280
     0
102
RTVSPost2010PropOp45
 70
     1
102
RTVSPost2010Prop46
 90
       50
102
RTVSPost2010PropOp46
 70
     1
102
RTVSPost2010Prop47
 90
       50
102
RTVSPost2010PropOp47
 70
     1
102
RTVSPost2010Prop48
 90
       50
102
RTVSPost2010PropOp48
 70
     1
102
RTVSPost2010Prop49
280
     0
102
RTVSPost2010PropOp49
 70
     1
102
RTVSPost2010Prop50
 90
       50
102
RTVSPost2010PropOp50
 70
     1
102
RTVSPost2010Prop51ColorIndex
 90
      256
102
RTVSPost2010Prop51ColorRGB
 90
-16777216
102
RTVSPost2010PropOp51
 70
     0
102
RTVSPost2010Prop52
140
1.0
102
RTVSPost2010PropOp52
 70
     0
102
RTVSPost2010Prop53
 90
        2
102
RTVSPost2010PropOp53
 70
     1
102
RTVSPost2010Prop54
  1
strokes_ogs.tif
102
RTVSPost2010PropOp54
 70
     1
102
RTVSPost2010Prop55
280
     0
102
RTVSPost2010PropOp55
 70
     1
102
RTVSPost2010Prop56
140
1.0
102
RTVSPost2010PropOp56
 70
     1
102
RTVSPost2010Prop57
140
1.0
102
RTVSPost2010PropOp57
 70
     1
  0
XRECORD
  5
220
102
{ACAD_REACTORS
330
21F
102
}
330
21F
100
AcDbXrecord
280
     1
102
RTVSPropertyOp0
 70
     1
102
RTVSPropertyOp1
 70
     1
102
RTVSPropertyOp2
 70
     1
102
RTVSPropertyOp3
 70
     1
102
RTVSPropertyOp4
 70
     1
102
RTVSPropertyOp5
 70
     1
102
RTVSPropertyOp6
 70
     1
102
RTVSPropertyOp7
 70
     1
102
RTVSPropertyOp8
 70
     1
102
RTVSPropertyOp9
 70
     1
102
RTVSPropertyOp10
 70
     1
102
RTVSPropertyOp11
 70
     1
102
RTVSPropertyOp12
 70
     1
102
RTVSPropertyOp13
 70
     1
102
RTVSPropertyOp14
 70
     1
102
RTVSPropertyOp15
 70
     1
102
RTVSPropertyOp16
 70
     1
102
RTVSPropertyOp17
 70
     1
102
RTVSPropertyOp18
 70
     1
102
RTVSPropertyOp19
 70
     1
102
RTVSPropertyOp20
 70
     1
102
RTVSPropertyOp21
 70
     1
102
RTVSPropertyOp22
 70
     1
102
RTVSPropertyOp23
 70
     1
102
RTVSPropertyOp24
 70
     1
102
RTVSPropertyOp25
 70
     1
102
RTVSPropertyOp26
 70
     1
102
RTVSPropertyOp27
 70
     1
102
RTVSPropertyOp28
 70
     1
102
RTVSPropertyOp29
 70
     1
102
RTVSPropertyOp30
 70
     1
102
RTVSPropertyOp31
 70
     1
102
RTVSPropertyOp32
 70
     1
102
RTVSPropertyOp33
 70
     1
102
RTVSPropertyOp34
 70
     1
102
RTVSPropertyOp35
 70
     1
102
RTVSPropertyOp36
 70
     1
102
RTVSPropertyOp37
 70
     1
102
RTVSPropertyOp38
 70
     1
102
RTVSPropertyOp39
 70
     1
102
RTVSPropertyOp40
 70
     1
102
RTVSPropertyOp41
 70
     1
102
RTVSPropertyOp42
 70
     1
102
RTVSPropertyOp43
 70
     1
102
RTVSPropertyOp44
 70
     1
102
RTVSPropertyOp45
 70
     1
102
RTVSPropertyOp46
 70
     1
102
RTVSPropertyOp47
 70
     1
102
RTVSPropertyOp48
 70
     1
102
RTVSPropertyOp49
 70
     1
102
RTVSPropertyOp50
 70
     1
102
RTVSPropertyOp51
 70
     0
102
RTVSPropertyOp52
 70
     0
102
RTVSPropertyOp53
 70
     1
102
RTVSPropertyOp54
 70
     1
102
RTVSPropertyOp55
 70
     1
102
RTVSPropertyOp56
 70
     1
102
RTVSPropertyOp57
 70
     1
102
RTVSPost2010Prop28
280
     0
102
RTVSPost2010PropOp28
 70
     1
102
RTVSPost2010Prop29
280
     1
102
RTVSPost2010PropOp29
 70
     1
102
RTVSPost2010Prop30
280
     1
102
RTVSPost2010PropOp30
 70
     1
102
RTVSPost2010Prop31
280
     0
102
RTVSPost2010PropOp31
 70
     1
102
RTVSPost2010Prop32
280
     0
102
RTVSPost2010PropOp32
 70
     1
102
RTVSPost2010Prop33
280
     0
102
RTVSPost2010PropOp33
 70
     1
102
RTVSPost2010Prop34
280
     0
102
RTVSPost2010PropOp34
 70
     1
102
RTVSPost2010Prop35
280
     0
102
RTVSPost2010PropOp35
 70
     1
102
RTVSPost2010Prop36
280
     0
102
RTVSPost2010PropOp36
 70
     1
102
RTVSPost2010Prop37
 90
       50
102
RTVSPost2010PropOp37
 70
     1
102
RTVSPost2010Prop38
140
0.0
102
RTVSPost2010PropOp38
 70
     1
102
RTVSPost2010Prop39
140
1.0
102
RTVSPost2010PropOp39
 70
     1
102
RTVSPost2010Prop40
 90
        0
102
RTVSPost2010PropOp40
 70
     1
102
RTVSPost2010Prop41ColorIndex
 90
       18
102
RTVSPost2010Prop41ColorRGB
 90
        0
102
RTVSPost2010PropOp41
 70
     1
102
RTVSPost2010Prop42
 90
       50
102
RTVSPost2010PropOp42
 70
     1
102
RTVSPost2010Prop43
 90
        3
102
RTVSPost2010PropOp43
 70
     1
102
RTVSPost2010Prop44ColorIndex
 90
        5
102
RTVSPost2010Prop44ColorRGB
 90
      255
102
RTVSPost2010PropOp44
 70
     1
102
RTVSPost2010Prop45
280
     0
102
RTVSPost2010PropOp45
 70
     1
102
RTVSPost2010Prop46
 90
       50
102
RTVSPost2010PropOp46
 70
     1
102
RTVSPost2010Prop47
 90
       50
102
RTVSPost2010PropOp47
 70
     1
102
RTVSPost2010Prop48
 90
       50
102
RTVSPost2010PropOp48
 70
     1
102
RTVSPost2010Prop49
280
     0
102
RTVSPost2010PropOp49
 70
     1
102
RTVSPost2010Prop50
 90
       50
102
RTVSPost2010PropOp50
 70
     1
102
RTVSPost2010Prop51ColorIndex
 90
      256
102
RTVSPost2010Prop51ColorRGB
 90
-16777216
102
RTVSPost2010PropOp51
 70
     0
102
RTVSPost2010Prop52
140
1.0
102
RTVSPost2010PropOp52
 70
     0
102
RTVSPost2010Prop53
 90
        2
102
RTVSPost2010PropOp53
 70
     1
102
RTVSPost2010Prop54
  1
strokes_ogs.tif
102
RTVSPost2010PropOp54
 70
     1
102
RTVSPost2010Prop55
280
     0
102
RTVSPost2010PropOp55
 70
     1
102
RTVSPost2010Prop56
140
1.0
102
RTVSPost2010PropOp56
 70
     1
102
RTVSPost2010Prop57
140
1.0
102
RTVSPost2010PropOp57
 70
     1
  0
XRECORD
  5
222
102
{ACAD_REACTORS
330
221
102
}
330
221
100
AcDbXrecord
280
     1
102
RTVSPropertyOp0
 70
     1
102
RTVSPropertyOp1
 70
     1
102
RTVSPropertyOp2
 70
     1
102
RTVSPropertyOp3
 70
     1
102
RTVSPropertyOp4
 70
     1
102
RTVSPropertyOp5
 70
     1
102
RTVSPropertyOp6
 70
     1
102
RTVSPropertyOp7
 70
     1
102
RTVSPropertyOp8
 70
     1
102
RTVSPropertyOp9
 70
     1
102
RTVSPropertyOp10
 70
     1
102
RTVSPropertyOp11
 70
     1
102
RTVSPropertyOp12
 70
     1
102
RTVSPropertyOp13
 70
     1
102
RTVSPropertyOp14
 70
     1
102
RTVSPropertyOp15
 70
     1
102
RTVSPropertyOp16
 70
     1
102
RTVSPropertyOp17
 70
     1
102
RTVSPropertyOp18
 70
     1
102
RTVSPropertyOp19
 70
     1
102
RTVSPropertyOp20
 70
     1
102
RTVSPropertyOp21
 70
     1
102
RTVSPropertyOp22
 70
     1
102
RTVSPropertyOp23
 70
     1
102
RTVSPropertyOp24
 70
     1
102
RTVSPropertyOp25
 70
     1
102
RTVSPropertyOp26
 70
     1
102
RTVSPropertyOp27
 70
     1
102
RTVSPropertyOp28
 70
     1
102
RTVSPropertyOp29
 70
     1
102
RTVSPropertyOp30
 70
     1
102
RTVSPropertyOp31
 70
     1
102
RTVSPropertyOp32
 70
     1
102
RTVSPropertyOp33
 70
     1
102
RTVSPropertyOp34
 70
     1
102
RTVSPropertyOp35
 70
     1
102
RTVSPropertyOp36
 70
     1
102
RTVSPropertyOp37
 70
     1
102
RTVSPropertyOp38
 70
     1
102
RTVSPropertyOp39
 70
     1
102
RTVSPropertyOp40
 70
     1
102
RTVSPropertyOp41
 70
     1
102
RTVSPropertyOp42
 70
     1
102
RTVSPropertyOp43
 70
     1
102
RTVSPropertyOp44
 70
     1
102
RTVSPropertyOp45
 70
     1
102
RTVSPropertyOp46
 70
     1
102
RTVSPropertyOp47
 70
     1
102
RTVSPropertyOp48
 70
     1
102
RTVSPropertyOp49
 70
     1
102
RTVSPropertyOp50
 70
     1
102
RTVSPropertyOp51
 70
     0
102
RTVSPropertyOp52
 70
     0
102
RTVSPropertyOp53
 70
     1
102
RTVSPropertyOp54
 70
     1
102
RTVSPropertyOp55
 70
     1
102
RTVSPropertyOp56
 70
     1
102
RTVSPropertyOp57
 70
     1
102
RTVSPost2010Prop28
280
     0
102
RTVSPost2010PropOp28
 70
     1
102
RTVSPost2010Prop29
280
     1
102
RTVSPost2010PropOp29
 70
     1
102
RTVSPost2010Prop30
280
     1
102
RTVSPost2010PropOp30
 70
     1
102
RTVSPost2010Prop31
280
     0
102
RTVSPost2010PropOp31
 70
     1
102
RTVSPost2010Prop32
280
     0
102
RTVSPost2010PropOp32
 70
     1
102
RTVSPost2010Prop33
280
     0
102
RTVSPost2010PropOp33
 70
     1
102
RTVSPost2010Prop34
280
     0
102
RTVSPost2010PropOp34
 70
     1
102
RTVSPost2010Prop35
280
     0
102
RTVSPost2010PropOp35
 70
     1
102
RTVSPost2010Prop36
280
     0
102
RTVSPost2010PropOp36
 70
     1
102
RTVSPost2010Prop37
 90
       50
102
RTVSPost2010PropOp37
 70
     1
102
RTVSPost2010Prop38
140
0.0
102
RTVSPost2010PropOp38
 70
     1
102
RTVSPost2010Prop39
140
1.0
102
RTVSPost2010PropOp39
 70
     1
102
RTVSPost2010Prop40
 90
        0
102
RTVSPost2010PropOp40
 70
     1
102
RTVSPost2010Prop41ColorIndex
 90
       18
102
RTVSPost2010Prop41ColorRGB
 90
        0
102
RTVSPost2010PropOp41
 70
     1
102
RTVSPost2010Prop42
 90
       50
102
RTVSPost2010PropOp42
 70
     1
102
RTVSPost2010Prop43
 90
        3
102
RTVSPost2010PropOp43
 70
     1
102
RTVSPost2010Prop44ColorIndex
 90
        5
102
RTVSPost2010Prop44ColorRGB
 90
      255
102
RTVSPost2010PropOp44
 70
     1
102
RTVSPost2010Prop45
280
     0
102
RTVSPost2010PropOp45
 70
     1
102
RTVSPost2010Prop46
 90
       50
102
RTVSPost2010PropOp46
 70
     1
102
RTVSPost2010Prop47
 90
       50
102
RTVSPost2010PropOp47
 70
     1
102
RTVSPost2010Prop48
 90
       50
102
RTVSPost2010PropOp48
 70
     1
102
RTVSPost2010Prop49
280
     0
102
RTVSPost2010PropOp49
 70
     1
102
RTVSPost2010Prop50
 90
       50
102
RTVSPost2010PropOp50
 70
     1
102
RTVSPost2010Prop51ColorIndex
 90
      256
102
RTVSPost2010Prop51ColorRGB
 90
-16777216
102
RTVSPost2010PropOp51
 70
     0
102
RTVSPost2010Prop52
140
1.0
102
RTVSPost2010PropOp52
 70
     0
102
RTVSPost2010Prop53
 90
        2
102
RTVSPost2010PropOp53
 70
     1
102
RTVSPost2010Prop54
  1
strokes_ogs.tif
102
RTVSPost2010PropOp54
 70
     1
102
RTVSPost2010Prop55
280
     0
102
RTVSPost2010PropOp55
 70
     1
102
RTVSPost2010Prop56
140
1.0
102
RTVSPost2010PropOp56
 70
     1
102
RTVSPost2010Prop57
140
1.0
102
RTVSPost2010PropOp57
 70
     1
  0
XRECORD
  5
224
102
{ACAD_REACTORS
330
223
102
}
330
223
100
AcDbXrecord
280
     1
102
RTVSPropertyOp0
 70
     1
102
RTVSPropertyOp1
 70
     1
102
RTVSPropertyOp2
 70
     1
102
RTVSPropertyOp3
 70
     1
102
RTVSPropertyOp4
 70
     1
102
RTVSPropertyOp5
 70
     1
102
RTVSPropertyOp6
 70
     1
102
RTVSPropertyOp7
 70
     1
102
RTVSPropertyOp8
 70
     1
102
RTVSPropertyOp9
 70
     1
102
RTVSPropertyOp10
 70
     1
102
RTVSPropertyOp11
 70
     1
102
RTVSPropertyOp12
 70
     1
102
RTVSPropertyOp13
 70
     1
102
RTVSPropertyOp14
 70
     1
102
RTVSPropertyOp15
 70
     1
102
RTVSPropertyOp16
 70
     1
102
RTVSPropertyOp17
 70
     1
102
RTVSPropertyOp18
 70
     1
102
RTVSPropertyOp19
 70
     1
102
RTVSPropertyOp20
 70
     1
102
RTVSPropertyOp21
 70
     1
102
RTVSPropertyOp22
 70
     1
102
RTVSPropertyOp23
 70
     1
102
RTVSPropertyOp24
 70
     1
102
RTVSPropertyOp25
 70
     1
102
RTVSPropertyOp26
 70
     1
102
RTVSPropertyOp27
 70
     1
102
RTVSPropertyOp28
 70
     1
102
RTVSPropertyOp29
 70
     1
102
RTVSPropertyOp30
 70
     1
102
RTVSPropertyOp31
 70
     1
102
RTVSPropertyOp32
 70
     1
102
RTVSPropertyOp33
 70
     1
102
RTVSPropertyOp34
 70
     1
102
RTVSPropertyOp35
 70
     1
102
RTVSPropertyOp36
 70
     1
102
RTVSPropertyOp37
 70
     1
102
RTVSPropertyOp38
 70
     1
102
RTVSPropertyOp39
 70
     1
102
RTVSPropertyOp40
 70
     1
102
RTVSPropertyOp41
 70
     1
102
RTVSPropertyOp42
 70
     1
102
RTVSPropertyOp43
 70
     1
102
RTVSPropertyOp44
 70
     1
102
RTVSPropertyOp45
 70
     1
102
RTVSPropertyOp46
 70
     1
102
RTVSPropertyOp47
 70
     1
102
RTVSPropertyOp48
 70
     1
102
RTVSPropertyOp49
 70
     1
102
RTVSPropertyOp50
 70
     1
102
RTVSPropertyOp51
 70
     0
102
RTVSPropertyOp52
 70
     0
102
RTVSPropertyOp53
 70
     1
102
RTVSPropertyOp54
 70
     1
102
RTVSPropertyOp55
 70
     1
102
RTVSPropertyOp56
 70
     1
102
RTVSPropertyOp57
 70
     1
102
RTVSPost2010Prop28
280
     0
102
RTVSPost2010PropOp28
 70
     1
102
RTVSPost2010Prop29
280
     1
102
RTVSPost2010PropOp29
 70
     1
102
RTVSPost2010Prop30
280
     1
102
RTVSPost2010PropOp30
 70
     1
102
RTVSPost2010Prop31
280
     0
102
RTVSPost2010PropOp31
 70
     1
102
RTVSPost2010Prop32
280
     0
102
RTVSPost2010PropOp32
 70
     1
102
RTVSPost2010Prop33
280
     0
102
RTVSPost2010PropOp33
 70
     1
102
RTVSPost2010Prop34
280
     0
102
RTVSPost2010PropOp34
 70
     1
102
RTVSPost2010Prop35
280
     0
102
RTVSPost2010PropOp35
 70
     1
102
RTVSPost2010Prop36
280
     0
102
RTVSPost2010PropOp36
 70
     1
102
RTVSPost2010Prop37
 90
       50
102
RTVSPost2010PropOp37
 70
     1
102
RTVSPost2010Prop38
140
0.0
102
RTVSPost2010PropOp38
 70
     1
102
RTVSPost2010Prop39
140
1.0
102
RTVSPost2010PropOp39
 70
     1
102
RTVSPost2010Prop40
 90
        0
102
RTVSPost2010PropOp40
 70
     1
102
RTVSPost2010Prop41ColorIndex
 90
       18
102
RTVSPost2010Prop41ColorRGB
 90
        0
102
RTVSPost2010PropOp41
 70
     1
102
RTVSPost2010Prop42
 90
       50
102
RTVSPost2010PropOp42
 70
     1
102
RTVSPost2010Prop43
 90
        3
102
RTVSPost2010PropOp43
 70
     1
102
RTVSPost2010Prop44ColorIndex
 90
        5
102
RTVSPost2010Prop44ColorRGB
 90
      255
102
RTVSPost2010PropOp44
 70
     1
102
RTVSPost2010Prop45
280
     0
102
RTVSPost2010PropOp45
 70
     1
102
RTVSPost2010Prop46
 90
       50
102
RTVSPost2010PropOp46
 70
     1
102
RTVSPost2010Prop47
 90
       50
102
RTVSPost2010PropOp47
 70
     1
102
RTVSPost2010Prop48
 90
       50
102
RTVSPost2010PropOp48
 70
     1
102
RTVSPost2010Prop49
280
     0
102
RTVSPost2010PropOp49
 70
     1
102
RTVSPost2010Prop50
 90
       50
102
RTVSPost2010PropOp50
 70
     1
102
RTVSPost2010Prop51ColorIndex
 90
      256
102
RTVSPost2010Prop51ColorRGB
 90
-16777216
102
RTVSPost2010PropOp51
 70
     0
102
RTVSPost2010Prop52
140
1.0
102
RTVSPost2010PropOp52
 70
     0
102
RTVSPost2010Prop53
 90
        2
102
RTVSPost2010PropOp53
 70
     1
102
RTVSPost2010Prop54
  1
strokes_ogs.tif
102
RTVSPost2010PropOp54
 70
     1
102
RTVSPost2010Prop55
280
     0
102
RTVSPost2010PropOp55
 70
     1
102
RTVSPost2010Prop56
140
1.0
102
RTVSPost2010PropOp56
 70
     1
102
RTVSPost2010Prop57
140
1.0
102
RTVSPost2010PropOp57
 70
     1
  0
XRECORD
  5
22A
102
{ACAD_REACTORS
330
229
102
}
330
229
100
AcDbXrecord
280
     1
102
RTVSPropertyOp0
 70
     1
102
RTVSPropertyOp1
 70
     1
102
RTVSPropertyOp2
 70
     1
102
RTVSPropertyOp3
 70
     1
102
RTVSPropertyOp4
 70
     1
102
RTVSPropertyOp5
 70
     1
102
RTVSPropertyOp6
 70
     1
102
RTVSPropertyOp7
 70
     1
102
RTVSPropertyOp8
 70
     1
102
RTVSPropertyOp9
 70
     1
102
RTVSPropertyOp10
 70
     1
102
RTVSPropertyOp11
 70
     1
102
RTVSPropertyOp12
 70
     1
102
RTVSPropertyOp13
 70
     1
102
RTVSPropertyOp14
 70
     1
102
RTVSPropertyOp15
 70
     1
102
RTVSPropertyOp16
 70
     1
102
RTVSPropertyOp17
 70
     1
102
RTVSPropertyOp18
 70
     1
102
RTVSPropertyOp19
 70
     1
102
RTVSPropertyOp20
 70
     1
102
RTVSPropertyOp21
 70
     1
102
RTVSPropertyOp22
 70
     1
102
RTVSPropertyOp23
 70
     1
102
RTVSPropertyOp24
 70
     1
102
RTVSPropertyOp25
 70
     1
102
RTVSPropertyOp26
 70
     1
102
RTVSPropertyOp27
 70
     1
102
RTVSPropertyOp28
 70
     1
102
RTVSPropertyOp29
 70
     1
102
RTVSPropertyOp30
 70
     1
102
RTVSPropertyOp31
 70
     1
102
RTVSPropertyOp32
 70
     1
102
RTVSPropertyOp33
 70
     1
102
RTVSPropertyOp34
 70
     1
102
RTVSPropertyOp35
 70
     1
102
RTVSPropertyOp36
 70
     1
102
RTVSPropertyOp37
 70
     1
102
RTVSPropertyOp38
 70
     1
102
RTVSPropertyOp39
 70
     1
102
RTVSPropertyOp40
 70
     1
102
RTVSPropertyOp41
 70
     1
102
RTVSPropertyOp42
 70
     1
102
RTVSPropertyOp43
 70
     1
102
RTVSPropertyOp44
 70
     1
102
RTVSPropertyOp45
 70
     1
102
RTVSPropertyOp46
 70
     1
102
RTVSPropertyOp47
 70
     1
102
RTVSPropertyOp48
 70
     1
102
RTVSPropertyOp49
 70
     1
102
RTVSPropertyOp50
 70
     1
102
RTVSPropertyOp51
 70
     0
102
RTVSPropertyOp52
 70
     0
102
RTVSPropertyOp53
 70
     1
102
RTVSPropertyOp54
 70
     1
102
RTVSPropertyOp55
 70
     1
102
RTVSPropertyOp56
 70
     1
102
RTVSPropertyOp57
 70
     1
102
RTVSPost2010Prop28
280
     0
102
RTVSPost2010PropOp28
 70
     1
102
RTVSPost2010Prop29
280
     1
102
RTVSPost2010PropOp29
 70
     1
102
RTVSPost2010Prop30
280
     1
102
RTVSPost2010PropOp30
 70
     1
102
RTVSPost2010Prop31
280
     0
102
RTVSPost2010PropOp31
 70
     1
102
RTVSPost2010Prop32
280
     0
102
RTVSPost2010PropOp32
 70
     1
102
RTVSPost2010Prop33
280
     0
102
RTVSPost2010PropOp33
 70
     1
102
RTVSPost2010Prop34
280
     0
102
RTVSPost2010PropOp34
 70
     1
102
RTVSPost2010Prop35
280
     0
102
RTVSPost2010PropOp35
 70
     1
102
RTVSPost2010Prop36
280
     0
102
RTVSPost2010PropOp36
 70
     1
102
RTVSPost2010Prop37
 90
       50
102
RTVSPost2010PropOp37
 70
     1
102
RTVSPost2010Prop38
140
0.0
102
RTVSPost2010PropOp38
 70
     1
102
RTVSPost2010Prop39
140
1.0
102
RTVSPost2010PropOp39
 70
     1
102
RTVSPost2010Prop40
 90
        0
102
RTVSPost2010PropOp40
 70
     1
102
RTVSPost2010Prop41ColorIndex
 90
       18
102
RTVSPost2010Prop41ColorRGB
 90
        0
102
RTVSPost2010PropOp41
 70
     1
102
RTVSPost2010Prop42
 90
       50
102
RTVSPost2010PropOp42
 70
     1
102
RTVSPost2010Prop43
 90
        3
102
RTVSPost2010PropOp43
 70
     1
102
RTVSPost2010Prop44ColorIndex
 90
        5
102
RTVSPost2010Prop44ColorRGB
 90
      255
102
RTVSPost2010PropOp44
 70
     1
102
RTVSPost2010Prop45
280
     0
102
RTVSPost2010PropOp45
 70
     1
102
RTVSPost2010Prop46
 90
       50
102
RTVSPost2010PropOp46
 70
     1
102
RTVSPost2010Prop47
 90
       50
102
RTVSPost2010PropOp47
 70
     1
102
RTVSPost2010Prop48
 90
       50
102
RTVSPost2010PropOp48
 70
     1
102
RTVSPost2010Prop49
280
     0
102
RTVSPost2010PropOp49
 70
     1
102
RTVSPost2010Prop50
 90
       50
102
RTVSPost2010PropOp50
 70
     1
102
RTVSPost2010Prop51ColorIndex
 90
      256
102
RTVSPost2010Prop51ColorRGB
 90
-16777216
102
RTVSPost2010PropOp51
 70
     0
102
RTVSPost2010Prop52
140
1.0
102
RTVSPost2010PropOp52
 70
     0
102
RTVSPost2010Prop53
 90
        2
102
RTVSPost2010PropOp53
 70
     1
102
RTVSPost2010Prop54
  1
strokes_ogs.tif
102
RTVSPost2010PropOp54
 70
     1
102
RTVSPost2010Prop55
280
     0
102
RTVSPost2010PropOp55
 70
     1
102
RTVSPost2010Prop56
140
1.0
102
RTVSPost2010PropOp56
 70
     1
102
RTVSPost2010Prop57
140
1.0
102
RTVSPost2010PropOp57
 70
     1
  0
XRECORD
  5
23E
102
{ACAD_REACTORS
330
23D
102
}
330
23D
100
AcDbXrecord
280
     1
102
RTVSPropertyOp0
 70
     0
102
RTVSPropertyOp1
 70
     0
102
RTVSPropertyOp2
 70
     0
102
RTVSPropertyOp3
 70
     0
102
RTVSPropertyOp4
 70
     0
102
RTVSPropertyOp5
 70
     0
102
RTVSPropertyOp6
 70
     0
102
RTVSPropertyOp7
 70
     0
102
RTVSPropertyOp8
 70
     0
102
RTVSPropertyOp9
 70
     0
102
RTVSPropertyOp10
 70
     0
102
RTVSPropertyOp11
 70
     0
102
RTVSPropertyOp12
 70
     0
102
RTVSPropertyOp13
 70
     0
102
RTVSPropertyOp14
 70
     2
102
RTVSPropertyOp15
 70
     0
102
RTVSPropertyOp16
 70
     0
102
RTVSPropertyOp17
 70
     0
102
RTVSPropertyOp18
 70
     0
102
RTVSPropertyOp19
 70
     0
102
RTVSPropertyOp20
 70
     0
102
RTVSPropertyOp21
 70
     0
102
RTVSPropertyOp22
 70
     0
102
RTVSPropertyOp23
 70
     0
102
RTVSPropertyOp24
 70
     0
102
RTVSPropertyOp25
 70
     0
102
RTVSPropertyOp26
 70
     0
102
RTVSPropertyOp27
 70
     0
102
RTVSPropertyOp28
 70
     0
102
RTVSPropertyOp29
 70
     0
102
RTVSPropertyOp30
 70
     0
102
RTVSPropertyOp31
 70
     0
102
RTVSPropertyOp32
 70
     0
102
RTVSPropertyOp33
 70
     0
102
RTVSPropertyOp34
 70
     0
102
RTVSPropertyOp35
 70
     0
102
RTVSPropertyOp36
 70
     0
102
RTVSPropertyOp37
 70
     0
102
RTVSPropertyOp38
 70
     0
102
RTVSPropertyOp39
 70
     0
102
RTVSPropertyOp40
 70
     0
102
RTVSPropertyOp41
 70
     0
102
RTVSPropertyOp42
 70
     0
102
RTVSPropertyOp43
 70
     0
102
RTVSPropertyOp44
 70
     0
102
RTVSPropertyOp45
 70
     0
102
RTVSPropertyOp46
 70
     0
102
RTVSPropertyOp47
 70
     0
102
RTVSPropertyOp48
 70
     0
102
RTVSPropertyOp49
 70
     0
102
RTVSPropertyOp50
 70
     0
102
RTVSPropertyOp51
 70
     0
102
RTVSPropertyOp52
 70
     0
102
RTVSPropertyOp53
 70
     0
102
RTVSPropertyOp54
 70
     0
102
RTVSPropertyOp55
 70
     0
102
RTVSPropertyOp56
 70
     0
102
RTVSPropertyOp57
 70
     0
102
RTVSPost2010Prop28
280
     0
102
RTVSPost2010PropOp28
 70
     0
102
RTVSPost2010Prop29
280
     1
102
RTVSPost2010PropOp29
 70
     0
102
RTVSPost2010Prop30
280
     1
102
RTVSPost2010PropOp30
 70
     0
102
RTVSPost2010Prop31
280
     0
102
RTVSPost2010PropOp31
 70
     0
102
RTVSPost2010Prop32
280
     0
102
RTVSPost2010PropOp32
 70
     0
102
RTVSPost2010Prop33
280
     0
102
RTVSPost2010PropOp33
 70
     0
102
RTVSPost2010Prop34
280
     0
102
RTVSPost2010PropOp34
 70
     0
102
RTVSPost2010Prop35
280
     0
102
RTVSPost2010PropOp35
 70
     0
102
RTVSPost2010Prop36
280
     0
102
RTVSPost2010PropOp36
 70
     0
102
RTVSPost2010Prop37
 90
       50
102
RTVSPost2010PropOp37
 70
     0
102
RTVSPost2010Prop38
140
0.0
102
RTVSPost2010PropOp38
 70
     0
102
RTVSPost2010Prop39
140
1.0
102
RTVSPost2010PropOp39
 70
     0
102
RTVSPost2010Prop40
 90
        0
102
RTVSPost2010PropOp40
 70
     0
102
RTVSPost2010Prop41ColorIndex
 90
       18
102
RTVSPost2010Prop41ColorRGB
 90
        0
102
RTVSPost2010PropOp41
 70
     0
102
RTVSPost2010Prop42
 90
       50
102
RTVSPost2010PropOp42
 70
     0
102
RTVSPost2010Prop43
 90
        3
102
RTVSPost2010PropOp43
 70
     0
102
RTVSPost2010Prop44ColorIndex
 90
        5
102
RTVSPost2010Prop44ColorRGB
 90
      255
102
RTVSPost2010PropOp44
 70
     0
102
RTVSPost2010Prop45
280
     0
102
RTVSPost2010PropOp45
 70
     0
102
RTVSPost2010Prop46
 90
       50
102
RTVSPost2010PropOp46
 70
     0
102
RTVSPost2010Prop47
 90
       50
102
RTVSPost2010PropOp47
 70
     0
102
RTVSPost2010Prop48
 90
       50
102
RTVSPost2010PropOp48
 70
     0
102
RTVSPost2010Prop49
280
     0
102
RTVSPost2010PropOp49
 70
     0
102
RTVSPost2010Prop50
 90
       50
102
RTVSPost2010PropOp50
 70
     0
102
RTVSPost2010Prop51ColorIndex
 90
      256
102
RTVSPost2010Prop51ColorRGB
 90
-16777216
102
RTVSPost2010PropOp51
 70
     0
102
RTVSPost2010Prop52
140
1.0
102
RTVSPost2010PropOp52
 70
     0
102
RTVSPost2010Prop53
 90
        2
102
RTVSPost2010PropOp53
 70
     0
102
RTVSPost2010Prop54
  1
strokes_ogs.tif
102
RTVSPost2010PropOp54
 70
     0
102
RTVSPost2010Prop55
280
     0
102
RTVSPost2010PropOp55
 70
     0
102
RTVSPost2010Prop56
140
1.0
102
RTVSPost2010PropOp56
 70
     0
102
RTVSPost2010Prop57
140
1.0
102
RTVSPost2010PropOp57
 70
     0
  0
XRECORD
  5
238
102
{ACAD_REACTORS
330
237
102
}
330
237
100
AcDbXrecord
280
     1
102
RTVSPropertyOp0
 70
     1
102
RTVSPropertyOp1
 70
     1
102
RTVSPropertyOp2
 70
     1
102
RTVSPropertyOp3
 70
     1
102
RTVSPropertyOp4
 70
     1
102
RTVSPropertyOp5
 70
     1
102
RTVSPropertyOp6
 70
     1
102
RTVSPropertyOp7
 70
     1
102
RTVSPropertyOp8
 70
     1
102
RTVSPropertyOp9
 70
     1
102
RTVSPropertyOp10
 70
     1
102
RTVSPropertyOp11
 70
     1
102
RTVSPropertyOp12
 70
     1
102
RTVSPropertyOp13
 70
     1
102
RTVSPropertyOp14
 70
     1
102
RTVSPropertyOp15
 70
     1
102
RTVSPropertyOp16
 70
     1
102
RTVSPropertyOp17
 70
     1
102
RTVSPropertyOp18
 70
     1
102
RTVSPropertyOp19
 70
     1
102
RTVSPropertyOp20
 70
     1
102
RTVSPropertyOp21
 70
     1
102
RTVSPropertyOp22
 70
     1
102
RTVSPropertyOp23
 70
     1
102
RTVSPropertyOp24
 70
     1
102
RTVSPropertyOp25
 70
     1
102
RTVSPropertyOp26
 70
     1
102
RTVSPropertyOp27
 70
     1
102
RTVSPropertyOp28
 70
     1
102
RTVSPropertyOp29
 70
     1
102
RTVSPropertyOp30
 70
     1
102
RTVSPropertyOp31
 70
     1
102
RTVSPropertyOp32
 70
     1
102
RTVSPropertyOp33
 70
     1
102
RTVSPropertyOp34
 70
     1
102
RTVSPropertyOp35
 70
     1
102
RTVSPropertyOp36
 70
     1
102
RTVSPropertyOp37
 70
     1
102
RTVSPropertyOp38
 70
     1
102
RTVSPropertyOp39
 70
     1
102
RTVSPropertyOp40
 70
     1
102
RTVSPropertyOp41
 70
     1
102
RTVSPropertyOp42
 70
     1
102
RTVSPropertyOp43
 70
     1
102
RTVSPropertyOp44
 70
     1
102
RTVSPropertyOp45
 70
     1
102
RTVSPropertyOp46
 70
     1
102
RTVSPropertyOp47
 70
     1
102
RTVSPropertyOp48
 70
     1
102
RTVSPropertyOp49
 70
     1
102
RTVSPropertyOp50
 70
     1
102
RTVSPropertyOp51
 70
     0
102
RTVSPropertyOp52
 70
     0
102
RTVSPropertyOp53
 70
     1
102
RTVSPropertyOp54
 70
     1
102
RTVSPropertyOp55
 70
     1
102
RTVSPropertyOp56
 70
     1
102
RTVSPropertyOp57
 70
     1
102
RTVSPost2010Prop28
280
     0
102
RTVSPost2010PropOp28
 70
     1
102
RTVSPost2010Prop29
280
     1
102
RTVSPost2010PropOp29
 70
     1
102
RTVSPost2010Prop30
280
     1
102
RTVSPost2010PropOp30
 70
     1
102
RTVSPost2010Prop31
280
     0
102
RTVSPost2010PropOp31
 70
     1
102
RTVSPost2010Prop32
280
     0
102
RTVSPost2010PropOp32
 70
     1
102
RTVSPost2010Prop33
280
     0
102
RTVSPost2010PropOp33
 70
     1
102
RTVSPost2010Prop34
280
     0
102
RTVSPost2010PropOp34
 70
     1
102
RTVSPost2010Prop35
280
     0
102
RTVSPost2010PropOp35
 70
     1
102
RTVSPost2010Prop36
280
     0
102
RTVSPost2010PropOp36
 70
     1
102
RTVSPost2010Prop37
 90
       50
102
RTVSPost2010PropOp37
 70
     1
102
RTVSPost2010Prop38
140
0.0
102
RTVSPost2010PropOp38
 70
     1
102
RTVSPost2010Prop39
140
1.0
102
RTVSPost2010PropOp39
 70
     1
102
RTVSPost2010Prop40
 90
        0
102
RTVSPost2010PropOp40
 70
     1
102
RTVSPost2010Prop41ColorIndex
 90
       18
102
RTVSPost2010Prop41ColorRGB
 90
        0
102
RTVSPost2010PropOp41
 70
     1
102
RTVSPost2010Prop42
 90
       50
102
RTVSPost2010PropOp42
 70
     1
102
RTVSPost2010Prop43
 90
        3
102
RTVSPost2010PropOp43
 70
     1
102
RTVSPost2010Prop44ColorIndex
 90
        5
102
RTVSPost2010Prop44ColorRGB
 90
      255
102
RTVSPost2010PropOp44
 70
     1
102
RTVSPost2010Prop45
280
     0
102
RTVSPost2010PropOp45
 70
     1
102
RTVSPost2010Prop46
 90
       50
102
RTVSPost2010PropOp46
 70
     1
102
RTVSPost2010Prop47
 90
       50
102
RTVSPost2010PropOp47
 70
     1
102
RTVSPost2010Prop48
 90
       50
102
RTVSPost2010PropOp48
 70
     1
102
RTVSPost2010Prop49
280
     0
102
RTVSPost2010PropOp49
 70
     1
102
RTVSPost2010Prop50
 90
       50
102
RTVSPost2010PropOp50
 70
     1
102
RTVSPost2010Prop51ColorIndex
 90
      256
102
RTVSPost2010Prop51ColorRGB
 90
-16777216
102
RTVSPost2010PropOp51
 70
     0
102
RTVSPost2010Prop52
140
1.0
102
RTVSPost2010PropOp52
 70
     0
102
RTVSPost2010Prop53
 90
        2
102
RTVSPost2010PropOp53
 70
     1
102
RTVSPost2010Prop54
  1
strokes_ogs.tif
102
RTVSPost2010PropOp54
 70
     1
102
RTVSPost2010Prop55
280
     0
102
RTVSPost2010PropOp55
 70
     1
102
RTVSPost2010Prop56
140
1.0
102
RTVSPost2010PropOp56
 70
     1
102
RTVSPost2010Prop57
140
1.0
102
RTVSPost2010PropOp57
 70
     1
  0
XRECORD
  5
240
102
{ACAD_REACTORS
330
23F
102
}
330
23F
100
AcDbXrecord
280
     1
102
RTVSPropertyOp0
 70
     0
102
RTVSPropertyOp1
 70
     0
102
RTVSPropertyOp2
 70
     0
102
RTVSPropertyOp3
 70
     0
102
RTVSPropertyOp4
 70
     0
102
RTVSPropertyOp5
 70
     0
102
RTVSPropertyOp6
 70
     0
102
RTVSPropertyOp7
 70
     0
102
RTVSPropertyOp8
 70
     0
102
RTVSPropertyOp9
 70
     0
102
RTVSPropertyOp10
 70
     0
102
RTVSPropertyOp11
 70
     0
102
RTVSPropertyOp12
 70
     0
102
RTVSPropertyOp13
 70
     0
102
RTVSPropertyOp14
 70
     2
102
RTVSPropertyOp15
 70
     0
102
RTVSPropertyOp16
 70
     0
102
RTVSPropertyOp17
 70
     0
102
RTVSPropertyOp18
 70
     0
102
RTVSPropertyOp19
 70
     0
102
RTVSPropertyOp20
 70
     0
102
RTVSPropertyOp21
 70
     0
102
RTVSPropertyOp22
 70
     0
102
RTVSPropertyOp23
 70
     0
102
RTVSPropertyOp24
 70
     0
102
RTVSPropertyOp25
 70
     0
102
RTVSPropertyOp26
 70
     0
102
RTVSPropertyOp27
 70
     0
102
RTVSPropertyOp28
 70
     0
102
RTVSPropertyOp29
 70
     0
102
RTVSPropertyOp30
 70
     0
102
RTVSPropertyOp31
 70
     0
102
RTVSPropertyOp32
 70
     0
102
RTVSPropertyOp33
 70
     0
102
RTVSPropertyOp34
 70
     0
102
RTVSPropertyOp35
 70
     0
102
RTVSPropertyOp36
 70
     0
102
RTVSPropertyOp37
 70
     0
102
RTVSPropertyOp38
 70
     0
102
RTVSPropertyOp39
 70
     0
102
RTVSPropertyOp40
 70
     0
102
RTVSPropertyOp41
 70
     0
102
RTVSPropertyOp42
 70
     0
102
RTVSPropertyOp43
 70
     0
102
RTVSPropertyOp44
 70
     0
102
RTVSPropertyOp45
 70
     0
102
RTVSPropertyOp46
 70
     0
102
RTVSPropertyOp47
 70
     0
102
RTVSPropertyOp48
 70
     0
102
RTVSPropertyOp49
 70
     0
102
RTVSPropertyOp50
 70
     0
102
RTVSPropertyOp51
 70
     0
102
RTVSPropertyOp52
 70
     0
102
RTVSPropertyOp53
 70
     0
102
RTVSPropertyOp54
 70
     0
102
RTVSPropertyOp55
 70
     0
102
RTVSPropertyOp56
 70
     0
102
RTVSPropertyOp57
 70
     0
102
RTVSPost2010Prop28
280
     0
102
RTVSPost2010PropOp28
 70
     0
102
RTVSPost2010Prop29
280
     1
102
RTVSPost2010PropOp29
 70
     0
102
RTVSPost2010Prop30
280
     1
102
RTVSPost2010PropOp30
 70
     0
102
RTVSPost2010Prop31
280
     0
102
RTVSPost2010PropOp31
 70
     0
102
RTVSPost2010Prop32
280
     0
102
RTVSPost2010PropOp32
 70
     0
102
RTVSPost2010Prop33
280
     0
102
RTVSPost2010PropOp33
 70
     0
102
RTVSPost2010Prop34
280
     0
102
RTVSPost2010PropOp34
 70
     0
102
RTVSPost2010Prop35
280
     0
102
RTVSPost2010PropOp35
 70
     0
102
RTVSPost2010Prop36
280
     0
102
RTVSPost2010PropOp36
 70
     0
102
RTVSPost2010Prop37
 90
       50
102
RTVSPost2010PropOp37
 70
     0
102
RTVSPost2010Prop38
140
0.0
102
RTVSPost2010PropOp38
 70
     0
102
RTVSPost2010Prop39
140
1.0
102
RTVSPost2010PropOp39
 70
     0
102
RTVSPost2010Prop40
 90
        0
102
RTVSPost2010PropOp40
 70
     0
102
RTVSPost2010Prop41ColorIndex
 90
       18
102
RTVSPost2010Prop41ColorRGB
 90
        0
102
RTVSPost2010PropOp41
 70
     0
102
RTVSPost2010Prop42
 90
       50
102
RTVSPost2010PropOp42
 70
     0
102
RTVSPost2010Prop43
 90
        3
102
RTVSPost2010PropOp43
 70
     0
102
RTVSPost2010Prop44ColorIndex
 90
        5
102
RTVSPost2010Prop44ColorRGB
 90
      255
102
RTVSPost2010PropOp44
 70
     0
102
RTVSPost2010Prop45
280
     0
102
RTVSPost2010PropOp45
 70
     0
102
RTVSPost2010Prop46
 90
       50
102
RTVSPost2010PropOp46
 70
     0
102
RTVSPost2010Prop47
 90
       50
102
RTVSPost2010PropOp47
 70
     0
102
RTVSPost2010Prop48
 90
       50
102
RTVSPost2010PropOp48
 70
     0
102
RTVSPost2010Prop49
280
     0
102
RTVSPost2010PropOp49
 70
     0
102
RTVSPost2010Prop50
 90
       50
102
RTVSPost2010PropOp50
 70
     0
102
RTVSPost2010Prop51ColorIndex
 90
      256
102
RTVSPost2010Prop51ColorRGB
 90
-16777216
102
RTVSPost2010PropOp51
 70
     0
102
RTVSPost2010Prop52
140
1.0
102
RTVSPost2010PropOp52
 70
     0
102
RTVSPost2010Prop53
 90
        2
102
RTVSPost2010PropOp53
 70
     0
102
RTVSPost2010Prop54
  1
strokes_ogs.tif
102
RTVSPost2010PropOp54
 70
     0
102
RTVSPost2010Prop55
280
     0
102
RTVSPost2010PropOp55
 70
     0
102
RTVSPost2010Prop56
140
1.0
102
RTVSPost2010PropOp56
 70
     0
102
RTVSPost2010Prop57
140
1.0
102
RTVSPost2010PropOp57
 70
     0
  0
XRECORD
  5
22E
102
{ACAD_REACTORS
330
22D
102
}
330
22D
100
AcDbXrecord
280
     1
102
RTVSPropertyOp0
 70
     1
102
RTVSPropertyOp1
 70
     1
102
RTVSPropertyOp2
 70
     1
102
RTVSPropertyOp3
 70
     1
102
RTVSPropertyOp4
 70
     1
102
RTVSPropertyOp5
 70
     1
102
RTVSPropertyOp6
 70
     1
102
RTVSPropertyOp7
 70
     1
102
RTVSPropertyOp8
 70
     1
102
RTVSPropertyOp9
 70
     1
102
RTVSPropertyOp10
 70
     1
102
RTVSPropertyOp11
 70
     1
102
RTVSPropertyOp12
 70
     1
102
RTVSPropertyOp13
 70
     1
102
RTVSPropertyOp14
 70
     1
102
RTVSPropertyOp15
 70
     1
102
RTVSPropertyOp16
 70
     1
102
RTVSPropertyOp17
 70
     1
102
RTVSPropertyOp18
 70
     1
102
RTVSPropertyOp19
 70
     1
102
RTVSPropertyOp20
 70
     1
102
RTVSPropertyOp21
 70
     1
102
RTVSPropertyOp22
 70
     1
102
RTVSPropertyOp23
 70
     1
102
RTVSPropertyOp24
 70
     1
102
RTVSPropertyOp25
 70
     1
102
RTVSPropertyOp26
 70
     1
102
RTVSPropertyOp27
 70
     1
102
RTVSPropertyOp28
 70
     1
102
RTVSPropertyOp29
 70
     1
102
RTVSPropertyOp30
 70
     1
102
RTVSPropertyOp31
 70
     1
102
RTVSPropertyOp32
 70
     1
102
RTVSPropertyOp33
 70
     1
102
RTVSPropertyOp34
 70
     1
102
RTVSPropertyOp35
 70
     1
102
RTVSPropertyOp36
 70
     1
102
RTVSPropertyOp37
 70
     1
102
RTVSPropertyOp38
 70
     1
102
RTVSPropertyOp39
 70
     1
102
RTVSPropertyOp40
 70
     1
102
RTVSPropertyOp41
 70
     1
102
RTVSPropertyOp42
 70
     1
102
RTVSPropertyOp43
 70
     1
102
RTVSPropertyOp44
 70
     1
102
RTVSPropertyOp45
 70
     1
102
RTVSPropertyOp46
 70
     1
102
RTVSPropertyOp47
 70
     1
102
RTVSPropertyOp48
 70
     1
102
RTVSPropertyOp49
 70
     1
102
RTVSPropertyOp50
 70
     1
102
RTVSPropertyOp51
 70
     0
102
RTVSPropertyOp52
 70
     0
102
RTVSPropertyOp53
 70
     1
102
RTVSPropertyOp54
 70
     1
102
RTVSPropertyOp55
 70
     1
102
RTVSPropertyOp56
 70
     1
102
RTVSPropertyOp57
 70
     1
102
RTVSPost2010Prop28
280
     0
102
RTVSPost2010PropOp28
 70
     1
102
RTVSPost2010Prop29
280
     1
102
RTVSPost2010PropOp29
 70
     1
102
RTVSPost2010Prop30
280
     1
102
RTVSPost2010PropOp30
 70
     1
102
RTVSPost2010Prop31
280
     0
102
RTVSPost2010PropOp31
 70
     1
102
RTVSPost2010Prop32
280
     0
102
RTVSPost2010PropOp32
 70
     1
102
RTVSPost2010Prop33
280
     0
102
RTVSPost2010PropOp33
 70
     1
102
RTVSPost2010Prop34
280
     0
102
RTVSPost2010PropOp34
 70
     1
102
RTVSPost2010Prop35
280
     0
102
RTVSPost2010PropOp35
 70
     1
102
RTVSPost2010Prop36
280
     0
102
RTVSPost2010PropOp36
 70
     1
102
RTVSPost2010Prop37
 90
       50
102
RTVSPost2010PropOp37
 70
     1
102
RTVSPost2010Prop38
140
0.0
102
RTVSPost2010PropOp38
 70
     1
102
RTVSPost2010Prop39
140
1.0
102
RTVSPost2010PropOp39
 70
     1
102
RTVSPost2010Prop40
 90
        0
102
RTVSPost2010PropOp40
 70
     1
102
RTVSPost2010Prop41ColorIndex
 90
       18
102
RTVSPost2010Prop41ColorRGB
 90
        0
102
RTVSPost2010PropOp41
 70
     1
102
RTVSPost2010Prop42
 90
       50
102
RTVSPost2010PropOp42
 70
     1
102
RTVSPost2010Prop43
 90
        3
102
RTVSPost2010PropOp43
 70
     1
102
RTVSPost2010Prop44ColorIndex
 90
        5
102
RTVSPost2010Prop44ColorRGB
 90
      255
102
RTVSPost2010PropOp44
 70
     1
102
RTVSPost2010Prop45
280
     0
102
RTVSPost2010PropOp45
 70
     1
102
RTVSPost2010Prop46
 90
       50
102
RTVSPost2010PropOp46
 70
     1
102
RTVSPost2010Prop47
 90
       50
102
RTVSPost2010PropOp47
 70
     1
102
RTVSPost2010Prop48
 90
       50
102
RTVSPost2010PropOp48
 70
     1
102
RTVSPost2010Prop49
280
     0
102
RTVSPost2010PropOp49
 70
     1
102
RTVSPost2010Prop50
 90
       50
102
RTVSPost2010PropOp50
 70
     1
102
RTVSPost2010Prop51ColorIndex
 90
      256
102
RTVSPost2010Prop51ColorRGB
 90
-16777216
102
RTVSPost2010PropOp51
 70
     0
102
RTVSPost2010Prop52
140
1.0
102
RTVSPost2010PropOp52
 70
     0
102
RTVSPost2010Prop53
 90
        2
102
RTVSPost2010PropOp53
 70
     1
102
RTVSPost2010Prop54
  1
strokes_ogs.tif
102
RTVSPost2010PropOp54
 70
     1
102
RTVSPost2010Prop55
280
     0
102
RTVSPost2010PropOp55
 70
     1
102
RTVSPost2010Prop56
140
1.0
102
RTVSPost2010PropOp56
 70
     1
102
RTVSPost2010Prop57
140
1.0
102
RTVSPost2010PropOp57
 70
     1
  0
XRECORD
  5
24C
102
{ACAD_REACTORS
330
24B
102
}
330
24B
100
AcDbXrecord
280
     1
102
RTVSPropertyOp0
 70
     1
102
RTVSPropertyOp1
 70
     1
102
RTVSPropertyOp2
 70
     1
102
RTVSPropertyOp3
 70
     1
102
RTVSPropertyOp4
 70
     1
102
RTVSPropertyOp5
 70
     1
102
RTVSPropertyOp6
 70
     1
102
RTVSPropertyOp7
 70
     1
102
RTVSPropertyOp8
 70
     1
102
RTVSPropertyOp9
 70
     1
102
RTVSPropertyOp10
 70
     1
102
RTVSPropertyOp11
 70
     1
102
RTVSPropertyOp12
 70
     1
102
RTVSPropertyOp13
 70
     1
102
RTVSPropertyOp14
 70
     1
102
RTVSPropertyOp15
 70
     1
102
RTVSPropertyOp16
 70
     1
102
RTVSPropertyOp17
 70
     1
102
RTVSPropertyOp18
 70
     1
102
RTVSPropertyOp19
 70
     1
102
RTVSPropertyOp20
 70
     1
102
RTVSPropertyOp21
 70
     1
102
RTVSPropertyOp22
 70
     1
102
RTVSPropertyOp23
 70
     1
102
RTVSPropertyOp24
 70
     1
102
RTVSPropertyOp25
 70
     1
102
RTVSPropertyOp26
 70
     1
102
RTVSPropertyOp27
 70
     1
102
RTVSPropertyOp28
 70
     1
102
RTVSPropertyOp29
 70
     1
102
RTVSPropertyOp30
 70
     1
102
RTVSPropertyOp31
 70
     1
102
RTVSPropertyOp32
 70
     1
102
RTVSPropertyOp33
 70
     1
102
RTVSPropertyOp34
 70
     1
102
RTVSPropertyOp35
 70
     1
102
RTVSPropertyOp36
 70
     1
102
RTVSPropertyOp37
 70
     1
102
RTVSPropertyOp38
 70
     1
102
RTVSPropertyOp39
 70
     1
102
RTVSPropertyOp40
 70
     1
102
RTVSPropertyOp41
 70
     1
102
RTVSPropertyOp42
 70
     1
102
RTVSPropertyOp43
 70
     1
102
RTVSPropertyOp44
 70
     1
102
RTVSPropertyOp45
 70
     1
102
RTVSPropertyOp46
 70
     1
102
RTVSPropertyOp47
 70
     1
102
RTVSPropertyOp48
 70
     1
102
RTVSPropertyOp49
 70
     1
102
RTVSPropertyOp50
 70
     1
102
RTVSPropertyOp51
 70
     0
102
RTVSPropertyOp52
 70
     0
102
RTVSPropertyOp53
 70
     1
102
RTVSPropertyOp54
 70
     1
102
RTVSPropertyOp55
 70
     1
102
RTVSPropertyOp56
 70
     1
102
RTVSPropertyOp57
 70
     1
102
RTVSPost2010Prop28
280
     0
102
RTVSPost2010PropOp28
 70
     1
102
RTVSPost2010Prop29
280
     1
102
RTVSPost2010PropOp29
 70
     1
102
RTVSPost2010Prop30
280
     1
102
RTVSPost2010PropOp30
 70
     1
102
RTVSPost2010Prop31
280
     0
102
RTVSPost2010PropOp31
 70
     1
102
RTVSPost2010Prop32
280
     0
102
RTVSPost2010PropOp32
 70
     1
102
RTVSPost2010Prop33
280
     0
102
RTVSPost2010PropOp33
 70
     1
102
RTVSPost2010Prop34
280
     0
102
RTVSPost2010PropOp34
 70
     1
102
RTVSPost2010Prop35
280
     0
102
RTVSPost2010PropOp35
 70
     1
102
RTVSPost2010Prop36
280
     0
102
RTVSPost2010PropOp36
 70
     1
102
RTVSPost2010Prop37
 90
       50
102
RTVSPost2010PropOp37
 70
     1
102
RTVSPost2010Prop38
140
0.0
102
RTVSPost2010PropOp38
 70
     1
102
RTVSPost2010Prop39
140
1.0
102
RTVSPost2010PropOp39
 70
     1
102
RTVSPost2010Prop40
 90
        0
102
RTVSPost2010PropOp40
 70
     1
102
RTVSPost2010Prop41ColorIndex
 90
       18
102
RTVSPost2010Prop41ColorRGB
 90
        0
102
RTVSPost2010PropOp41
 70
     1
102
RTVSPost2010Prop42
 90
       50
102
RTVSPost2010PropOp42
 70
     1
102
RTVSPost2010Prop43
 90
        3
102
RTVSPost2010PropOp43
 70
     1
102
RTVSPost2010Prop44ColorIndex
 90
        5
102
RTVSPost2010Prop44ColorRGB
 90
      255
102
RTVSPost2010PropOp44
 70
     1
102
RTVSPost2010Prop45
280
     0
102
RTVSPost2010PropOp45
 70
     1
102
RTVSPost2010Prop46
 90
       50
102
RTVSPost2010PropOp46
 70
     1
102
RTVSPost2010Prop47
 90
       50
102
RTVSPost2010PropOp47
 70
     1
102
RTVSPost2010Prop48
 90
       50
102
RTVSPost2010PropOp48
 70
     1
102
RTVSPost2010Prop49
280
     0
102
RTVSPost2010PropOp49
 70
     1
102
RTVSPost2010Prop50
 90
       50
102
RTVSPost2010PropOp50
 70
     1
102
RTVSPost2010Prop51ColorIndex
 90
      256
102
RTVSPost2010Prop51ColorRGB
 90
-16777216
102
RTVSPost2010PropOp51
 70
     0
102
RTVSPost2010Prop52
140
1.0
102
RTVSPost2010PropOp52
 70
     0
102
RTVSPost2010Prop53
 90
        2
102
RTVSPost2010PropOp53
 70
     1
102
RTVSPost2010Prop54
  1
strokes_ogs.tif
102
RTVSPost2010PropOp54
 70
     1
102
RTVSPost2010Prop55
280
     0
102
RTVSPost2010PropOp55
 70
     1
102
RTVSPost2010Prop56
140
1.0
102
RTVSPost2010PropOp56
 70
     1
102
RTVSPost2010Prop57
140
1.0
102
RTVSPost2010PropOp57
 70
     1
  0
XRECORD
  5
24A
102
{ACAD_REACTORS
330
249
102
}
330
249
100
AcDbXrecord
280
     1
102
RTVSPropertyOp0
 70
     1
102
RTVSPropertyOp1
 70
     1
102
RTVSPropertyOp2
 70
     1
102
RTVSPropertyOp3
 70
     1
102
RTVSPropertyOp4
 70
     1
102
RTVSPropertyOp5
 70
     1
102
RTVSPropertyOp6
 70
     1
102
RTVSPropertyOp7
 70
     1
102
RTVSPropertyOp8
 70
     1
102
RTVSPropertyOp9
 70
     1
102
RTVSPropertyOp10
 70
     1
102
RTVSPropertyOp11
 70
     1
102
RTVSPropertyOp12
 70
     1
102
RTVSPropertyOp13
 70
     1
102
RTVSPropertyOp14
 70
     1
102
RTVSPropertyOp15
 70
     1
102
RTVSPropertyOp16
 70
     1
102
RTVSPropertyOp17
 70
     1
102
RTVSPropertyOp18
 70
     1
102
RTVSPropertyOp19
 70
     1
102
RTVSPropertyOp20
 70
     1
102
RTVSPropertyOp21
 70
     1
102
RTVSPropertyOp22
 70
     1
102
RTVSPropertyOp23
 70
     1
102
RTVSPropertyOp24
 70
     1
102
RTVSPropertyOp25
 70
     1
102
RTVSPropertyOp26
 70
     1
102
RTVSPropertyOp27
 70
     1
102
RTVSPropertyOp28
 70
     1
102
RTVSPropertyOp29
 70
     1
102
RTVSPropertyOp30
 70
     1
102
RTVSPropertyOp31
 70
     1
102
RTVSPropertyOp32
 70
     1
102
RTVSPropertyOp33
 70
     1
102
RTVSPropertyOp34
 70
     1
102
RTVSPropertyOp35
 70
     1
102
RTVSPropertyOp36
 70
     1
102
RTVSPropertyOp37
 70
     1
102
RTVSPropertyOp38
 70
     1
102
RTVSPropertyOp39
 70
     1
102
RTVSPropertyOp40
 70
     1
102
RTVSPropertyOp41
 70
     1
102
RTVSPropertyOp42
 70
     1
102
RTVSPropertyOp43
 70
     1
102
RTVSPropertyOp44
 70
     1
102
RTVSPropertyOp45
 70
     1
102
RTVSPropertyOp46
 70
     1
102
RTVSPropertyOp47
 70
     1
102
RTVSPropertyOp48
 70
     1
102
RTVSPropertyOp49
 70
     1
102
RTVSPropertyOp50
 70
     1
102
RTVSPropertyOp51
 70
     0
102
RTVSPropertyOp52
 70
     0
102
RTVSPropertyOp53
 70
     1
102
RTVSPropertyOp54
 70
     1
102
RTVSPropertyOp55
 70
     1
102
RTVSPropertyOp56
 70
     1
102
RTVSPropertyOp57
 70
     1
102
RTVSPost2010Prop28
280
     0
102
RTVSPost2010PropOp28
 70
     1
102
RTVSPost2010Prop29
280
     1
102
RTVSPost2010PropOp29
 70
     1
102
RTVSPost2010Prop30
280
     1
102
RTVSPost2010PropOp30
 70
     1
102
RTVSPost2010Prop31
280
     0
102
RTVSPost2010PropOp31
 70
     1
102
RTVSPost2010Prop32
280
     0
102
RTVSPost2010PropOp32
 70
     1
102
RTVSPost2010Prop33
280
     0
102
RTVSPost2010PropOp33
 70
     1
102
RTVSPost2010Prop34
280
     0
102
RTVSPost2010PropOp34
 70
     1
102
RTVSPost2010Prop35
280
     0
102
RTVSPost2010PropOp35
 70
     1
102
RTVSPost2010Prop36
280
     0
102
RTVSPost2010PropOp36
 70
     1
102
RTVSPost2010Prop37
 90
       50
102
RTVSPost2010PropOp37
 70
     1
102
RTVSPost2010Prop38
140
0.0
102
RTVSPost2010PropOp38
 70
     1
102
RTVSPost2010Prop39
140
1.0
102
RTVSPost2010PropOp39
 70
     1
102
RTVSPost2010Prop40
 90
        0
102
RTVSPost2010PropOp40
 70
     1
102
RTVSPost2010Prop41ColorIndex
 90
       18
102
RTVSPost2010Prop41ColorRGB
 90
        0
102
RTVSPost2010PropOp41
 70
     1
102
RTVSPost2010Prop42
 90
       50
102
RTVSPost2010PropOp42
 70
     1
102
RTVSPost2010Prop43
 90
        3
102
RTVSPost2010PropOp43
 70
     1
102
RTVSPost2010Prop44ColorIndex
 90
        5
102
RTVSPost2010Prop44ColorRGB
 90
      255
102
RTVSPost2010PropOp44
 70
     1
102
RTVSPost2010Prop45
280
     0
102
RTVSPost2010PropOp45
 70
     1
102
RTVSPost2010Prop46
 90
       50
102
RTVSPost2010PropOp46
 70
     1
102
RTVSPost2010Prop47
 90
       50
102
RTVSPost2010PropOp47
 70
     1
102
RTVSPost2010Prop48
 90
       50
102
RTVSPost2010PropOp48
 70
     1
102
RTVSPost2010Prop49
280
     0
102
RTVSPost2010PropOp49
 70
     1
102
RTVSPost2010Prop50
 90
       50
102
RTVSPost2010PropOp50
 70
     1
102
RTVSPost2010Prop51ColorIndex
 90
      256
102
RTVSPost2010Prop51ColorRGB
 90
-16777216
102
RTVSPost2010PropOp51
 70
     0
102
RTVSPost2010Prop52
140
1.0
102
RTVSPost2010PropOp52
 70
     0
102
RTVSPost2010Prop53
 90
        2
102
RTVSPost2010PropOp53
 70
     1
102
RTVSPost2010Prop54
  1
strokes_ogs.tif
102
RTVSPost2010PropOp54
 70
     1
102
RTVSPost2010Prop55
280
     0
102
RTVSPost2010PropOp55
 70
     1
102
RTVSPost2010Prop56
140
1.0
102
RTVSPost2010PropOp56
 70
     1
102
RTVSPost2010Prop57
140
1.0
102
RTVSPost2010PropOp57
 70
     1
  0
XRECORD
  5
244
102
{ACAD_REACTORS
330
243
102
}
330
243
100
AcDbXrecord
280
     1
102
RTVSPropertyOp0
 70
     1
102
RTVSPropertyOp1
 70
     1
102
RTVSPropertyOp2
 70
     1
102
RTVSPropertyOp3
 70
     1
102
RTVSPropertyOp4
 70
     1
102
RTVSPropertyOp5
 70
     1
102
RTVSPropertyOp6
 70
     1
102
RTVSPropertyOp7
 70
     1
102
RTVSPropertyOp8
 70
     1
102
RTVSPropertyOp9
 70
     1
102
RTVSPropertyOp10
 70
     1
102
RTVSPropertyOp11
 70
     1
102
RTVSPropertyOp12
 70
     1
102
RTVSPropertyOp13
 70
     1
102
RTVSPropertyOp14
 70
     1
102
RTVSPropertyOp15
 70
     1
102
RTVSPropertyOp16
 70
     1
102
RTVSPropertyOp17
 70
     1
102
RTVSPropertyOp18
 70
     1
102
RTVSPropertyOp19
 70
     1
102
RTVSPropertyOp20
 70
     1
102
RTVSPropertyOp21
 70
     1
102
RTVSPropertyOp22
 70
     1
102
RTVSPropertyOp23
 70
     1
102
RTVSPropertyOp24
 70
     1
102
RTVSPropertyOp25
 70
     1
102
RTVSPropertyOp26
 70
     1
102
RTVSPropertyOp27
 70
     1
102
RTVSPropertyOp28
 70
     1
102
RTVSPropertyOp29
 70
     1
102
RTVSPropertyOp30
 70
     1
102
RTVSPropertyOp31
 70
     1
102
RTVSPropertyOp32
 70
     1
102
RTVSPropertyOp33
 70
     1
102
RTVSPropertyOp34
 70
     1
102
RTVSPropertyOp35
 70
     1
102
RTVSPropertyOp36
 70
     1
102
RTVSPropertyOp37
 70
     1
102
RTVSPropertyOp38
 70
     1
102
RTVSPropertyOp39
 70
     1
102
RTVSPropertyOp40
 70
     1
102
RTVSPropertyOp41
 70
     1
102
RTVSPropertyOp42
 70
     1
102
RTVSPropertyOp43
 70
     1
102
RTVSPropertyOp44
 70
     1
102
RTVSPropertyOp45
 70
     1
102
RTVSPropertyOp46
 70
     1
102
RTVSPropertyOp47
 70
     1
102
RTVSPropertyOp48
 70
     1
102
RTVSPropertyOp49
 70
     1
102
RTVSPropertyOp50
 70
     1
102
RTVSPropertyOp51
 70
     0
102
RTVSPropertyOp52
 70
     0
102
RTVSPropertyOp53
 70
     1
102
RTVSPropertyOp54
 70
     1
102
RTVSPropertyOp55
 70
     1
102
RTVSPropertyOp56
 70
     1
102
RTVSPropertyOp57
 70
     1
102
RTVSPost2010Prop28
280
     0
102
RTVSPost2010PropOp28
 70
     1
102
RTVSPost2010Prop29
280
     1
102
RTVSPost2010PropOp29
 70
     1
102
RTVSPost2010Prop30
280
     1
102
RTVSPost2010PropOp30
 70
     1
102
RTVSPost2010Prop31
280
     0
102
RTVSPost2010PropOp31
 70
     1
102
RTVSPost2010Prop32
280
     0
102
RTVSPost2010PropOp32
 70
     1
102
RTVSPost2010Prop33
280
     0
102
RTVSPost2010PropOp33
 70
     1
102
RTVSPost2010Prop34
280
     0
102
RTVSPost2010PropOp34
 70
     1
102
RTVSPost2010Prop35
280
     0
102
RTVSPost2010PropOp35
 70
     1
102
RTVSPost2010Prop36
280
     0
102
RTVSPost2010PropOp36
 70
     1
102
RTVSPost2010Prop37
 90
       50
102
RTVSPost2010PropOp37
 70
     1
102
RTVSPost2010Prop38
140
0.0
102
RTVSPost2010PropOp38
 70
     1
102
RTVSPost2010Prop39
140
1.0
102
RTVSPost2010PropOp39
 70
     1
102
RTVSPost2010Prop40
 90
        0
102
RTVSPost2010PropOp40
 70
     1
102
RTVSPost2010Prop41ColorIndex
 90
       18
102
RTVSPost2010Prop41ColorRGB
 90
        0
102
RTVSPost2010PropOp41
 70
     1
102
RTVSPost2010Prop42
 90
       50
102
RTVSPost2010PropOp42
 70
     1
102
RTVSPost2010Prop43
 90
        3
102
RTVSPost2010PropOp43
 70
     1
102
RTVSPost2010Prop44ColorIndex
 90
        5
102
RTVSPost2010Prop44ColorRGB
 90
      255
102
RTVSPost2010PropOp44
 70
     1
102
RTVSPost2010Prop45
280
     0
102
RTVSPost2010PropOp45
 70
     1
102
RTVSPost2010Prop46
 90
       50
102
RTVSPost2010PropOp46
 70
     1
102
RTVSPost2010Prop47
 90
       50
102
RTVSPost2010PropOp47
 70
     1
102
RTVSPost2010Prop48
 90
       50
102
RTVSPost2010PropOp48
 70
     1
102
RTVSPost2010Prop49
280
     0
102
RTVSPost2010PropOp49
 70
     1
102
RTVSPost2010Prop50
 90
       50
102
RTVSPost2010PropOp50
 70
     1
102
RTVSPost2010Prop51ColorIndex
 90
      256
102
RTVSPost2010Prop51ColorRGB
 90
-16777216
102
RTVSPost2010PropOp51
 70
     0
102
RTVSPost2010Prop52
140
1.0
102
RTVSPost2010PropOp52
 70
     0
102
RTVSPost2010Prop53
 90
        2
102
RTVSPost2010PropOp53
 70
     1
102
RTVSPost2010Prop54
  1
strokes_ogs.tif
102
RTVSPost2010PropOp54
 70
     1
102
RTVSPost2010Prop55
280
     0
102
RTVSPost2010PropOp55
 70
     1
102
RTVSPost2010Prop56
140
1.0
102
RTVSPost2010PropOp56
 70
     1
102
RTVSPost2010Prop57
140
1.0
102
RTVSPost2010PropOp57
 70
     1
  0
XRECORD
  5
246
102
{ACAD_REACTORS
330
245
102
}
330
245
100
AcDbXrecord
280
     1
102
RTVSPropertyOp0
 70
     1
102
RTVSPropertyOp1
 70
     1
102
RTVSPropertyOp2
 70
     1
102
RTVSPropertyOp3
 70
     1
102
RTVSPropertyOp4
 70
     1
102
RTVSPropertyOp5
 70
     1
102
RTVSPropertyOp6
 70
     1
102
RTVSPropertyOp7
 70
     1
102
RTVSPropertyOp8
 70
     1
102
RTVSPropertyOp9
 70
     1
102
RTVSPropertyOp10
 70
     1
102
RTVSPropertyOp11
 70
     1
102
RTVSPropertyOp12
 70
     1
102
RTVSPropertyOp13
 70
     1
102
RTVSPropertyOp14
 70
     1
102
RTVSPropertyOp15
 70
     1
102
RTVSPropertyOp16
 70
     1
102
RTVSPropertyOp17
 70
     1
102
RTVSPropertyOp18
 70
     1
102
RTVSPropertyOp19
 70
     1
102
RTVSPropertyOp20
 70
     1
102
RTVSPropertyOp21
 70
     1
102
RTVSPropertyOp22
 70
     1
102
RTVSPropertyOp23
 70
     1
102
RTVSPropertyOp24
 70
     1
102
RTVSPropertyOp25
 70
     1
102
RTVSPropertyOp26
 70
     1
102
RTVSPropertyOp27
 70
     1
102
RTVSPropertyOp28
 70
     1
102
RTVSPropertyOp29
 70
     1
102
RTVSPropertyOp30
 70
     1
102
RTVSPropertyOp31
 70
     1
102
RTVSPropertyOp32
 70
     1
102
RTVSPropertyOp33
 70
     1
102
RTVSPropertyOp34
 70
     1
102
RTVSPropertyOp35
 70
     1
102
RTVSPropertyOp36
 70
     1
102
RTVSPropertyOp37
 70
     1
102
RTVSPropertyOp38
 70
     1
102
RTVSPropertyOp39
 70
     1
102
RTVSPropertyOp40
 70
     1
102
RTVSPropertyOp41
 70
     1
102
RTVSPropertyOp42
 70
     1
102
RTVSPropertyOp43
 70
     1
102
RTVSPropertyOp44
 70
     1
102
RTVSPropertyOp45
 70
     1
102
RTVSPropertyOp46
 70
     1
102
RTVSPropertyOp47
 70
     1
102
RTVSPropertyOp48
 70
     1
102
RTVSPropertyOp49
 70
     1
102
RTVSPropertyOp50
 70
     1
102
RTVSPropertyOp51
 70
     0
102
RTVSPropertyOp52
 70
     0
102
RTVSPropertyOp53
 70
     1
102
RTVSPropertyOp54
 70
     1
102
RTVSPropertyOp55
 70
     1
102
RTVSPropertyOp56
 70
     1
102
RTVSPropertyOp57
 70
     1
102
RTVSPost2010Prop28
280
     0
102
RTVSPost2010PropOp28
 70
     1
102
RTVSPost2010Prop29
280
     1
102
RTVSPost2010PropOp29
 70
     1
102
RTVSPost2010Prop30
280
     1
102
RTVSPost2010PropOp30
 70
     1
102
RTVSPost2010Prop31
280
     0
102
RTVSPost2010PropOp31
 70
     1
102
RTVSPost2010Prop32
280
     0
102
RTVSPost2010PropOp32
 70
     1
102
RTVSPost2010Prop33
280
     0
102
RTVSPost2010PropOp33
 70
     1
102
RTVSPost2010Prop34
280
     0
102
RTVSPost2010PropOp34
 70
     1
102
RTVSPost2010Prop35
280
     0
102
RTVSPost2010PropOp35
 70
     1
102
RTVSPost2010Prop36
280
     0
102
RTVSPost2010PropOp36
 70
     1
102
RTVSPost2010Prop37
 90
       50
102
RTVSPost2010PropOp37
 70
     1
102
RTVSPost2010Prop38
140
0.0
102
RTVSPost2010PropOp38
 70
     1
102
RTVSPost2010Prop39
140
1.0
102
RTVSPost2010PropOp39
 70
     1
102
RTVSPost2010Prop40
 90
        0
102
RTVSPost2010PropOp40
 70
     1
102
RTVSPost2010Prop41ColorIndex
 90
       18
102
RTVSPost2010Prop41ColorRGB
 90
        0
102
RTVSPost2010PropOp41
 70
     1
102
RTVSPost2010Prop42
 90
       50
102
RTVSPost2010PropOp42
 70
     1
102
RTVSPost2010Prop43
 90
        3
102
RTVSPost2010PropOp43
 70
     1
102
RTVSPost2010Prop44ColorIndex
 90
        5
102
RTVSPost2010Prop44ColorRGB
 90
      255
102
RTVSPost2010PropOp44
 70
     1
102
RTVSPost2010Prop45
280
     0
102
RTVSPost2010PropOp45
 70
     1
102
RTVSPost2010Prop46
 90
       50
102
RTVSPost2010PropOp46
 70
     1
102
RTVSPost2010Prop47
 90
       50
102
RTVSPost2010PropOp47
 70
     1
102
RTVSPost2010Prop48
 90
       50
102
RTVSPost2010PropOp48
 70
     1
102
RTVSPost2010Prop49
280
     0
102
RTVSPost2010PropOp49
 70
     1
102
RTVSPost2010Prop50
 90
       50
102
RTVSPost2010PropOp50
 70
     1
102
RTVSPost2010Prop51ColorIndex
 90
      256
102
RTVSPost2010Prop51ColorRGB
 90
-16777216
102
RTVSPost2010PropOp51
 70
     0
102
RTVSPost2010Prop52
140
1.0
102
RTVSPost2010PropOp52
 70
     0
102
RTVSPost2010Prop53
 90
        2
102
RTVSPost2010PropOp53
 70
     1
102
RTVSPost2010Prop54
  1
strokes_ogs.tif
102
RTVSPost2010PropOp54
 70
     1
102
RTVSPost2010Prop55
280
     0
102
RTVSPost2010PropOp55
 70
     1
102
RTVSPost2010Prop56
140
1.0
102
RTVSPost2010PropOp56
 70
     1
102
RTVSPost2010Prop57
140
1.0
102
RTVSPost2010PropOp57
 70
     1
  0
XRECORD
  5
236
102
{ACAD_REACTORS
330
235
102
}
330
235
100
AcDbXrecord
280
     1
102
RTVSPropertyOp0
 70
     1
102
RTVSPropertyOp1
 70
     1
102
RTVSPropertyOp2
 70
     1
102
RTVSPropertyOp3
 70
     1
102
RTVSPropertyOp4
 70
     1
102
RTVSPropertyOp5
 70
     1
102
RTVSPropertyOp6
 70
     1
102
RTVSPropertyOp7
 70
     1
102
RTVSPropertyOp8
 70
     1
102
RTVSPropertyOp9
 70
     1
102
RTVSPropertyOp10
 70
     1
102
RTVSPropertyOp11
 70
     1
102
RTVSPropertyOp12
 70
     1
102
RTVSPropertyOp13
 70
     1
102
RTVSPropertyOp14
 70
     1
102
RTVSPropertyOp15
 70
     1
102
RTVSPropertyOp16
 70
     1
102
RTVSPropertyOp17
 70
     1
102
RTVSPropertyOp18
 70
     1
102
RTVSPropertyOp19
 70
     1
102
RTVSPropertyOp20
 70
     1
102
RTVSPropertyOp21
 70
     1
102
RTVSPropertyOp22
 70
     1
102
RTVSPropertyOp23
 70
     1
102
RTVSPropertyOp24
 70
     1
102
RTVSPropertyOp25
 70
     1
102
RTVSPropertyOp26
 70
     1
102
RTVSPropertyOp27
 70
     1
102
RTVSPropertyOp28
 70
     1
102
RTVSPropertyOp29
 70
     1
102
RTVSPropertyOp30
 70
     1
102
RTVSPropertyOp31
 70
     1
102
RTVSPropertyOp32
 70
     1
102
RTVSPropertyOp33
 70
     1
102
RTVSPropertyOp34
 70
     1
102
RTVSPropertyOp35
 70
     1
102
RTVSPropertyOp36
 70
     1
102
RTVSPropertyOp37
 70
     1
102
RTVSPropertyOp38
 70
     1
102
RTVSPropertyOp39
 70
     1
102
RTVSPropertyOp40
 70
     1
102
RTVSPropertyOp41
 70
     1
102
RTVSPropertyOp42
 70
     1
102
RTVSPropertyOp43
 70
     1
102
RTVSPropertyOp44
 70
     1
102
RTVSPropertyOp45
 70
     1
102
RTVSPropertyOp46
 70
     1
102
RTVSPropertyOp47
 70
     1
102
RTVSPropertyOp48
 70
     1
102
RTVSPropertyOp49
 70
     1
102
RTVSPropertyOp50
 70
     1
102
RTVSPropertyOp51
 70
     0
102
RTVSPropertyOp52
 70
     0
102
RTVSPropertyOp53
 70
     1
102
RTVSPropertyOp54
 70
     1
102
RTVSPropertyOp55
 70
     1
102
RTVSPropertyOp56
 70
     1
102
RTVSPropertyOp57
 70
     1
102
RTVSPost2010Prop28
280
     0
102
RTVSPost2010PropOp28
 70
     1
102
RTVSPost2010Prop29
280
     1
102
RTVSPost2010PropOp29
 70
     1
102
RTVSPost2010Prop30
280
     1
102
RTVSPost2010PropOp30
 70
     1
102
RTVSPost2010Prop31
280
     0
102
RTVSPost2010PropOp31
 70
     1
102
RTVSPost2010Prop32
280
     0
102
RTVSPost2010PropOp32
 70
     1
102
RTVSPost2010Prop33
280
     0
102
RTVSPost2010PropOp33
 70
     1
102
RTVSPost2010Prop34
280
     0
102
RTVSPost2010PropOp34
 70
     1
102
RTVSPost2010Prop35
280
     0
102
RTVSPost2010PropOp35
 70
     1
102
RTVSPost2010Prop36
280
     0
102
RTVSPost2010PropOp36
 70
     1
102
RTVSPost2010Prop37
 90
       50
102
RTVSPost2010PropOp37
 70
     1
102
RTVSPost2010Prop38
140
0.0
102
RTVSPost2010PropOp38
 70
     1
102
RTVSPost2010Prop39
140
1.0
102
RTVSPost2010PropOp39
 70
     1
102
RTVSPost2010Prop40
 90
        0
102
RTVSPost2010PropOp40
 70
     1
102
RTVSPost2010Prop41ColorIndex
 90
       18
102
RTVSPost2010Prop41ColorRGB
 90
        0
102
RTVSPost2010PropOp41
 70
     1
102
RTVSPost2010Prop42
 90
       50
102
RTVSPost2010PropOp42
 70
     1
102
RTVSPost2010Prop43
 90
        3
102
RTVSPost2010PropOp43
 70
     1
102
RTVSPost2010Prop44ColorIndex
 90
        5
102
RTVSPost2010Prop44ColorRGB
 90
      255
102
RTVSPost2010PropOp44
 70
     1
102
RTVSPost2010Prop45
280
     0
102
RTVSPost2010PropOp45
 70
     1
102
RTVSPost2010Prop46
 90
       50
102
RTVSPost2010PropOp46
 70
     1
102
RTVSPost2010Prop47
 90
       50
102
RTVSPost2010PropOp47
 70
     1
102
RTVSPost2010Prop48
 90
       50
102
RTVSPost2010PropOp48
 70
     1
102
RTVSPost2010Prop49
280
     0
102
RTVSPost2010PropOp49
 70
     1
102
RTVSPost2010Prop50
 90
       50
102
RTVSPost2010PropOp50
 70
     1
102
RTVSPost2010Prop51ColorIndex
 90
      256
102
RTVSPost2010Prop51ColorRGB
 90
-16777216
102
RTVSPost2010PropOp51
 70
     0
102
RTVSPost2010Prop52
140
1.0
102
RTVSPost2010PropOp52
 70
     0
102
RTVSPost2010Prop53
 90
        2
102
RTVSPost2010PropOp53
 70
     1
102
RTVSPost2010Prop54
  1
strokes_ogs.tif
102
RTVSPost2010PropOp54
 70
     1
102
RTVSPost2010Prop55
280
     0
102
RTVSPost2010PropOp55
 70
     1
102
RTVSPost2010Prop56
140
1.0
102
RTVSPost2010PropOp56
 70
     1
102
RTVSPost2010Prop57
140
1.0
102
RTVSPost2010PropOp57
 70
     1
  0
XRECORD
  5
228
102
{ACAD_REACTORS
330
227
102
}
330
227
100
AcDbXrecord
280
     1
102
RTVSPropertyOp0
 70
     1
102
RTVSPropertyOp1
 70
     1
102
RTVSPropertyOp2
 70
     1
102
RTVSPropertyOp3
 70
     1
102
RTVSPropertyOp4
 70
     1
102
RTVSPropertyOp5
 70
     1
102
RTVSPropertyOp6
 70
     1
102
RTVSPropertyOp7
 70
     1
102
RTVSPropertyOp8
 70
     1
102
RTVSPropertyOp9
 70
     1
102
RTVSPropertyOp10
 70
     1
102
RTVSPropertyOp11
 70
     1
102
RTVSPropertyOp12
 70
     1
102
RTVSPropertyOp13
 70
     1
102
RTVSPropertyOp14
 70
     1
102
RTVSPropertyOp15
 70
     1
102
RTVSPropertyOp16
 70
     1
102
RTVSPropertyOp17
 70
     1
102
RTVSPropertyOp18
 70
     1
102
RTVSPropertyOp19
 70
     1
102
RTVSPropertyOp20
 70
     1
102
RTVSPropertyOp21
 70
     1
102
RTVSPropertyOp22
 70
     1
102
RTVSPropertyOp23
 70
     1
102
RTVSPropertyOp24
 70
     1
102
RTVSPropertyOp25
 70
     1
102
RTVSPropertyOp26
 70
     1
102
RTVSPropertyOp27
 70
     1
102
RTVSPropertyOp28
 70
     1
102
RTVSPropertyOp29
 70
     1
102
RTVSPropertyOp30
 70
     1
102
RTVSPropertyOp31
 70
     1
102
RTVSPropertyOp32
 70
     1
102
RTVSPropertyOp33
 70
     1
102
RTVSPropertyOp34
 70
     1
102
RTVSPropertyOp35
 70
     1
102
RTVSPropertyOp36
 70
     1
102
RTVSPropertyOp37
 70
     1
102
RTVSPropertyOp38
 70
     1
102
RTVSPropertyOp39
 70
     1
102
RTVSPropertyOp40
 70
     1
102
RTVSPropertyOp41
 70
     1
102
RTVSPropertyOp42
 70
     1
102
RTVSPropertyOp43
 70
     1
102
RTVSPropertyOp44
 70
     1
102
RTVSPropertyOp45
 70
     1
102
RTVSPropertyOp46
 70
     1
102
RTVSPropertyOp47
 70
     1
102
RTVSPropertyOp48
 70
     1
102
RTVSPropertyOp49
 70
     1
102
RTVSPropertyOp50
 70
     1
102
RTVSPropertyOp51
 70
     0
102
RTVSPropertyOp52
 70
     0
102
RTVSPropertyOp53
 70
     1
102
RTVSPropertyOp54
 70
     1
102
RTVSPropertyOp55
 70
     1
102
RTVSPropertyOp56
 70
     1
102
RTVSPropertyOp57
 70
     1
102
RTVSPost2010Prop28
280
     0
102
RTVSPost2010PropOp28
 70
     1
102
RTVSPost2010Prop29
280
     1
102
RTVSPost2010PropOp29
 70
     1
102
RTVSPost2010Prop30
280
     1
102
RTVSPost2010PropOp30
 70
     1
102
RTVSPost2010Prop31
280
     0
102
RTVSPost2010PropOp31
 70
     1
102
RTVSPost2010Prop32
280
     0
102
RTVSPost2010PropOp32
 70
     1
102
RTVSPost2010Prop33
280
     0
102
RTVSPost2010PropOp33
 70
     1
102
RTVSPost2010Prop34
280
     0
102
RTVSPost2010PropOp34
 70
     1
102
RTVSPost2010Prop35
280
     0
102
RTVSPost2010PropOp35
 70
     1
102
RTVSPost2010Prop36
280
     0
102
RTVSPost2010PropOp36
 70
     1
102
RTVSPost2010Prop37
 90
       50
102
RTVSPost2010PropOp37
 70
     1
102
RTVSPost2010Prop38
140
0.0
102
RTVSPost2010PropOp38
 70
     1
102
RTVSPost2010Prop39
140
1.0
102
RTVSPost2010PropOp39
 70
     1
102
RTVSPost2010Prop40
 90
        0
102
RTVSPost2010PropOp40
 70
     1
102
RTVSPost2010Prop41ColorIndex
 90
       18
102
RTVSPost2010Prop41ColorRGB
 90
        0
102
RTVSPost2010PropOp41
 70
     1
102
RTVSPost2010Prop42
 90
       50
102
RTVSPost2010PropOp42
 70
     1
102
RTVSPost2010Prop43
 90
        3
102
RTVSPost2010PropOp43
 70
     1
102
RTVSPost2010Prop44ColorIndex
 90
        5
102
RTVSPost2010Prop44ColorRGB
 90
      255
102
RTVSPost2010PropOp44
 70
     1
102
RTVSPost2010Prop45
280
     0
102
RTVSPost2010PropOp45
 70
     1
102
RTVSPost2010Prop46
 90
       50
102
RTVSPost2010PropOp46
 70
     1
102
RTVSPost2010Prop47
 90
       50
102
RTVSPost2010PropOp47
 70
     1
102
RTVSPost2010Prop48
 90
       50
102
RTVSPost2010PropOp48
 70
     1
102
RTVSPost2010Prop49
280
     0
102
RTVSPost2010PropOp49
 70
     1
102
RTVSPost2010Prop50
 90
       50
102
RTVSPost2010PropOp50
 70
     1
102
RTVSPost2010Prop51ColorIndex
 90
      256
102
RTVSPost2010Prop51ColorRGB
 90
-16777216
102
RTVSPost2010PropOp51
 70
     0
102
RTVSPost2010Prop52
140
1.0
102
RTVSPost2010PropOp52
 70
     0
102
RTVSPost2010Prop53
 90
        2
102
RTVSPost2010PropOp53
 70
     1
102
RTVSPost2010Prop54
  1
strokes_ogs.tif
102
RTVSPost2010PropOp54
 70
     1
102
RTVSPost2010Prop55
280
     0
102
RTVSPost2010PropOp55
 70
     1
102
RTVSPost2010Prop56
140
1.0
102
RTVSPost2010PropOp56
 70
     1
102
RTVSPost2010Prop57
140
1.0
102
RTVSPost2010PropOp57
 70
     1
  0
XRECORD
  5
248
102
{ACAD_REACTORS
330
247
102
}
330
247
100
AcDbXrecord
280
     1
102
RTVSPropertyOp0
 70
     1
102
RTVSPropertyOp1
 70
     1
102
RTVSPropertyOp2
 70
     1
102
RTVSPropertyOp3
 70
     1
102
RTVSPropertyOp4
 70
     1
102
RTVSPropertyOp5
 70
     1
102
RTVSPropertyOp6
 70
     1
102
RTVSPropertyOp7
 70
     1
102
RTVSPropertyOp8
 70
     1
102
RTVSPropertyOp9
 70
     1
102
RTVSPropertyOp10
 70
     1
102
RTVSPropertyOp11
 70
     1
102
RTVSPropertyOp12
 70
     1
102
RTVSPropertyOp13
 70
     1
102
RTVSPropertyOp14
 70
     1
102
RTVSPropertyOp15
 70
     1
102
RTVSPropertyOp16
 70
     1
102
RTVSPropertyOp17
 70
     1
102
RTVSPropertyOp18
 70
     1
102
RTVSPropertyOp19
 70
     1
102
RTVSPropertyOp20
 70
     1
102
RTVSPropertyOp21
 70
     1
102
RTVSPropertyOp22
 70
     1
102
RTVSPropertyOp23
 70
     1
102
RTVSPropertyOp24
 70
     1
102
RTVSPropertyOp25
 70
     1
102
RTVSPropertyOp26
 70
     1
102
RTVSPropertyOp27
 70
     1
102
RTVSPropertyOp28
 70
     1
102
RTVSPropertyOp29
 70
     1
102
RTVSPropertyOp30
 70
     1
102
RTVSPropertyOp31
 70
     1
102
RTVSPropertyOp32
 70
     1
102
RTVSPropertyOp33
 70
     1
102
RTVSPropertyOp34
 70
     1
102
RTVSPropertyOp35
 70
     1
102
RTVSPropertyOp36
 70
     1
102
RTVSPropertyOp37
 70
     1
102
RTVSPropertyOp38
 70
     1
102
RTVSPropertyOp39
 70
     1
102
RTVSPropertyOp40
 70
     1
102
RTVSPropertyOp41
 70
     1
102
RTVSPropertyOp42
 70
     1
102
RTVSPropertyOp43
 70
     1
102
RTVSPropertyOp44
 70
     1
102
RTVSPropertyOp45
 70
     1
102
RTVSPropertyOp46
 70
     1
102
RTVSPropertyOp47
 70
     1
102
RTVSPropertyOp48
 70
     1
102
RTVSPropertyOp49
 70
     1
102
RTVSPropertyOp50
 70
     1
102
RTVSPropertyOp51
 70
     0
102
RTVSPropertyOp52
 70
     0
102
RTVSPropertyOp53
 70
     1
102
RTVSPropertyOp54
 70
     1
102
RTVSPropertyOp55
 70
     1
102
RTVSPropertyOp56
 70
     1
102
RTVSPropertyOp57
 70
     1
102
RTVSPost2010Prop28
280
     0
102
RTVSPost2010PropOp28
 70
     1
102
RTVSPost2010Prop29
280
     1
102
RTVSPost2010PropOp29
 70
     1
102
RTVSPost2010Prop30
280
     1
102
RTVSPost2010PropOp30
 70
     1
102
RTVSPost2010Prop31
280
     0
102
RTVSPost2010PropOp31
 70
     1
102
RTVSPost2010Prop32
280
     0
102
RTVSPost2010PropOp32
 70
     1
102
RTVSPost2010Prop33
280
     0
102
RTVSPost2010PropOp33
 70
     1
102
RTVSPost2010Prop34
280
     0
102
RTVSPost2010PropOp34
 70
     1
102
RTVSPost2010Prop35
280
     0
102
RTVSPost2010PropOp35
 70
     1
102
RTVSPost2010Prop36
280
     0
102
RTVSPost2010PropOp36
 70
     1
102
RTVSPost2010Prop37
 90
       50
102
RTVSPost2010PropOp37
 70
     1
102
RTVSPost2010Prop38
140
0.0
102
RTVSPost2010PropOp38
 70
     1
102
RTVSPost2010Prop39
140
1.0
102
RTVSPost2010PropOp39
 70
     1
102
RTVSPost2010Prop40
 90
        0
102
RTVSPost2010PropOp40
 70
     1
102
RTVSPost2010Prop41ColorIndex
 90
       18
102
RTVSPost2010Prop41ColorRGB
 90
        0
102
RTVSPost2010PropOp41
 70
     1
102
RTVSPost2010Prop42
 90
       50
102
RTVSPost2010PropOp42
 70
     1
102
RTVSPost2010Prop43
 90
        3
102
RTVSPost2010PropOp43
 70
     1
102
RTVSPost2010Prop44ColorIndex
 90
        5
102
RTVSPost2010Prop44ColorRGB
 90
      255
102
RTVSPost2010PropOp44
 70
     1
102
RTVSPost2010Prop45
280
     0
102
RTVSPost2010PropOp45
 70
     1
102
RTVSPost2010Prop46
 90
       50
102
RTVSPost2010PropOp46
 70
     1
102
RTVSPost2010Prop47
 90
       50
102
RTVSPost2010PropOp47
 70
     1
102
RTVSPost2010Prop48
 90
       50
102
RTVSPost2010PropOp48
 70
     1
102
RTVSPost2010Prop49
280
     0
102
RTVSPost2010PropOp49
 70
     1
102
RTVSPost2010Prop50
 90
       50
102
RTVSPost2010PropOp50
 70
     1
102
RTVSPost2010Prop51ColorIndex
 90
      256
102
RTVSPost2010Prop51ColorRGB
 90
-16777216
102
RTVSPost2010PropOp51
 70
     0
102
RTVSPost2010Prop52
140
1.0
102
RTVSPost2010PropOp52
 70
     0
102
RTVSPost2010Prop53
 90
        2
102
RTVSPost2010PropOp53
 70
     1
102
RTVSPost2010Prop54
  1
strokes_ogs.tif
102
RTVSPost2010PropOp54
 70
     1
102
RTVSPost2010Prop55
280
     0
102
RTVSPost2010PropOp55
 70
     1
102
RTVSPost2010Prop56
140
1.0
102
RTVSPost2010PropOp56
 70
     1
102
RTVSPost2010Prop57
140
1.0
102
RTVSPost2010PropOp57
 70
     1
  0
ENDSEC
  0
EOF
