  0
SECTION
  2
HEADER
  9
$ACADVER
  1
AC1015
  9
$ACADMAINTVER
 70
     6
  9
$DWGCODEPAGE
  3
ANSI_1252
  9
$INSBASE
 10
0.0
 20
0.0
 30
0.0
  9
$EXTMIN
 10
0.0
 20
0.0
 30
0.0
  9
$EXTMAX
 10
1682.0
 20
2378.0
 30
0.0
  9
$LIMMIN
 10
0.0
 20
0.0
  9
$LIMMAX
 10
1682.0
 20
2378.0
  9
$ORTHOMODE
 70
     0
  9
$REGENMODE
 70
     1
  9
$FILLMODE
 70
     1
  9
$QTEXTMODE
 70
     0
  9
$MIRRTEXT
 70
     1
  9
$LTSCALE
 40
1.0
  9
$ATTMODE
 70
     1
  9
$TEXTSIZE
 40
2.5
  9
$TRACEWID
 40
1.0
  9
$TEXTSTYLE
  7
Standard
  9
$CLAYER
  8
0
  9
$CELTYPE
  6
ByLayer
  9
$CECOLOR
 62
   256
  9
$CELTSCALE
 40
1.0
  9
$DISPSILH
 70
     0
  9
$DIMSCALE
 40
1.0
  9
$DIMASZ
 40
2.5
  9
$DIMEXO
 40
0.625
  9
$DIMDLI
 40
3.75
  9
$DIMRND
 40
0.0
  9
$DIMDLE
 40
0.0
  9
$DIMEXE
 40
1.25
  9
$DIMTP
 40
0.0
  9
$DIMTM
 40
0.0
  9
$DIMTXT
 40
2.5
  9
$DIMCEN
 40
2.5
  9
$DIMTSZ
 40
0.0
  9
$DIMTOL
 70
     0
  9
$DIMLIM
 70
     0
  9
$DIMTIH
 70
     0
  9
$DIMTOH
 70
     0
  9
$DIMSE1
 70
     0
  9
$DIMSE2
 70
     0
  9
$DIMTAD
 70
     1
  9
$DIMZIN
 70
     8
  9
$DIMBLK
  1

  9
$DIMASO
 70
     1
  9
$DIMSHO
 70
     1
  9
$DIMPOST
  1

  9
$DIMAPOST
  1

  9
$DIMALT
 70
     0
  9
$DIMALTD
 70
     3
  9
$DIMALTF
 40
0.0393700787
  9
$DIMLFAC
 40
1.0
  9
$DIMTOFL
 70
     1
  9
$DIMTVP
 40
0.0
  9
$DIMTIX
 70
     0
  9
$DIMSOXD
 70
     0
  9
$DIMSAH
 70
     0
  9
$DIMBLK1
  1

  9
$DIMBLK2
  1

  9
$DIMSTYLE
  2
ISO-25
  9
$DIMCLRD
 70
     0
  9
$DIMCLRE
 70
     0
  9
$DIMCLRT
 70
     0
  9
$DIMTFAC
 40
1.0
  9
$DIMGAP
 40
0.625
  9
$DIMJUST
 70
     0
  9
$DIMSD1
 70
     0
  9
$DIMSD2
 70
     0
  9
$DIMTOLJ
 70
     0
  9
$DIMTZIN
 70
     8
  9
$DIMALTZ
 70
     0
  9
$DIMALTTZ
 70
     0
  9
$DIMUPT
 70
     0
  9
$DIMDEC
 70
     2
  9
$DIMTDEC
 70
     2
  9
$DIMALTU
 70
     2
  9
$DIMALTTD
 70
     3
  9
$DIMTXSTY
  7
Standard
  9
$DIMAUNIT
 70
     0
  9
$DIMADEC
 70
     0
  9
$DIMALTRND
 40
0.0
  9
$DIMAZIN
 70
     0
  9
$DIMDSEP
 70
    44
  9
$DIMATFIT
 70
     3
  9
$DIMFRAC
 70
     0
  9
$DIMLDRBLK
  1

  9
$DIMLUNIT
 70
     2
  9
$DIMLWD
 70
    -2
  9
$DIMLWE
 70
    -2
  9
$DIMTMOVE
 70
     0
  9
$LUNITS
 70
     2
  9
$LUPREC
 70
     4
  9
$SKETCHINC
 40
1.0
  9
$FILLETRAD
 40
10.0
  9
$AUNITS
 70
     0
  9
$AUPREC
 70
     0
  9
$MENU
  1
.
  9
$ELEVATION
 40
0.0
  9
$PELEVATION
 40
0.0
  9
$THICKNESS
 40
0.0
  9
$LIMCHECK
 70
     0
  9
$CHAMFERA
 40
10.0
  9
$CHAMFERB
 40
10.0
  9
$CHAMFERC
 40
20.0
  9
$CHAMFERD
 40
0.0
  9
$SKPOLY
 70
     0
  9
$TDCREATE
 40
2455467.630682488
  9
$TDUCREATE
 40
2455467.547349155
  9
$TDUPDATE
 40
2455467.6306825
  9
$TDUUPDATE
 40
2455467.547349167
  9
$TDINDWG
 40
0.0000000116
  9
$TDUSRTIMER
 40
0.0000000116
  9
$USRTIMER
 70
     1
  9
$ANGBASE
 50
0.0
  9
$ANGDIR
 70
     0
  9
$PDMODE
 70
     0
  9
$PDSIZE
 40
0.0
  9
$PLINEWID
 40
0.0
  9
$SPLFRAME
 70
     0
  9
$SPLINETYPE
 70
     6
  9
$SPLINESEGS
 70
     8
  9
$HANDSEED
  5
2C3
  9
$SURFTAB1
 70
     6
  9
$SURFTAB2
 70
     6
  9
$SURFTYPE
 70
     6
  9
$SURFU
 70
     6
  9
$SURFV
 70
     6
  9
$UCSBASE
  2

  9
$UCSNAME
  2

  9
$UCSORG
 10
0.0
 20
0.0
 30
0.0
  9
$UCSXDIR
 10
1.0
 20
0.0
 30
0.0
  9
$UCSYDIR
 10
0.0
 20
1.0
 30
0.0
  9
$UCSORTHOREF
  2

  9
$UCSORTHOVIEW
 70
     0
  9
$UCSORGTOP
 10
0.0
 20
0.0
 30
0.0
  9
$UCSORGBOTTOM
 10
0.0
 20
0.0
 30
0.0
  9
$UCSORGLEFT
 10
0.0
 20
0.0
 30
0.0
  9
$UCSORGRIGHT
 10
0.0
 20
0.0
 30
0.0
  9
$UCSORGFRONT
 10
0.0
 20
0.0
 30
0.0
  9
$UCSORGBACK
 10
0.0
 20
0.0
 30
0.0
  9
$PUCSBASE
  2

  9
$PUCSNAME
  2

  9
$PUCSORG
 10
0.0
 20
0.0
 30
0.0
  9
$PUCSXDIR
 10
1.0
 20
0.0
 30
0.0
  9
$PUCSYDIR
 10
0.0
 20
1.0
 30
0.0
  9
$PUCSORTHOREF
  2

  9
$PUCSORTHOVIEW
 70
     0
  9
$PUCSORGTOP
 10
0.0
 20
0.0
 30
0.0
  9
$PUCSORGBOTTOM
 10
0.0
 20
0.0
 30
0.0
  9
$PUCSORGLEFT
 10
0.0
 20
0.0
 30
0.0
  9
$PUCSORGRIGHT
 10
0.0
 20
0.0
 30
0.0
  9
$PUCSORGFRONT
 10
0.0
 20
0.0
 30
0.0
  9
$PUCSORGBACK
 10
0.0
 20
0.0
 30
0.0
  9
$USERI1
 70
     0
  9
$USERI2
 70
     0
  9
$USERI3
 70
     0
  9
$USERI4
 70
     0
  9
$USERI5
 70
     0
  9
$USERR1
 40
0.0
  9
$USERR2
 40
0.0
  9
$USERR3
 40
0.0
  9
$USERR4
 40
0.0
  9
$USERR5
 40
0.0
  9
$WORLDVIEW
 70
     1
  9
$SHADEDGE
 70
     3
  9
$SHADEDIF
 70
    70
  9
$TILEMODE
 70
     1
  9
$MAXACTVP
 70
    64
  9
$PINSBASE
 10
0.0
 20
0.0
 30
0.0
  9
$PLIMCHECK
 70
     0
  9
$PEXTMIN
 10
0.0
 20
0.0
 30
0.0
  9
$PEXTMAX
 10
1682.0
 20
2378.0
 30
0.0
  9
$PLIMMIN
 10
0.0
 20
0.0
  9
$PLIMMAX
 10
1682.0
 20
2378.0
  9
$UNITMODE
 70
     0
  9
$VISRETAIN
 70
     1
  9
$PLINEGEN
 70
     0
  9
$PSLTSCALE
 70
     1
  9
$TREEDEPTH
 70
  3020
  9
$CMLSTYLE
  2
Standard
  9
$CMLJUST
 70
     0
  9
$CMLSCALE
 40
20.0
  9
$PROXYGRAPHICS
 70
     1
  9
$MEASUREMENT
 70
     1
  9
$CELWEIGHT
370
    -1
  9
$ENDCAPS
280
     0
  9
$JOINSTYLE
280
     0
  9
$LWDISPLAY
290
     0
  9
$INSUNITS
 70
     4
  9
$HYPERLINKBASE
  1

  9
$STYLESHEET
  1

  9
$XEDIT
290
     1
  9
$CEPSNTYPE
380
     0
  9
$PSTYLEMODE
290
     1
  9
$FINGERPRINTGUID
  2
{49F6CDD5-B86C-4A2B-8AF7-0350CEB1BFEA}
  9
$VERSIONGUID
  2
{FAEB1C32-E019-11D5-929B-00C0DF256EC4}
  9
$EXTNAMES
290
     1
  9
$PSVPSCALE
 40
0.0
  9
$OLESTARTUP
290
     0
  0
ENDSEC
  0
SECTION
  2
CLASSES
  0
CLASS
  1
ACDBDICTIONARYWDFLT
  2
AcDbDictionaryWithDefault
  3
ObjectDBX Classes
 90
        0
280
     0
281
     0
  0
CLASS
  1
VISUALSTYLE
  2
AcDbVisualStyle
  3
ObjectDBX Classes
 90
     4095
280
     0
281
     0
  0
CLASS
  1
SCALE
  2
AcDbScale
  3
ObjectDBX Classes
 90
     1153
280
     0
281
     0
  0
CLASS
  1
DICTIONARYVAR
  2
AcDbDictionaryVar
  3
ObjectDBX Classes
 90
        0
280
     0
281
     0
  0
CLASS
  1
ACDBPLACEHOLDER
  2
AcDbPlaceHolder
  3
ObjectDBX Classes
 90
        0
280
     0
281
     0
  0
CLASS
  1
LAYOUT
  2
AcDbLayout
  3
ObjectDBX Classes
 90
        0
280
     0
281
     0
  0
ENDSEC
  0
SECTION
  2
TABLES
  0
TABLE
  2
VPORT
  5
8
330
0
100
AcDbSymbolTable
 70
     1
  0
VPORT
  5
29
330
8
100
AcDbSymbolTableRecord
100
AcDbViewportTableRecord
  2
*Active
 70
     0
 10
0.0
 20
0.0
 11
1.0
 21
1.0
 12
344.1869158879
 22
148.5
 13
0.0
 23
0.0
 14
10.0
 24
10.0
 15
10.0
 25
10.0
 16
0.0
 26
0.0
 36
1.0
 17
0.0
 27
0.0
 37
0.0
 40
297.0
 41
1.9729729729
 42
50.0
 43
0.0
 44
0.0
 50
0.0
 51
0.0
 71
     0
 72
   100
 73
     1
 74
     3
 75
     0
 76
     0
 77
     0
 78
     0
281
     0
 65
     1
110
0.0
120
0.0
130
0.0
111
1.0
121
0.0
131
0.0
112
0.0
122
1.0
132
0.0
 79
     0
146
0.0
  0
ENDTAB
  0
TABLE
  2
LTYPE
  5
5
330
0
100
AcDbSymbolTable
 70
     2
  0
LTYPE
  5
14
330
5
100
AcDbSymbolTableRecord
100
AcDbLinetypeTableRecord
  2
ByBlock
 70
     0
  3

 72
    65
 73
     0
 40
0.0
  0
LTYPE
  5
15
330
5
100
AcDbSymbolTableRecord
100
AcDbLinetypeTableRecord
  2
ByLayer
 70
     0
  3

 72
    65
 73
     0
 40
0.0
  0
LTYPE
  5
16
330
5
100
AcDbSymbolTableRecord
100
AcDbLinetypeTableRecord
  2
Continuous
 70
     0
  3
Solid line
 72
    65
 73
     0
 40
0.0
  0
LTYPE
  5
60
330
5
100
AcDbSymbolTableRecord
100
AcDbLinetypeTableRecord
  2
CENTER2
 70
     0
  3
Center (.5x) ___ _ ___ _ ___ _ ___ _ ___ _ ___
 72
    65
 73
     4
 40
28.575
 49
19.05
 74
     4
 75
     0
340
0
 46
0.0
 50
0.0
 44
0.0
 45
0.0
 49
-3.175
 74
     4
 75
     0
340
0
 46
0.0
 50
0.0
 44
0.0
 45
0.0
 49
3.175
 74
     4
 75
     0
340
0
 46
0.0
 50
0.0
 44
0.0
 45
0.0
 49
-3.175
 74
     4
 75
     0
340
0
 46
0.0
 50
0.0
 44
0.0
 45
0.0
  0
ENDTAB
  0
TABLE
  2
LAYER
  5
2
330
0
100
AcDbSymbolTable
 70
     6
  0
LAYER
  5
10
330
2
100
AcDbSymbolTableRecord
100
AcDbLayerTableRecord
  2
0
 70
     0
 62
     7
  6
Continuous
370
    -3
390
F
  0
LAYER
  5
5D
330
2
100
AcDbSymbolTableRecord
100
AcDbLayerTableRecord
  2
Default
 70
     0
 62
     7
  6
Continuous
370
    -3
390
F
  0
LAYER
  5
A3
330
2
100
AcDbSymbolTableRecord
100
AcDbLayerTableRecord
  2
11755031_GEH_THM
 70
     0
 62
     7
  6
Continuous
370
    -3
390
F
  0
LAYER
  5
D1
330
2
100
AcDbSymbolTableRecord
100
AcDbLayerTableRecord
  2
4220392_SCHABL_M
 70
     0
 62
     7
  6
Continuous
370
    -3
390
F
  0
LAYER
  5
F9
330
2
100
AcDbSymbolTableRecord
100
AcDbLayerTableRecord
  2
02001389_SCREW__
 70
     0
 62
     7
  6
Continuous
370
    -3
390
F
  0
LAYER
  5
27B
330
2
100
AcDbSymbolTableRecord
100
AcDbLayerTableRecord
  2
09872031_NIPPEL_
 70
     0
 62
     7
  6
Continuous
370
    -3
390
F
  0
ENDTAB
  0
TABLE
  2
STYLE
  5
3
330
0
100
AcDbSymbolTable
 70
     2
  0
STYLE
  5
11
330
3
100
AcDbSymbolTableRecord
100
AcDbTextStyleTableRecord
  2
Standard
 70
     0
 40
0.0
 41
1.0
 50
0.0
 71
     0
 42
2.5
  3
txt
  4

  0
STYLE
  5
2B2
330
3
100
AcDbSymbolTableRecord
100
AcDbTextStyleTableRecord
  2
SEACAD_seiso_ttf
 70
     0
 40
0.0
 41
1.0
 50
0.0
 71
     0
 42
0.2
  3
seiso.ttf
  4

  0
ENDTAB
  0
TABLE
  2
VIEW
  5
6
330
0
100
AcDbSymbolTable
 70
     0
  0
ENDTAB
  0
TABLE
  2
UCS
  5
7
330
0
100
AcDbSymbolTable
 70
     0
  0
ENDTAB
  0
TABLE
  2
APPID
  5
9
330
0
100
AcDbSymbolTable
 70
     1
  0
APPID
  5
12
330
9
100
AcDbSymbolTableRecord
100
AcDbRegAppTableRecord
  2
ACAD
 70
     0
  0
ENDTAB
  0
TABLE
  2
DIMSTYLE
  5
A
330
0
100
AcDbSymbolTable
 70
     1
100
AcDbDimStyleTable
  0
DIMSTYLE
105
27
330
A
100
AcDbSymbolTableRecord
100
AcDbDimStyleTableRecord
  2
ISO-25
 70
     0
 41
2.5
 42
0.625
 43
3.75
 44
1.25
 73
     0
 74
     0
 77
     1
 78
     8
140
2.5
141
2.5
143
0.0393700787
147
0.625
171
     3
172
     1
271
     2
272
     2
274
     3
278
    44
283
     0
284
     8
340
11
  0
ENDTAB
  0
TABLE
  2
BLOCK_RECORD
  5
1
330
0
100
AcDbSymbolTable
 70
    13
  0
BLOCK_RECORD
  5
1F
330
1
100
AcDbSymbolTableRecord
100
AcDbBlockTableRecord
  2
*Model_Space
340
22
  0
BLOCK_RECORD
  5
1B
330
1
100
AcDbSymbolTableRecord
100
AcDbBlockTableRecord
  2
*Paper_Space
340
1E
  0
BLOCK_RECORD
  5
5E
330
1
100
AcDbSymbolTableRecord
100
AcDbBlockTableRecord
  2
SEANNOT_GROUP
340
0
102
{BLKREFS
331
5F
102
}
  0
BLOCK_RECORD
  5
65
330
1
100
AcDbSymbolTableRecord
100
AcDbBlockTableRecord
  2
SEANNOT_GROUP1
340
0
102
{BLKREFS
331
66
102
}
  0
BLOCK_RECORD
  5
6B
330
1
100
AcDbSymbolTableRecord
100
AcDbBlockTableRecord
  2
SEANNOT_GROUP2
340
0
102
{BLKREFS
331
6C
102
}
  0
BLOCK_RECORD
  5
71
330
1
100
AcDbSymbolTableRecord
100
AcDbBlockTableRecord
  2
SEANNOT_GROUP3
340
0
102
{BLKREFS
331
72
102
}
  0
BLOCK_RECORD
  5
77
330
1
100
AcDbSymbolTableRecord
100
AcDbBlockTableRecord
  2
SEANNOT_GROUP4
340
0
102
{BLKREFS
331
78
102
}
  0
BLOCK_RECORD
  5
7D
330
1
100
AcDbSymbolTableRecord
100
AcDbBlockTableRecord
  2
SEANNOT_GROUP5
340
0
102
{BLKREFS
331
7E
102
}
  0
BLOCK_RECORD
  5
83
330
1
100
AcDbSymbolTableRecord
100
AcDbBlockTableRecord
  2
SEANNOT_GROUP6
340
0
102
{BLKREFS
331
84
102
}
  0
BLOCK_RECORD
  5
8D
330
1
100
AcDbSymbolTableRecord
100
AcDbBlockTableRecord
  2
SEANNOT_GROUP7
340
0
102
{BLKREFS
331
8E
102
}
  0
BLOCK_RECORD
  5
97
330
1
100
AcDbSymbolTableRecord
100
AcDbBlockTableRecord
  2
SEANNOT_GROUP8
340
0
102
{BLKREFS
331
98
102
}
  0
BLOCK_RECORD
  5
A1
330
1
100
AcDbSymbolTableRecord
100
AcDbBlockTableRecord
  2
SE
340
0
102
{BLKREFS
331
A2
102
}
  0
BLOCK_RECORD
  5
17C
330
1
100
AcDbSymbolTableRecord
100
AcDbBlockTableRecord
  2
SE1
340
0
102
{BLKREFS
331
17D
102
}
  0
BLOCK_RECORD
  5
20E
330
1
100
AcDbSymbolTableRecord
100
AcDbBlockTableRecord
  2
SE2
340
0
102
{BLKREFS
331
20F
102
}
  0
ENDTAB
  0
ENDSEC
  0
SECTION
  2
BLOCKS
  0
BLOCK
  5
20
330
1F
100
AcDbEntity
  8
0
100
AcDbBlockBegin
  2
*Model_Space
 70
     0
 10
0.0
 20
0.0
 30
0.0
  3
*Model_Space
  1

  0
ENDBLK
  5
21
330
1F
100
AcDbEntity
  8
0
100
AcDbBlockEnd
  0
BLOCK
  5
1C
330
1B
100
AcDbEntity
 67
     1
  8
0
100
AcDbBlockBegin
  2
*Paper_Space
 70
     0
 10
0.0
 20
0.0
 30
0.0
  3
*Paper_Space
  1

  0
ENDBLK
  5
1D
330
1B
100
AcDbEntity
 67
     1
  8
0
100
AcDbBlockEnd
  0
BLOCK
  5
63
330
5E
100
AcDbEntity
  8
0
100
AcDbBlockBegin
  2
SEANNOT_GROUP
 70
     0
 10
0.0
 20
0.0
 30
0.0
  3
SEANNOT_GROUP
  1

  0
LINE
  5
61
330
5E
100
AcDbEntity
  8
Default
  6
CENTER2
 62
     7
100
AcDbLine
 10
65.9947703707
 20
328.8342881848
 30
0.0
 11
25.9947712647
 21
328.8342881848
 31
0.0
  0
LINE
  5
62
330
5E
100
AcDbEntity
  8
Default
  6
CENTER2
 62
     7
100
AcDbLine
 10
45.9947708177
 20
348.8342877378
 30
0.0
 11
45.9947708177
 21
308.8342886318
 31
0.0
  0
ENDBLK
  5
64
330
5E
100
AcDbEntity
  8
0
100
AcDbBlockEnd
  0
BLOCK
  5
69
330
65
100
AcDbEntity
  8
0
100
AcDbBlockBegin
  2
SEANNOT_GROUP1
 70
     0
 10
0.0
 20
0.0
 30
0.0
  3
SEANNOT_GROUP1
  1

  0
LINE
  5
67
330
65
100
AcDbEntity
  8
Default
  6
CENTER2
 62
     7
100
AcDbLine
 10
116.4947703707
 20
328.8342881848
 30
0.0
 11
76.4947712647
 21
328.8342881848
 31
0.0
  0
LINE
  5
68
330
65
100
AcDbEntity
  8
Default
  6
CENTER2
 62
     7
100
AcDbLine
 10
96.4947708177
 20
348.8342877378
 30
0.0
 11
96.4947708177
 21
308.8342886318
 31
0.0
  0
ENDBLK
  5
6A
330
65
100
AcDbEntity
  8
0
100
AcDbBlockEnd
  0
BLOCK
  5
6F
330
6B
100
AcDbEntity
  8
0
100
AcDbBlockBegin
  2
SEANNOT_GROUP2
 70
     0
 10
0.0
 20
0.0
 30
0.0
  3
SEANNOT_GROUP2
  1

  0
LINE
  5
6D
330
6B
100
AcDbEntity
  8
Default
  6
CENTER2
 62
     7
100
AcDbLine
 10
166.9947703707
 20
328.8342881848
 30
0.0
 11
126.9947712647
 21
328.8342881848
 31
0.0
  0
LINE
  5
6E
330
6B
100
AcDbEntity
  8
Default
  6
CENTER2
 62
     7
100
AcDbLine
 10
146.9947708177
 20
348.8342877378
 30
0.0
 11
146.9947708177
 21
308.8342886318
 31
0.0
  0
ENDBLK
  5
70
330
6B
100
AcDbEntity
  8
0
100
AcDbBlockEnd
  0
BLOCK
  5
75
330
71
100
AcDbEntity
  8
0
100
AcDbBlockBegin
  2
SEANNOT_GROUP3
 70
     0
 10
0.0
 20
0.0
 30
0.0
  3
SEANNOT_GROUP3
  1

  0
LINE
  5
73
330
71
100
AcDbEntity
  8
Default
  6
CENTER2
 62
     7
100
AcDbLine
 10
116.4947703707
 20
432.8342881848
 30
0.0
 11
76.4947712647
 21
432.8342881848
 31
0.0
  0
LINE
  5
74
330
71
100
AcDbEntity
  8
Default
  6
CENTER2
 62
     7
100
AcDbLine
 10
96.4947708177
 20
452.8342877378
 30
0.0
 11
96.4947708177
 21
412.8342886318
 31
0.0
  0
ENDBLK
  5
76
330
71
100
AcDbEntity
  8
0
100
AcDbBlockEnd
  0
BLOCK
  5
7B
330
77
100
AcDbEntity
  8
0
100
AcDbBlockBegin
  2
SEANNOT_GROUP4
 70
     0
 10
0.0
 20
0.0
 30
0.0
  3
SEANNOT_GROUP4
  1

  0
LINE
  5
79
330
77
100
AcDbEntity
  8
Default
  6
CENTER2
 62
     7
100
AcDbLine
 10
272.7403655682
 20
432.8342881848
 30
0.0
 11
232.7403664623
 21
432.8342881848
 31
0.0
  0
LINE
  5
7A
330
77
100
AcDbEntity
  8
Default
  6
CENTER2
 62
     7
100
AcDbLine
 10
252.7403660152
 20
452.8342877378
 30
0.0
 11
252.7403660152
 21
412.8342886318
 31
0.0
  0
ENDBLK
  5
7C
330
77
100
AcDbEntity
  8
0
100
AcDbBlockEnd
  0
BLOCK
  5
81
330
7D
100
AcDbEntity
  8
0
100
AcDbBlockBegin
  2
SEANNOT_GROUP5
 70
     0
 10
0.0
 20
0.0
 30
0.0
  3
SEANNOT_GROUP5
  1

  0
LINE
  5
7F
330
7D
100
AcDbEntity
  8
Default
  6
CENTER2
 62
     7
100
AcDbLine
 10
272.7403655682
 20
328.8342881848
 30
0.0
 11
232.7403664623
 21
328.8342881848
 31
0.0
  0
LINE
  5
80
330
7D
100
AcDbEntity
  8
Default
  6
CENTER2
 62
     7
100
AcDbLine
 10
252.7403660152
 20
348.8342877378
 30
0.0
 11
252.7403660152
 21
308.8342886318
 31
0.0
  0
ENDBLK
  5
82
330
7D
100
AcDbEntity
  8
0
100
AcDbBlockEnd
  0
BLOCK
  5
8B
330
83
100
AcDbEntity
  8
0
100
AcDbBlockBegin
  2
SEANNOT_GROUP6
 70
     0
 10
0.0
 20
0.0
 30
0.0
  3
SEANNOT_GROUP6
  1

  0
LINE
  5
85
330
83
100
AcDbEntity
  8
Default
  6
CENTER2
 62
     7
100
AcDbLine
 10
116.4947703707
 20
258.5553290939
 30
0.0
 11
76.4947712647
 21
258.5553290939
 31
0.0
  0
LINE
  5
86
330
83
100
AcDbEntity
  8
Default
  6
CENTER2
 62
     7
100
AcDbLine
 10
96.4947708177
 20
278.5553286469
 30
0.0
 11
96.4947708177
 21
238.5553295409
 31
0.0
  0
LINE
  5
87
330
83
100
AcDbEntity
  8
Default
  6
CENTER2
 62
     7
100
AcDbLine
 10
121.4947702589
 20
258.5553290939
 30
0.0
 11
116.0819265605
 21
258.5553290939
 31
0.0
  0
LINE
  5
88
330
83
100
AcDbEntity
  8
Default
  6
CENTER2
 62
     7
100
AcDbLine
 10
96.4947708177
 20
283.5553285351
 30
0.0
 11
96.4947708177
 21
278.1424848366
 31
0.0
  0
LINE
  5
89
330
83
100
AcDbEntity
  8
Default
  6
CENTER2
 62
     7
100
AcDbLine
 10
71.4947713765
 20
258.5553290939
 30
0.0
 11
76.907615075
 21
258.5553290939
 31
0.0
  0
LINE
  5
8A
330
83
100
AcDbEntity
  8
Default
  6
CENTER2
 62
     7
100
AcDbLine
 10
96.4947708177
 20
233.5553296527
 30
0.0
 11
96.4947708177
 21
238.9681733512
 31
0.0
  0
ENDBLK
  5
8C
330
83
100
AcDbEntity
  8
0
100
AcDbBlockEnd
  0
BLOCK
  5
95
330
8D
100
AcDbEntity
  8
0
100
AcDbBlockBegin
  2
SEANNOT_GROUP7
 70
     0
 10
0.0
 20
0.0
 30
0.0
  3
SEANNOT_GROUP7
  1

  0
LINE
  5
8F
330
8D
100
AcDbEntity
  8
Default
  6
CENTER2
 62
     7
100
AcDbLine
 10
65.9947703707
 20
258.5553290939
 30
0.0
 11
25.9947712647
 21
258.5553290939
 31
0.0
  0
LINE
  5
90
330
8D
100
AcDbEntity
  8
Default
  6
CENTER2
 62
     7
100
AcDbLine
 10
45.9947708177
 20
278.5553286469
 30
0.0
 11
45.9947708177
 21
238.5553295409
 31
0.0
  0
LINE
  5
91
330
8D
100
AcDbEntity
  8
Default
  6
CENTER2
 62
     7
100
AcDbLine
 10
70.9947702589
 20
258.5553290939
 30
0.0
 11
65.4418641212
 21
258.5553290939
 31
0.0
  0
LINE
  5
92
330
8D
100
AcDbEntity
  8
Default
  6
CENTER2
 62
     7
100
AcDbLine
 10
45.9947708177
 20
283.5553285351
 30
0.0
 11
45.9947708177
 21
278.0024223974
 31
0.0
  0
LINE
  5
93
330
8D
100
AcDbEntity
  8
Default
  6
CENTER2
 62
     7
100
AcDbLine
 10
20.9947713765
 20
258.5553290939
 30
0.0
 11
26.5476775142
 21
258.5553290939
 31
0.0
  0
LINE
  5
94
330
8D
100
AcDbEntity
  8
Default
  6
CENTER2
 62
     7
100
AcDbLine
 10
45.9947708177
 20
233.5553296527
 30
0.0
 11
45.9947708177
 21
239.1082357904
 31
0.0
  0
ENDBLK
  5
96
330
8D
100
AcDbEntity
  8
0
100
AcDbBlockEnd
  0
BLOCK
  5
9F
330
97
100
AcDbEntity
  8
0
100
AcDbBlockBegin
  2
SEANNOT_GROUP8
 70
     0
 10
0.0
 20
0.0
 30
0.0
  3
SEANNOT_GROUP8
  1

  0
LINE
  5
99
330
97
100
AcDbEntity
  8
Default
  6
CENTER2
 62
     7
100
AcDbLine
 10
166.9947703707
 20
258.5553290939
 30
0.0
 11
126.9947712647
 21
258.5553290939
 31
0.0
  0
LINE
  5
9A
330
97
100
AcDbEntity
  8
Default
  6
CENTER2
 62
     7
100
AcDbLine
 10
146.9947708177
 20
278.5553286469
 30
0.0
 11
146.9947708177
 21
238.5553295409
 31
0.0
  0
LINE
  5
9B
330
97
100
AcDbEntity
  8
Default
  6
CENTER2
 62
     7
100
AcDbLine
 10
171.9947702589
 20
258.5553290939
 30
0.0
 11
166.4418641212
 21
258.5553290939
 31
0.0
  0
LINE
  5
9C
330
97
100
AcDbEntity
  8
Default
  6
CENTER2
 62
     7
100
AcDbLine
 10
146.9947708177
 20
283.5553285351
 30
0.0
 11
146.9947708177
 21
278.0024223974
 31
0.0
  0
LINE
  5
9D
330
97
100
AcDbEntity
  8
Default
  6
CENTER2
 62
     7
100
AcDbLine
 10
121.9947713765
 20
258.5553290939
 30
0.0
 11
127.5476775142
 21
258.5553290939
 31
0.0
  0
LINE
  5
9E
330
97
100
AcDbEntity
  8
Default
  6
CENTER2
 62
     7
100
AcDbLine
 10
146.9947708177
 20
233.5553296527
 30
0.0
 11
146.9947708177
 21
239.1082357904
 31
0.0
  0
ENDBLK
  5
A0
330
97
100
AcDbEntity
  8
0
100
AcDbBlockEnd
  0
BLOCK
  5
17A
330
A1
100
AcDbEntity
  8
0
100
AcDbBlockBegin
  2
SE
 70
     0
 10
0.0
 20
0.0
 30
0.0
  3
SE
  1

  0
ARC
  5
A4
330
A1
100
AcDbEntity
  8
11755031_GEH_THM
  6
Continuous
 62
     7
100
AcDbCircle
 10
52.9947708177
 20
353.2342881848
 30
0.0
 40
13.2
100
AcDbArc
 50
261.2998461433
 51
279.426220793
  0
ARC
  5
A5
330
A1
100
AcDbEntity
  8
11755031_GEH_THM
  6
Continuous
 62
     7
100
AcDbCircle
 10
52.9947708177
 20
353.2342881848
 30
0.0
 40
13.2
100
AcDbArc
 50
256.6175796319
 51
261.2998461433
  0
ARC
  5
A6
330
A1
100
AcDbEntity
  8
11755031_GEH_THM
  6
Continuous
 62
     7
100
AcDbCircle
 10
52.9947708177
 20
353.2342881848
 30
0.0
 40
13.2
100
AcDbArc
 50
279.426220793
 51
283.2235786106
  0
LINE
  5
A7
330
A1
100
AcDbEntity
  8
11755031_GEH_THM
  6
Continuous
 62
     7
100
AcDbLine
 10
55.156633015
 20
340.3842881848
 30
0.0
 11
55.156633015
 21
340.2125236408
 31
0.0
  0
LINE
  5
A8
330
A1
100
AcDbEntity
  8
11755031_GEH_THM
  6
Continuous
 62
     7
100
AcDbLine
 10
49.9396384327
 20
340.7527551816
 30
0.0
 11
49.9396384327
 21
340.3927086048
 31
0.0
  0
LINE
  5
A9
330
A1
100
AcDbEntity
  8
11755031_GEH_THM
  6
Continuous
 62
     7
100
AcDbLine
 10
50.9980929523
 20
340.5403613888
 30
0.0
 11
50.9980929523
 21
340.1861742406
 31
0.0
  0
ARC
  5
AA
330
A1
100
AcDbEntity
  8
11755031_GEH_THM
  6
Continuous
 62
     7
100
AcDbCircle
 10
52.9947708177
 20
353.2342881848
 30
0.0
 40
13.2
100
AcDbArc
 50
252.3602986058
 51
256.6175796319
  0
LINE
  5
AB
330
A1
100
AcDbEntity
  8
11755031_GEH_THM
  6
Continuous
 62
     7
100
AcDbLine
 10
48.9947708177
 20
341.0227158045
 30
0.0
 11
48.9947708177
 21
340.65494003
 31
0.0
  0
ARC
  5
AC
330
A1
100
AcDbEntity
  8
11755031_GEH_THM
  6
Continuous
 62
     7
100
AcDbCircle
 10
139.9947708559
 20
353.2342879858
 30
0.0
 40
13.19999979742875
100
AcDbArc
 50
279.2028302504
 51
284.0919309695
  0
ARC
  5
AD
330
A1
100
AcDbEntity
  8
11755031_GEH_THM
  6
Continuous
 62
     7
100
AcDbCircle
 10
139.9947708176
 20
353.2342881906
 30
0.0
 40
13.20000000576928
100
AcDbArc
 50
262.5217200081
 51
279.2028302722
  0
ARC
  5
AE
330
A1
100
AcDbEntity
  8
11755031_GEH_THM
  6
Continuous
 62
     7
100
AcDbCircle
 10
139.9947708187
 20
353.2342881903
 30
0.0
 40
13.20000000559591
100
AcDbArc
 50
256.718228141
 51
262.5217200032
  0
ARC
  5
AF
330
A1
100
AcDbEntity
  8
11755031_GEH_THM
  6
Continuous
 62
     7
100
AcDbCircle
 10
139.9947708177
 20
353.2342881848
 30
0.0
 40
13.20000000000162
100
AcDbArc
 50
280.1351841547
 51
284.6849722225
  0
ARC
  5
B0
330
A1
100
AcDbEntity
  8
11755031_GEH_THM
  6
Continuous
 62
     7
100
AcDbCircle
 10
139.9947709081
 20
353.2342875568
 30
0.0
 40
13.19999936574961
100
AcDbArc
 50
276.5928839509
 51
277.0594715129
  0
ARC
  5
B1
330
A1
100
AcDbEntity
  8
11755031_GEH_THM
  6
Continuous
 62
     7
100
AcDbCircle
 10
139.9947709081
 20
353.2342875568
 30
0.0
 40
13.19999936574961
100
AcDbArc
 50
279.4935636651
 51
280.1351842483
  0
ARC
  5
B2
330
A1
100
AcDbEntity
  8
11755031_GEH_THM
  6
Continuous
 62
     7
100
AcDbCircle
 10
139.9947707813
 20
353.2342879051
 30
0.0
 40
13.19999971816282
100
AcDbArc
 50
263.0946929642
 51
264.5452278488
  0
LINE
  5
B3
330
A1
100
AcDbEntity
  8
11755031_GEH_THM
  6
Continuous
 62
     7
100
AcDbLine
 10
143.2086859662
 20
340.7926946607
 30
0.0
 11
143.2086859662
 21
340.4315248342
 31
0.0
  0
LINE
  5
B4
330
A1
100
AcDbEntity
  8
11755031_GEH_THM
  6
Continuous
 62
     7
100
AcDbLine
 10
142.1058461536
 20
340.5588844072
 30
0.0
 11
142.1058461536
 21
340.2041937521
 31
0.0
  0
LINE
  5
B5
330
A1
100
AcDbEntity
  8
11755031_GEH_THM
  6
Continuous
 62
     7
100
AcDbLine
 10
143.3410267437
 20
340.8276338704
 30
0.0
 11
143.3410267437
 21
340.4654757389
 31
0.0
  0
ARC
  5
B6
330
A1
100
AcDbEntity
  8
11755031_GEH_THM
  6
Continuous
 62
     7
100
AcDbCircle
 10
139.9947708177
 20
353.2342881847
 30
0.0
 40
13.19999999989995
100
AcDbArc
 50
284.6647218148
 51
287.6397007173
  0
ARC
  5
B7
330
A1
100
AcDbEntity
  8
11755031_GEH_THM
  6
Continuous
 62
     7
100
AcDbCircle
 10
139.9947708177
 20
353.2342881847
 30
0.0
 40
13.19999999989995
100
AcDbArc
 50
269.0201882861
 51
270.1817505488
  0
LINE
  5
B8
330
A1
100
AcDbEntity
  8
11755031_GEH_THM
  6
Continuous
 62
     7
100
AcDbLine
 10
112.5819265605
 20
431.8380934867
 30
0.0
 11
80.407615075
 21
431.8380934867
 31
0.0
  0
LINE
  5
B9
330
A1
100
AcDbEntity
  8
11755031_GEH_THM
  6
Continuous
 62
     7
100
AcDbLine
 10
81.4947708177
 20
432.8342881848
 30
0.0
 11
111.4947708177
 21
432.8342881848
 31
0.0
  0
LINE
  5
BA
330
A1
100
AcDbEntity
  8
11755031_GEH_THM
  6
Continuous
 62
     7
100
AcDbLine
 10
131.0476775142
 20
329.8329177196
 30
0.0
 11
162.9418641212
 21
329.8329177196
 31
0.0
  0
LINE
  5
BB
330
A1
100
AcDbEntity
  8
11755031_GEH_THM
  6
Continuous
 62
     7
100
AcDbLine
 10
161.889528165
 20
328.8342881848
 30
0.0
 11
132.1000134704
 21
328.8342881848
 31
0.0
  0
LINE
  5
BC
330
A1
100
AcDbEntity
  8
11755031_GEH_THM
  6
Continuous
 62
     7
100
AcDbLine
 10
80.407615075
 20
329.8304828829
 30
0.0
 11
112.5819265605
 21
329.8304828829
 31
0.0
  0
LINE
  5
BD
330
A1
100
AcDbEntity
  8
11755031_GEH_THM
  6
Continuous
 62
     7
100
AcDbLine
 10
111.4947708177
 20
328.8342881848
 30
0.0
 11
81.4947708177
 21
328.8342881848
 31
0.0
  0
LINE
  5
BE
330
A1
100
AcDbEntity
  8
11755031_GEH_THM
  6
Continuous
 62
     7
100
AcDbLine
 10
30.0476775142
 20
329.8329177196
 30
0.0
 11
61.9418641212
 21
329.8329177196
 31
0.0
  0
LINE
  5
BF
330
A1
100
AcDbEntity
  8
11755031_GEH_THM
  6
Continuous
 62
     7
100
AcDbLine
 10
60.889528165
 20
328.8342881848
 30
0.0
 11
31.1000134704
 21
328.8342881848
 31
0.0
  0
LINE
  5
C0
330
A1
100
AcDbEntity
  8
11755031_GEH_THM
  6
Continuous
 62
     7
100
AcDbLine
 10
28.2409010851
 20
364.3082657278
 30
0.0
 11
30.0476775142
 21
329.8329177196
 31
0.0
  0
LINE
  5
C1
330
A1
100
AcDbEntity
  8
11755031_GEH_THM
  6
Continuous
 62
     7
100
AcDbLine
 10
61.9418641212
 20
329.8329177196
 30
0.0
 11
62.4948380157
 21
340.3842881848
 31
0.0
  0
LINE
  5
C2
330
A1
100
AcDbEntity
  8
11755031_GEH_THM
  6
Continuous
 62
     7
100
AcDbLine
 10
130.4947036197
 20
340.3842881848
 30
0.0
 11
131.0476775142
 21
329.8329177196
 31
0.0
  0
LINE
  5
C3
330
A1
100
AcDbEntity
  8
11755031_GEH_THM
  6
Continuous
 62
     7
100
AcDbLine
 10
162.9418641212
 20
329.8329177196
 30
0.0
 11
164.7486405503
 21
364.3082657278
 31
0.0
  0
LINE
  5
C4
330
A1
100
AcDbEntity
  8
11755031_GEH_THM
  6
Continuous
 62
     7
100
AcDbLine
 10
113.5752558123
 20
420.4842881848
 30
0.0
 11
112.5819265605
 21
431.8380934867
 31
0.0
  0
LINE
  5
C5
330
A1
100
AcDbEntity
  8
11755031_GEH_THM
  6
Continuous
 62
     7
100
AcDbLine
 10
80.407615075
 20
431.8380934867
 30
0.0
 11
79.4142858232
 21
420.4842881848
 31
0.0
  0
LINE
  5
C6
330
A1
100
AcDbEntity
  8
11755031_GEH_THM
  6
Continuous
 62
     7
100
AcDbLine
 10
79.484276754
 20
340.3842881848
 30
0.0
 11
80.407615075
 21
329.8304828829
 31
0.0
  0
LINE
  5
C7
330
A1
100
AcDbEntity
  8
11755031_GEH_THM
  6
Continuous
 62
     7
100
AcDbLine
 10
112.5819265605
 20
329.8304828829
 30
0.0
 11
113.5052648814
 21
340.3842881848
 31
0.0
  0
LINE
  5
C8
330
A1
100
AcDbEntity
  8
11755031_GEH_THM
  6
Continuous
 62
     7
100
AcDbLine
 10
143.9947708177
 20
340.6509217989
 30
0.0
 11
143.9947708177
 21
341.0227158045
 31
0.0
  0
LINE
  5
C9
330
A1
100
AcDbEntity
  8
11755031_GEH_THM
  6
Continuous
 62
     7
100
AcDbLine
 10
112.5819265605
 20
431.8380934867
 30
0.0
 11
111.4947708177
 21
432.8342881848
 31
0.0
  0
LINE
  5
CA
330
A1
100
AcDbEntity
  8
11755031_GEH_THM
  6
Continuous
 62
     7
100
AcDbLine
 10
81.4947708177
 20
432.8342881848
 30
0.0
 11
80.407615075
 21
431.8380934867
 31
0.0
  0
LINE
  5
CB
330
A1
100
AcDbEntity
  8
11755031_GEH_THM
  6
Continuous
 62
     7
100
AcDbLine
 10
131.0476775142
 20
329.8329177196
 30
0.0
 11
132.1000134704
 21
328.8342881848
 31
0.0
  0
LINE
  5
CC
330
A1
100
AcDbEntity
  8
11755031_GEH_THM
  6
Continuous
 62
     7
100
AcDbLine
 10
161.889528165
 20
328.8342881848
 30
0.0
 11
162.9418641212
 21
329.8329177196
 31
0.0
  0
LINE
  5
CD
330
A1
100
AcDbEntity
  8
11755031_GEH_THM
  6
Continuous
 62
     7
100
AcDbLine
 10
80.407615075
 20
329.8304828829
 30
0.0
 11
81.4947708177
 21
328.8342881848
 31
0.0
  0
LINE
  5
CE
330
A1
100
AcDbEntity
  8
11755031_GEH_THM
  6
Continuous
 62
     7
100
AcDbLine
 10
111.4947708177
 20
328.8342881848
 30
0.0
 11
112.5819265605
 21
329.8304828829
 31
0.0
  0
LINE
  5
CF
330
A1
100
AcDbEntity
  8
11755031_GEH_THM
  6
Continuous
 62
     7
100
AcDbLine
 10
30.0476775142
 20
329.8329177196
 30
0.0
 11
31.1000134704
 21
328.8342881848
 31
0.0
  0
LINE
  5
D0
330
A1
100
AcDbEntity
  8
11755031_GEH_THM
  6
Continuous
 62
     7
100
AcDbLine
 10
60.889528165
 20
328.8342881848
 30
0.0
 11
61.9418641212
 21
329.8329177196
 31
0.0
  0
CIRCLE
  5
D2
330
A1
100
AcDbEntity
  8
4220392_SCHABL_M
  6
Continuous
 62
     7
100
AcDbCircle
 10
96.4947708177
 20
380.8342881848
 30
0.0
 40
30.01267811418298
  0
ARC
  5
D3
330
A1
100
AcDbEntity
  8
4220392_SCHABL_M
  6
Continuous
 62
     7
100
AcDbCircle
 10
139.9947708177
 20
353.2342881848
 30
0.0
 40
9.199999999999998
100
AcDbArc
 50
270.0
 51
322.3868011658
  0
LINE
  5
D4
330
A1
100
AcDbEntity
  8
4220392_SCHABL_M
  6
Continuous
 62
     7
100
AcDbLine
 10
139.9947708177
 20
344.0342881848
 30
0.0
 11
52.9947708177
 21
344.0342881848
 31
0.0
  0
ARC
  5
D5
330
A1
100
AcDbEntity
  8
4220392_SCHABL_M
  6
Continuous
 62
     7
100
AcDbCircle
 10
52.9947708177
 20
353.2342881848
 30
0.0
 40
9.199999999999992
100
AcDbArc
 50
217.6131988342
 51
270.0
  0
LINE
  5
D6
330
A1
100
AcDbEntity
  8
4220392_SCHABL_M
  6
Continuous
 62
     7
100
AcDbLine
 10
45.7069993977
 20
347.6192736942
 30
0.0
 11
29.7557149361
 21
368.3225711134
 31
0.0
  0
ARC
  5
D7
330
A1
100
AcDbEntity
  8
4220392_SCHABL_M
  6
Continuous
 62
     7
100
AcDbCircle
 10
45.9947708177
 20
380.8342881848
 30
0.0
 40
20.5
100
AcDbArc
 50
156.1811586065
 51
217.6131988342
  0
LINE
  5
D8
330
A1
100
AcDbEntity
  8
4220392_SCHABL_M
  6
Continuous
 62
     7
100
AcDbLine
 10
27.2408190645
 20
389.1131343386
 30
0.0
 11
36.8465016698
 21
410.8727497233
 31
0.0
  0
ARC
  5
D9
330
A1
100
AcDbEntity
  8
4220392_SCHABL_M
  6
Continuous
 62
     7
100
AcDbCircle
 10
45.9947708177
 20
406.8342881848
 30
0.0
 40
10.0
100
AcDbArc
 50
90.0
 51
156.1811586065
  0
LINE
  5
DA
330
A1
100
AcDbEntity
  8
4220392_SCHABL_M
  6
Continuous
 62
     7
100
AcDbLine
 10
45.9947708177
 20
416.8342881848
 30
0.0
 11
146.9947708177
 21
416.8342881848
 31
0.0
  0
ARC
  5
DB
330
A1
100
AcDbEntity
  8
4220392_SCHABL_M
  6
Continuous
 62
     7
100
AcDbCircle
 10
146.9947708177
 20
406.8342881848
 30
0.0
 40
10.00000000000001
100
AcDbArc
 50
23.8188413935
 51
90.0
  0
LINE
  5
DC
330
A1
100
AcDbEntity
  8
4220392_SCHABL_M
  6
Continuous
 62
     7
100
AcDbLine
 10
156.1430399656
 20
410.8727497233
 30
0.0
 11
165.7487225709
 21
389.1131343386
 31
0.0
  0
ARC
  5
DD
330
A1
100
AcDbEntity
  8
4220392_SCHABL_M
  6
Continuous
 62
     7
100
AcDbCircle
 10
146.9947708177
 20
380.8342881848
 30
0.0
 40
20.49999999999999
100
AcDbArc
 50
322.3868011658
 51
23.8188413935
  0
LINE
  5
DE
330
A1
100
AcDbEntity
  8
4220392_SCHABL_M
  6
Continuous
 62
     7
100
AcDbLine
 10
163.2338266993
 20
368.3225711134
 30
0.0
 11
147.2825422377
 21
347.6192736942
 31
0.0
  0
ARC
  5
DF
330
A1
100
AcDbEntity
  8
4220392_SCHABL_M
  6
Continuous
 62
     7
100
AcDbCircle
 10
45.9947708177
 20
406.8342881848
 30
0.0
 40
13.64999999999999
100
AcDbArc
 50
90.0
 51
156.1811586065
  0
LINE
  5
E0
330
A1
100
AcDbEntity
  8
4220392_SCHABL_M
  6
Continuous
 62
     7
100
AcDbLine
 10
45.9947708177
 20
420.4842881848
 30
0.0
 11
146.9947708177
 21
420.4842881848
 31
0.0
  0
ARC
  5
E1
330
A1
100
AcDbEntity
  8
4220392_SCHABL_M
  6
Continuous
 62
     7
100
AcDbCircle
 10
146.9947708177
 20
406.8342881848
 30
0.0
 40
13.65
100
AcDbArc
 50
23.8188413935
 51
90.0
  0
LINE
  5
E2
330
A1
100
AcDbEntity
  8
4220392_SCHABL_M
  6
Continuous
 62
     7
100
AcDbLine
 10
159.4821582046
 20
412.3467881848
 30
0.0
 11
169.0878408099
 21
390.5871728002
 31
0.0
  0
ARC
  5
E3
330
A1
100
AcDbEntity
  8
4220392_SCHABL_M
  6
Continuous
 62
     7
100
AcDbCircle
 10
146.9947708177
 20
380.8342881848
 30
0.0
 40
24.15
100
AcDbArc
 50
322.3868011658
 51
23.8188413935
  0
LINE
  5
E4
330
A1
100
AcDbEntity
  8
4220392_SCHABL_M
  6
Continuous
 62
     7
100
AcDbLine
 10
166.1251707953
 20
366.094875147
 30
0.0
 11
150.1738863337
 21
345.3915777278
 31
0.0
  0
ARC
  5
E5
330
A1
100
AcDbEntity
  8
4220392_SCHABL_M
  6
Continuous
 62
     7
100
AcDbCircle
 10
139.9947708177
 20
353.2342881848
 30
0.0
 40
12.84999999999999
100
AcDbArc
 50
270.0
 51
322.3868011658
  0
LINE
  5
E6
330
A1
100
AcDbEntity
  8
4220392_SCHABL_M
  6
Continuous
 62
     7
100
AcDbLine
 10
139.9947708177
 20
340.3842881848
 30
0.0
 11
52.9947708177
 21
340.3842881848
 31
0.0
  0
ARC
  5
E7
330
A1
100
AcDbEntity
  8
4220392_SCHABL_M
  6
Continuous
 62
     7
100
AcDbCircle
 10
52.9947708177
 20
353.2342881848
 30
0.0
 40
12.85
100
AcDbArc
 50
217.6131988342
 51
270.0
  0
LINE
  5
E8
330
A1
100
AcDbEntity
  8
4220392_SCHABL_M
  6
Continuous
 62
     7
100
AcDbLine
 10
42.8156553017
 20
345.3915777278
 30
0.0
 11
26.8643708401
 21
366.094875147
 31
0.0
  0
ARC
  5
E9
330
A1
100
AcDbEntity
  8
4220392_SCHABL_M
  6
Continuous
 62
     7
100
AcDbCircle
 10
45.9947708177
 20
380.8342881848
 30
0.0
 40
24.14999999999998
100
AcDbArc
 50
156.1811586065
 51
217.6131988342
  0
LINE
  5
EA
330
A1
100
AcDbEntity
  8
4220392_SCHABL_M
  6
Continuous
 62
     7
100
AcDbLine
 10
23.9017008255
 20
390.5871728002
 30
0.0
 11
33.5073834308
 21
412.3467881848
 31
0.0
  0
ARC
  5
EB
330
A1
100
AcDbEntity
  8
4220392_SCHABL_M
  6
Continuous
 62
     7
100
AcDbCircle
 10
45.9947708177
 20
406.8342881848
 30
0.0
 40
11.66228460699256
100
AcDbArc
 50
90.0
 51
156.1811586065
  0
LINE
  5
EC
330
A1
100
AcDbEntity
  8
4220392_SCHABL_M
  6
Continuous
 62
     7
100
AcDbLine
 10
45.9947708177
 20
418.4965727918
 30
0.0
 11
146.9947708177
 21
418.4965727918
 31
0.0
  0
ARC
  5
ED
330
A1
100
AcDbEntity
  8
4220392_SCHABL_M
  6
Continuous
 62
     7
100
AcDbCircle
 10
146.9947708177
 20
406.8342881848
 30
0.0
 40
11.66228460699256
100
AcDbArc
 50
23.8188413935
 51
90.0
  0
LINE
  5
EE
330
A1
100
AcDbEntity
  8
4220392_SCHABL_M
  6
Continuous
 62
     7
100
AcDbLine
 10
157.6637426641
 20
411.5440569684
 30
0.0
 11
167.2694252694
 21
389.7844415838
 31
0.0
  0
ARC
  5
EF
330
A1
100
AcDbEntity
  8
4220392_SCHABL_M
  6
Continuous
 62
     7
100
AcDbCircle
 10
146.9947708177
 20
380.8342881848
 30
0.0
 40
22.16228460699254
100
AcDbArc
 50
322.3868011658
 51
23.8188413935
  0
LINE
  5
F0
330
A1
100
AcDbEntity
  8
4220392_SCHABL_M
  6
Continuous
 62
     7
100
AcDbLine
 10
164.5506039005
 20
367.3080328356
 30
0.0
 11
148.5993194389
 21
346.6047354164
 31
0.0
  0
ARC
  5
F1
330
A1
100
AcDbEntity
  8
4220392_SCHABL_M
  6
Continuous
 62
     7
100
AcDbCircle
 10
139.9947708177
 20
353.2342881848
 30
0.0
 40
10.86228460699255
100
AcDbArc
 50
270.0
 51
322.3868011658
  0
LINE
  5
F2
330
A1
100
AcDbEntity
  8
4220392_SCHABL_M
  6
Continuous
 62
     7
100
AcDbLine
 10
139.9947708177
 20
342.3720035778
 30
0.0
 11
52.9947708177
 21
342.3720035778
 31
0.0
  0
ARC
  5
F3
330
A1
100
AcDbEntity
  8
4220392_SCHABL_M
  6
Continuous
 62
     7
100
AcDbCircle
 10
52.9947708177
 20
353.2342881848
 30
0.0
 40
10.86228460699255
100
AcDbArc
 50
217.6131988342
 51
270.0
  0
LINE
  5
F4
330
A1
100
AcDbEntity
  8
4220392_SCHABL_M
  6
Continuous
 62
     7
100
AcDbLine
 10
44.3902221965
 20
346.6047354164
 30
0.0
 11
28.438937735
 21
367.3080328356
 31
0.0
  0
ARC
  5
F5
330
A1
100
AcDbEntity
  8
4220392_SCHABL_M
  6
Continuous
 62
     7
100
AcDbCircle
 10
45.9947708177
 20
380.8342881848
 30
0.0
 40
22.16228460699256
100
AcDbArc
 50
156.1811586065
 51
217.6131988342
  0
LINE
  5
F6
330
A1
100
AcDbEntity
  8
4220392_SCHABL_M
  6
Continuous
 62
     7
100
AcDbLine
 10
25.720116366
 20
389.7844415838
 30
0.0
 11
35.3257989713
 21
411.5440569684
 31
0.0
  0
CIRCLE
  5
F7
330
A1
100
AcDbEntity
  8
4220392_SCHABL_M
  6
Continuous
 62
     7
100
AcDbCircle
 10
79.4947708177
 20
375.8342881848
 30
0.0
 40
2.5
  0
CIRCLE
  5
F8
330
A1
100
AcDbEntity
  8
4220392_SCHABL_M
  6
Continuous
 62
     7
100
AcDbCircle
 10
113.4947708177
 20
375.8342881848
 30
0.0
 40
2.5
  0
ARC
  5
FA
330
A1
100
AcDbEntity
  8
02001389_SCREW__
  6
Continuous
 62
     7
100
AcDbCircle
 10
146.9947708177
 20
380.8342881848
 30
0.0
 40
3.499999999999994
100
AcDbArc
 50
270.0
 51
0.0
  0
ARC
  5
FB
330
A1
100
AcDbEntity
  8
02001389_SCREW__
  6
Continuous
 62
     7
100
AcDbCircle
 10
146.9947708177
 20
380.8342881848
 30
0.0
 40
3.50000000000001
100
AcDbArc
 50
0.0
 51
90.0
  0
LINE
  5
FC
330
A1
100
AcDbEntity
  8
02001389_SCREW__
  6
Continuous
 62
     7
100
AcDbLine
 10
147.3497708177
 20
378.3567881848
 30
0.0
 11
146.6397708177
 21
378.3567881848
 31
0.0
  0
LINE
  5
FD
330
A1
100
AcDbEntity
  8
02001389_SCREW__
  6
Continuous
 62
     7
100
AcDbLine
 10
147.3497708177
 20
379.3292881848
 30
0.0
 11
147.3497708177
 21
378.3567881848
 31
0.0
  0
SPLINE
  5
FE
330
A1
100
AcDbEntity
  8
02001389_SCREW__
  6
Continuous
 62
     7
100
AcDbSpline
210
0.0
220
0.0
230
1.0
 70
     8
 71
     2
 72
    20
 73
    17
 74
     0
 42
0.0000000110575855
 43
0.0000000001
 40
0.0
 40
0.0
 40
0.0
 40
0.0625
 40
0.0625
 40
0.125
 40
0.125
 40
0.25
 40
0.25
 40
0.35
 40
0.35
 40
0.5
 40
0.5
 40
0.663265306122449
 40
0.663265306122449
 40
0.7857142857142859
 40
0.7857142857142859
 40
1.0
 40
1.0
 40
1.0
 10
147.6865980193445
 20
380.1424609831638
 30
0.0
 10
147.6663914584309
 20
380.1222342020567
 30
0.0
 10
147.6473218947493
 20
380.1012476693429
 30
0.0
 10
147.6286190592699
 20
380.0806647302058
 30
0.0
 10
147.6103643534661
 20
380.0584850576443
 30
0.0
 10
147.5748882431932
 20
380.0153811852474
 30
0.0
 10
147.543405020836
 20
379.9683119406137
 30
0.0
 10
147.5187581638238
 20
379.9314634589367
 30
0.0
 10
147.4965150746708
 20
379.8917114691012
 30
0.0
 10
147.4638108755676
 20
379.8332637876042
 30
0.0
 10
147.4373093553211
 20
379.7693741320191
 30
0.0
 10
147.4089046272819
 20
379.7008962381275
 30
0.0
 10
147.3894789279333
 20
379.6295224868035
 30
0.0
 10
147.3751580690968
 20
379.5769049002242
 30
0.0
 10
147.3658538260964
 20
379.5221838238015
 30
0.0
 10
147.3498201146849
 20
379.4278847016211
 30
0.0
 10
147.3497708177091
 20
379.3292881847993
 30
0.0
  0
SPLINE
  5
FF
330
A1
100
AcDbEntity
  8
02001389_SCREW__
  6
Continuous
 62
     7
100
AcDbSpline
210
0.0
220
0.0
230
1.0
 70
     8
 71
     2
 72
    20
 73
    17
 74
     0
 42
0.0000000110575855
 43
0.0000000001
 40
0.0
 40
0.0
 40
0.0
 40
0.0625
 40
0.0625
 40
0.125
 40
0.125
 40
0.25
 40
0.25
 40
0.35
 40
0.35
 40
0.5
 40
0.5
 40
0.663265306122449
 40
0.663265306122449
 40
0.7857142857142859
 40
0.7857142857142859
 40
1.0
 40
1.0
 40
1.0
 10
148.4997708177091
 20
380.4792881847993
 30
0.0
 10
148.4711801273814
 20
380.4792738869634
 30
0.0
 10
148.4428561899915
 20
380.4779183851613
 30
0.0
 10
148.4150769523567
 20
380.4765889511156
 30
0.0
 10
148.3864855292211
 20
380.4738135805052
 30
0.0
 10
148.3309210906097
 20
380.468419938182
 30
0.0
 10
148.2753761085218
 20
380.4573989561385
 30
0.0
 10
148.2318923375231
 20
380.4487711045964
 30
0.0
 10
148.1880551967702
 20
380.4363904421929
 30
0.0
 10
148.1236010838798
 20
380.4181870512209
 30
0.0
 10
148.0596848704892
 20
380.3917496471872
 30
0.0
 10
147.9911785115438
 20
380.3634136398702
 30
0.0
 10
147.9269736042457
 20
380.3266808200493
 30
0.0
 10
147.8796409755698
 20
380.299600944165
 30
0.0
 10
147.8343682380387
 20
380.2674863932723
 30
0.0
 10
147.756351143218
 20
380.2121443905848
 30
0.0
 10
147.6865980193445
 20
380.1424609831638
 30
0.0
  0
LINE
  5
100
330
A1
100
AcDbEntity
  8
02001389_SCREW__
  6
Continuous
 62
     7
100
AcDbLine
 10
149.4722708177
 20
380.4792881848
 30
0.0
 11
148.4997708177
 21
380.4792881848
 31
0.0
  0
LINE
  5
101
330
A1
100
AcDbEntity
  8
02001389_SCREW__
  6
Continuous
 62
     7
100
AcDbLine
 10
149.4722708177
 20
381.1892881848
 30
0.0
 11
149.4722708177
 21
380.4792881848
 31
0.0
  0
LINE
  5
102
330
A1
100
AcDbEntity
  8
02001389_SCREW__
  6
Continuous
 62
     7
100
AcDbLine
 10
148.4997708177
 20
381.1892881848
 30
0.0
 11
149.4722708177
 21
381.1892881848
 31
0.0
  0
SPLINE
  5
103
330
A1
100
AcDbEntity
  8
02001389_SCREW__
  6
Continuous
 62
     7
100
AcDbSpline
210
0.0
220
0.0
230
1.0
 70
     8
 71
     2
 72
    20
 73
    17
 74
     0
 42
0.0000000110575855
 43
0.0000000001
 40
0.0
 40
0.0
 40
0.0
 40
0.0625
 40
0.0625
 40
0.125
 40
0.125
 40
0.25
 40
0.25
 40
0.35
 40
0.35
 40
0.5
 40
0.5
 40
0.663265306122449
 40
0.663265306122449
 40
0.7857142857142859
 40
0.7857142857142859
 40
1.0
 40
1.0
 40
1.0
 10
147.6865980193446
 20
381.5261153864347
 30
0.0
 10
147.7068248004518
 20
381.5059088255208
 30
0.0
 10
147.7278113331654
 20
381.4868392618395
 30
0.0
 10
147.7483942723025
 20
381.4681364263601
 30
0.0
 10
147.770573944864
 20
381.4498817205563
 30
0.0
 10
147.813677817261
 20
381.4144056102832
 30
0.0
 10
147.8607470618947
 20
381.3829223879262
 30
0.0
 10
147.8975955435719
 20
381.3582755309139
 30
0.0
 10
147.9373475334071
 20
381.336032441761
 30
0.0
 10
147.9957952149041
 20
381.3033282426579
 30
0.0
 10
148.0596848704892
 20
381.2768267224113
 30
0.0
 10
148.1281627643804
 20
381.2484219943723
 30
0.0
 10
148.1995365157036
 20
381.2289962950239
 30
0.0
 10
148.2521541022832
 20
381.2146754361874
 30
0.0
 10
148.3068751787055
 20
381.2053711931871
 30
0.0
 10
148.4011743008859
 20
381.1893374817756
 30
0.0
 10
148.4997708177091
 20
381.1892881847992
 30
0.0
  0
SPLINE
  5
104
330
A1
100
AcDbEntity
  8
02001389_SCREW__
  6
Continuous
 62
     7
100
AcDbSpline
210
0.0
220
0.0
230
1.0
 70
     8
 71
     2
 72
    20
 73
    17
 74
     0
 42
0.0000000110575855
 43
0.0000000001
 40
0.0
 40
0.0
 40
0.0
 40
0.0625
 40
0.0625
 40
0.125
 40
0.125
 40
0.25
 40
0.25
 40
0.35
 40
0.35
 40
0.5
 40
0.5
 40
0.663265306122449
 40
0.663265306122449
 40
0.7857142857142859
 40
0.7857142857142859
 40
1.0
 40
1.0
 40
1.0
 10
147.3497708177091
 20
382.3392881847992
 30
0.0
 10
147.3497851155449
 20
382.3106974944712
 30
0.0
 10
147.351140617347
 20
382.2823735570818
 30
0.0
 10
147.3524700513927
 20
382.2545943194474
 30
0.0
 10
147.3552454220031
 20
382.2260028963114
 30
0.0
 10
147.3606390643262
 20
382.1704384577005
 30
0.0
 10
147.3716600463698
 20
382.1148934756122
 30
0.0
 10
147.3802878979118
 20
382.0714097046138
 30
0.0
 10
147.3926685603155
 20
382.0275725638605
 30
0.0
 10
147.4108719512872
 20
381.9631184509709
 30
0.0
 10
147.4373093553211
 20
381.8992022375794
 30
0.0
 10
147.4656453626377
 20
381.8306958786347
 30
0.0
 10
147.5023781824588
 20
381.7664909713361
 30
0.0
 10
147.5294580583428
 20
381.7191583426607
 30
0.0
 10
147.5615726092358
 20
381.673885605129
 30
0.0
 10
147.6169146119231
 20
381.5958685103085
 30
0.0
 10
147.6865980193446
 20
381.5261153864347
 30
0.0
  0
LINE
  5
105
330
A1
100
AcDbEntity
  8
02001389_SCREW__
  6
Continuous
 62
     7
100
AcDbLine
 10
147.3497708177
 20
383.3117881848
 30
0.0
 11
147.3497708177
 21
382.3392881848
 31
0.0
  0
LINE
  5
106
330
A1
100
AcDbEntity
  8
02001389_SCREW__
  6
Continuous
 62
     7
100
AcDbLine
 10
146.6397708177
 20
383.3117881848
 30
0.0
 11
147.3497708177
 21
383.3117881848
 31
0.0
  0
LINE
  5
107
330
A1
100
AcDbEntity
  8
02001389_SCREW__
  6
Continuous
 62
     7
100
AcDbLine
 10
146.6397708177
 20
382.3392881848
 30
0.0
 11
146.6397708177
 21
383.3117881848
 31
0.0
  0
SPLINE
  5
108
330
A1
100
AcDbEntity
  8
02001389_SCREW__
  6
Continuous
 62
     7
100
AcDbSpline
210
0.0
220
0.0
230
1.0
 70
     8
 71
     2
 72
    20
 73
    17
 74
     0
 42
0.0000000110575855
 43
0.0000000001
 40
0.0
 40
0.0
 40
0.0
 40
0.0625
 40
0.0625
 40
0.125
 40
0.125
 40
0.25
 40
0.25
 40
0.35
 40
0.35
 40
0.5
 40
0.5
 40
0.663265306122449
 40
0.663265306122449
 40
0.7857142857142859
 40
0.7857142857142859
 40
1.0
 40
1.0
 40
1.0
 10
146.3029436160736
 20
381.5261153864347
 30
0.0
 10
146.3231501769873
 20
381.5463421675418
 30
0.0
 10
146.3422197406689
 20
381.5673287002556
 30
0.0
 10
146.3609225761478
 20
381.5879116393922
 30
0.0
 10
146.3791772819521
 20
381.6100913119542
 30
0.0
 10
146.4146533922248
 20
381.6531951843508
 30
0.0
 10
146.4461366145821
 20
381.7002644289848
 30
0.0
 10
146.4707834715943
 20
381.7371129106618
 30
0.0
 10
146.4930265607473
 20
381.7768649004973
 30
0.0
 10
146.5257307598505
 20
381.8353125819943
 30
0.0
 10
146.5522322800971
 20
381.8992022375794
 30
0.0
 10
146.5806370081361
 20
381.9676801314706
 30
0.0
 10
146.6000627074844
 20
382.0390538827938
 30
0.0
 10
146.6143835663209
 20
382.0916714693734
 30
0.0
 10
146.6236878093212
 20
382.1463925457956
 30
0.0
 10
146.6397215207327
 20
382.2406916679762
 30
0.0
 10
146.6397708177091
 20
382.3392881847992
 30
0.0
  0
SPLINE
  5
109
330
A1
100
AcDbEntity
  8
02001389_SCREW__
  6
Continuous
 62
     7
100
AcDbSpline
210
0.0
220
0.0
230
1.0
 70
     8
 71
     2
 72
    20
 73
    17
 74
     0
 42
0.0000000110575855
 43
0.0000000001
 40
0.0
 40
0.0
 40
0.0
 40
0.0625
 40
0.0625
 40
0.125
 40
0.125
 40
0.25
 40
0.25
 40
0.35
 40
0.35
 40
0.5
 40
0.5
 40
0.663265306122449
 40
0.663265306122449
 40
0.7857142857142859
 40
0.7857142857142859
 40
1.0
 40
1.0
 40
1.0
 10
145.4897708177091
 20
381.1892881847992
 30
0.0
 10
145.5183615080371
 20
381.1893024826351
 30
0.0
 10
145.5466854454265
 20
381.1906579844372
 30
0.0
 10
145.5744646830616
 20
381.191987418483
 30
0.0
 10
145.6030561061969
 20
381.1947627890933
 30
0.0
 10
145.6586205448087
 20
381.2001564314165
 30
0.0
 10
145.7141655268961
 20
381.21117741346
 30
0.0
 10
145.7576492978952
 20
381.2198052650022
 30
0.0
 10
145.8014864386477
 20
381.2321859274057
 30
0.0
 10
145.8659405515381
 20
381.2503893183776
 30
0.0
 10
145.9298567649289
 20
381.2768267224113
 30
0.0
 10
145.9983631238742
 20
381.3051627297282
 30
0.0
 10
146.0625680311722
 20
381.341895549549
 30
0.0
 10
146.1099006598483
 20
381.3689754254335
 30
0.0
 10
146.1551733973793
 20
381.401089976326
 30
0.0
 10
146.2331904922002
 20
381.4564319790136
 30
0.0
 10
146.3029436160736
 20
381.5261153864347
 30
0.0
  0
LINE
  5
10A
330
A1
100
AcDbEntity
  8
02001389_SCREW__
  6
Continuous
 62
     7
100
AcDbLine
 10
144.5172708177
 20
381.1892881848
 30
0.0
 11
145.4897708177
 21
381.1892881848
 31
0.0
  0
LINE
  5
10B
330
A1
100
AcDbEntity
  8
02001389_SCREW__
  6
Continuous
 62
     7
100
AcDbLine
 10
144.5172708177
 20
380.4792881848
 30
0.0
 11
144.5172708177
 21
381.1892881848
 31
0.0
  0
LINE
  5
10C
330
A1
100
AcDbEntity
  8
02001389_SCREW__
  6
Continuous
 62
     7
100
AcDbLine
 10
145.4897708177
 20
380.4792881848
 30
0.0
 11
144.5172708177
 21
380.4792881848
 31
0.0
  0
SPLINE
  5
10D
330
A1
100
AcDbEntity
  8
02001389_SCREW__
  6
Continuous
 62
     7
100
AcDbSpline
210
0.0
220
0.0
230
1.0
 70
     8
 71
     2
 72
    20
 73
    17
 74
     0
 42
0.0000000110575855
 43
0.0000000001
 40
0.0
 40
0.0
 40
0.0
 40
0.0625
 40
0.0625
 40
0.125
 40
0.125
 40
0.25
 40
0.25
 40
0.35
 40
0.35
 40
0.5
 40
0.5
 40
0.663265306122449
 40
0.663265306122449
 40
0.7857142857142859
 40
0.7857142857142859
 40
1.0
 40
1.0
 40
1.0
 10
146.3029436160736
 20
380.1424609831638
 30
0.0
 10
146.2827168349665
 20
380.1626675440776
 30
0.0
 10
146.2617303022527
 20
380.181737107759
 30
0.0
 10
146.2411473631157
 20
380.2004399432383
 30
0.0
 10
146.2189676905541
 20
380.2186946490422
 30
0.0
 10
146.1758638181573
 20
380.2541707593152
 30
0.0
 10
146.1287945735235
 20
380.2856539816723
 30
0.0
 10
146.0919460918464
 20
380.3103008386846
 30
0.0
 10
146.052194102011
 20
380.3325439278375
 30
0.0
 10
145.9937464205141
 20
380.3652481269406
 30
0.0
 10
145.9298567649289
 20
380.3917496471872
 30
0.0
 10
145.8613788710374
 20
380.4201543752264
 30
0.0
 10
145.7900051197134
 20
380.4395800745751
 30
0.0
 10
145.737387533134
 20
380.4539009334116
 30
0.0
 10
145.6826664567114
 20
380.4632051764119
 30
0.0
 10
145.5883673345308
 20
380.4792388878234
 30
0.0
 10
145.4897708177091
 20
380.4792881847993
 30
0.0
  0
SPLINE
  5
10E
330
A1
100
AcDbEntity
  8
02001389_SCREW__
  6
Continuous
 62
     7
100
AcDbSpline
210
0.0
220
0.0
230
1.0
 70
     8
 71
     2
 72
    20
 73
    17
 74
     0
 42
0.0000000110575855
 43
0.0000000001
 40
0.0
 40
0.0
 40
0.0
 40
0.0625
 40
0.0625
 40
0.125
 40
0.125
 40
0.25
 40
0.25
 40
0.35
 40
0.35
 40
0.5
 40
0.5
 40
0.663265306122449
 40
0.663265306122449
 40
0.7857142857142859
 40
0.7857142857142859
 40
1.0
 40
1.0
 40
1.0
 10
146.6397708177091
 20
379.3292881847993
 30
0.0
 10
146.6397565198732
 20
379.3578788751275
 30
0.0
 10
146.6384010180711
 20
379.3862028125168
 30
0.0
 10
146.6370715840254
 20
379.4139820501519
 30
0.0
 10
146.634296213415
 20
379.4425734732873
 30
0.0
 10
146.6289025710919
 20
379.4981379118987
 30
0.0
 10
146.6178815890483
 20
379.5536828939865
 30
0.0
 10
146.6092537375062
 20
379.5971666649854
 30
0.0
 10
146.5968730751026
 20
379.6410038057382
 30
0.0
 10
146.5786696841307
 20
379.7054579186284
 30
0.0
 10
146.5522322800971
 20
379.7693741320191
 30
0.0
 10
146.52389627278
 20
379.8378804909644
 30
0.0
 10
146.4871634529592
 20
379.9020853982626
 30
0.0
 10
146.4600835770748
 20
379.9494180269385
 30
0.0
 10
146.4279690261821
 20
379.9946907644696
 30
0.0
 10
146.3726270234947
 20
380.0727078592903
 30
0.0
 10
146.3029436160736
 20
380.1424609831638
 30
0.0
  0
LINE
  5
10F
330
A1
100
AcDbEntity
  8
02001389_SCREW__
  6
Continuous
 62
     7
100
AcDbLine
 10
146.6397708177
 20
378.3567881848
 30
0.0
 11
146.6397708177
 21
379.3292881848
 31
0.0
  0
ARC
  5
110
330
A1
100
AcDbEntity
  8
02001389_SCREW__
  6
Continuous
 62
     7
100
AcDbCircle
 10
146.9947708177
 20
380.8342881848
 30
0.0
 40
3.499999999999989
100
AcDbArc
 50
180.0
 51
270.0
  0
ARC
  5
111
330
A1
100
AcDbEntity
  8
02001389_SCREW__
  6
Continuous
 62
     7
100
AcDbCircle
 10
146.9947708177
 20
380.8342881848
 30
0.0
 40
3.500000000000006
100
AcDbArc
 50
90.0
 51
180.0
  0
LINE
  5
112
330
A1
100
AcDbEntity
  8
02001389_SCREW__
  6
Continuous
 62
     7
100
AcDbLine
 10
146.7511149689
 20
379.4460225621
 30
0.0
 11
146.6397708177
 21
379.9867825007
 31
0.0
  0
LINE
  5
113
330
A1
100
AcDbEntity
  8
02001389_SCREW__
  6
Continuous
 62
     7
100
AcDbLine
 10
147.2384266665
 20
379.4460225621
 30
0.0
 11
146.7511149689
 21
379.4460225621
 31
0.0
  0
LINE
  5
114
330
A1
100
AcDbEntity
  8
02001389_SCREW__
  6
Continuous
 62
     7
100
AcDbLine
 10
147.3497708177
 20
379.9867825007
 30
0.0
 11
147.2384266665
 21
379.4460225621
 31
0.0
  0
LINE
  5
115
330
A1
100
AcDbEntity
  8
02001389_SCREW__
  6
Continuous
 62
     7
100
AcDbLine
 10
147.3497708177
 20
379.3292881848
 30
0.0
 11
147.3497708177
 21
379.9867825007
 31
0.0
  0
LINE
  5
116
330
A1
100
AcDbEntity
  8
02001389_SCREW__
  6
Continuous
 62
     7
100
AcDbLine
 10
147.141211946
 20
379.55675871
 30
0.0
 11
147.2384266665
 21
379.4460225621
 31
0.0
  0
SPLINE
  5
117
330
A1
100
AcDbEntity
  8
02001389_SCREW__
  6
Continuous
 62
     7
100
AcDbSpline
210
0.0
220
0.0
230
1.0
 70
     8
 71
     3
 72
     8
 73
     4
 74
     0
 42
0.0000000115361657
 43
0.0000000001
 40
0.0
 40
0.0
 40
0.0
 40
0.0
 40
1.0
 40
1.0
 40
1.0
 40
1.0
 10
147.5257520684786
 20
380.3033069340297
 30
0.0
 10
147.3246165948777
 20
380.1021714604287
 30
0.0
 10
147.1881847500154
 20
379.837301956481
 30
0.0
 10
147.1412119460053
 20
379.5567587099666
 30
0.0
  0
SPLINE
  5
118
330
A1
100
AcDbEntity
  8
02001389_SCREW__
  6
Continuous
 62
     7
100
AcDbSpline
210
0.0
220
0.0
230
1.0
 70
     8
 71
     3
 72
     8
 73
     4
 74
     0
 42
0.0000000115361657
 43
0.0000000001
 40
0.0
 40
0.0
 40
0.0
 40
0.0
 40
1.0
 40
1.0
 40
1.0
 40
1.0
 10
148.2723002925417
 20
380.687847056503
 30
0.0
 10
147.9917570460273
 20
380.6408742524929
 30
0.0
 10
147.7268875420795
 20
380.5044424076307
 30
0.0
 10
147.5257520684786
 20
380.3033069340297
 30
0.0
  0
LINE
  5
119
330
A1
100
AcDbEntity
  8
02001389_SCREW__
  6
Continuous
 62
     7
100
AcDbLine
 10
148.3830364404
 20
380.590632336
 30
0.0
 11
148.2723002925
 21
380.6878470565
 31
0.0
  0
LINE
  5
11A
330
A1
100
AcDbEntity
  8
02001389_SCREW__
  6
Continuous
 62
     7
100
AcDbLine
 10
147.8422765018
 20
380.4792881848
 30
0.0
 11
148.3830364404
 21
380.590632336
 31
0.0
  0
LINE
  5
11B
330
A1
100
AcDbEntity
  8
02001389_SCREW__
  6
Continuous
 62
     7
100
AcDbLine
 10
148.4997708177
 20
380.4792881848
 30
0.0
 11
147.8422765018
 21
380.4792881848
 31
0.0
  0
LINE
  5
11C
330
A1
100
AcDbEntity
  8
02001389_SCREW__
  6
Continuous
 62
     7
100
AcDbLine
 10
148.3830364404
 20
381.0779440336
 30
0.0
 11
148.3830364404
 21
380.590632336
 31
0.0
  0
LINE
  5
11D
330
A1
100
AcDbEntity
  8
02001389_SCREW__
  6
Continuous
 62
     7
100
AcDbLine
 10
147.8422765018
 20
381.1892881848
 30
0.0
 11
148.3830364404
 21
381.0779440336
 31
0.0
  0
LINE
  5
11E
330
A1
100
AcDbEntity
  8
02001389_SCREW__
  6
Continuous
 62
     7
100
AcDbLine
 10
148.4997708177
 20
381.1892881848
 30
0.0
 11
147.8422765018
 21
381.1892881848
 31
0.0
  0
LINE
  5
11F
330
A1
100
AcDbEntity
  8
02001389_SCREW__
  6
Continuous
 62
     7
100
AcDbLine
 10
148.2723002925
 20
380.9807293131
 30
0.0
 11
148.3830364404
 21
381.0779440336
 31
0.0
  0
SPLINE
  5
120
330
A1
100
AcDbEntity
  8
02001389_SCREW__
  6
Continuous
 62
     7
100
AcDbSpline
210
0.0
220
0.0
230
1.0
 70
     8
 71
     3
 72
     8
 73
     4
 74
     0
 42
0.0000000115361657
 43
0.0000000001
 40
0.0
 40
0.0
 40
0.0
 40
0.0
 40
1.0
 40
1.0
 40
1.0
 40
1.0
 10
147.5257520684786
 20
381.3652694355687
 30
0.0
 10
147.7268875420796
 20
381.1641339619679
 30
0.0
 10
147.9917570460274
 20
381.0277021171056
 30
0.0
 10
148.2723002925417
 20
380.9807293130955
 30
0.0
  0
SPLINE
  5
121
330
A1
100
AcDbEntity
  8
02001389_SCREW__
  6
Continuous
 62
     7
100
AcDbSpline
210
0.0
220
0.0
230
1.0
 70
     8
 71
     3
 72
     8
 73
     4
 74
     0
 42
0.0000000115361657
 43
0.0000000001
 40
0.0
 40
0.0
 40
0.0
 40
0.0
 40
1.0
 40
1.0
 40
1.0
 40
1.0
 10
147.1412119460053
 20
382.1118176596319
 30
0.0
 10
147.1881847500154
 20
381.8312744131175
 30
0.0
 10
147.3246165948777
 20
381.5664049091697
 30
0.0
 10
147.5257520684786
 20
381.3652694355687
 30
0.0
  0
LINE
  5
122
330
A1
100
AcDbEntity
  8
02001389_SCREW__
  6
Continuous
 62
     7
100
AcDbLine
 10
147.2384266665
 20
382.2225538075
 30
0.0
 11
147.141211946
 21
382.1118176596
 31
0.0
  0
LINE
  5
123
330
A1
100
AcDbEntity
  8
02001389_SCREW__
  6
Continuous
 62
     7
100
AcDbLine
 10
147.3497708177
 20
381.6817938689
 30
0.0
 11
147.2384266665
 21
382.2225538075
 31
0.0
  0
LINE
  5
124
330
A1
100
AcDbEntity
  8
02001389_SCREW__
  6
Continuous
 62
     7
100
AcDbLine
 10
147.3497708177
 20
382.3392881848
 30
0.0
 11
147.3497708177
 21
381.6817938689
 31
0.0
  0
LINE
  5
125
330
A1
100
AcDbEntity
  8
02001389_SCREW__
  6
Continuous
 62
     7
100
AcDbLine
 10
146.7511149689
 20
382.2225538075
 30
0.0
 11
147.2384266665
 21
382.2225538075
 31
0.0
  0
LINE
  5
126
330
A1
100
AcDbEntity
  8
02001389_SCREW__
  6
Continuous
 62
     7
100
AcDbLine
 10
146.6397708177
 20
381.6817938689
 30
0.0
 11
146.7511149689
 21
382.2225538075
 31
0.0
  0
LINE
  5
127
330
A1
100
AcDbEntity
  8
02001389_SCREW__
  6
Continuous
 62
     7
100
AcDbLine
 10
146.6397708177
 20
382.3392881848
 30
0.0
 11
146.6397708177
 21
381.6817938689
 31
0.0
  0
LINE
  5
128
330
A1
100
AcDbEntity
  8
02001389_SCREW__
  6
Continuous
 62
     7
100
AcDbLine
 10
146.8483296894
 20
382.1118176596
 30
0.0
 11
146.7511149689
 21
382.2225538075
 31
0.0
  0
SPLINE
  5
129
330
A1
100
AcDbEntity
  8
02001389_SCREW__
  6
Continuous
 62
     7
100
AcDbSpline
210
0.0
220
0.0
230
1.0
 70
     8
 71
     3
 72
     8
 73
     4
 74
     0
 42
0.0000000115361657
 43
0.0000000001
 40
0.0
 40
0.0
 40
0.0
 40
0.0
 40
1.0
 40
1.0
 40
1.0
 40
1.0
 10
146.4637895669395
 20
381.3652694355688
 30
0.0
 10
146.6649250405405
 20
381.5664049091698
 30
0.0
 10
146.8013568854027
 20
381.8312744131175
 30
0.0
 10
146.8483296894128
 20
382.1118176596319
 30
0.0
  0
SPLINE
  5
12A
330
A1
100
AcDbEntity
  8
02001389_SCREW__
  6
Continuous
 62
     7
100
AcDbSpline
210
0.0
220
0.0
230
1.0
 70
     8
 71
     3
 72
     8
 73
     4
 74
     0
 42
0.0000000115361657
 43
0.0000000001
 40
0.0
 40
0.0
 40
0.0
 40
0.0
 40
1.0
 40
1.0
 40
1.0
 40
1.0
 10
145.7172413428765
 20
380.9807293130955
 30
0.0
 10
145.9977845893908
 20
381.0277021171056
 30
0.0
 10
146.2626540933386
 20
381.1641339619679
 30
0.0
 10
146.4637895669395
 20
381.3652694355688
 30
0.0
  0
LINE
  5
12B
330
A1
100
AcDbEntity
  8
02001389_SCREW__
  6
Continuous
 62
     7
100
AcDbLine
 10
145.606505195
 20
381.0779440336
 30
0.0
 11
145.7172413429
 21
380.9807293131
 31
0.0
  0
LINE
  5
12C
330
A1
100
AcDbEntity
  8
02001389_SCREW__
  6
Continuous
 62
     7
100
AcDbLine
 10
146.1472651337
 20
381.1892881848
 30
0.0
 11
145.606505195
 21
381.0779440336
 31
0.0
  0
LINE
  5
12D
330
A1
100
AcDbEntity
  8
02001389_SCREW__
  6
Continuous
 62
     7
100
AcDbLine
 10
145.4897708177
 20
381.1892881848
 30
0.0
 11
146.1472651337
 21
381.1892881848
 31
0.0
  0
LINE
  5
12E
330
A1
100
AcDbEntity
  8
02001389_SCREW__
  6
Continuous
 62
     7
100
AcDbLine
 10
145.606505195
 20
380.590632336
 30
0.0
 11
145.606505195
 21
381.0779440336
 31
0.0
  0
LINE
  5
12F
330
A1
100
AcDbEntity
  8
02001389_SCREW__
  6
Continuous
 62
     7
100
AcDbLine
 10
146.1472651337
 20
380.4792881848
 30
0.0
 11
145.606505195
 21
380.590632336
 31
0.0
  0
LINE
  5
130
330
A1
100
AcDbEntity
  8
02001389_SCREW__
  6
Continuous
 62
     7
100
AcDbLine
 10
145.4897708177
 20
380.4792881848
 30
0.0
 11
146.1472651337
 21
380.4792881848
 31
0.0
  0
LINE
  5
131
330
A1
100
AcDbEntity
  8
02001389_SCREW__
  6
Continuous
 62
     7
100
AcDbLine
 10
145.7172413429
 20
380.6878470565
 30
0.0
 11
145.606505195
 21
380.590632336
 31
0.0
  0
SPLINE
  5
132
330
A1
100
AcDbEntity
  8
02001389_SCREW__
  6
Continuous
 62
     7
100
AcDbSpline
210
0.0
220
0.0
230
1.0
 70
     8
 71
     3
 72
     8
 73
     4
 74
     0
 42
0.0000000115361657
 43
0.0000000001
 40
0.0
 40
0.0
 40
0.0
 40
0.0
 40
1.0
 40
1.0
 40
1.0
 40
1.0
 10
146.4637895669395
 20
380.3033069340297
 30
0.0
 10
146.2626540933386
 20
380.5044424076307
 30
0.0
 10
145.9977845893908
 20
380.6408742524929
 30
0.0
 10
145.7172413428765
 20
380.687847056503
 30
0.0
  0
SPLINE
  5
133
330
A1
100
AcDbEntity
  8
02001389_SCREW__
  6
Continuous
 62
     7
100
AcDbSpline
210
0.0
220
0.0
230
1.0
 70
     8
 71
     3
 72
     8
 73
     4
 74
     0
 42
0.0000000115361657
 43
0.0000000001
 40
0.0
 40
0.0
 40
0.0
 40
0.0
 40
1.0
 40
1.0
 40
1.0
 40
1.0
 10
146.8483296894128
 20
379.5567587099666
 30
0.0
 10
146.8013568854027
 20
379.837301956481
 30
0.0
 10
146.6649250405405
 20
380.1021714604287
 30
0.0
 10
146.4637895669395
 20
380.3033069340297
 30
0.0
  0
LINE
  5
134
330
A1
100
AcDbEntity
  8
02001389_SCREW__
  6
Continuous
 62
     7
100
AcDbLine
 10
146.7511149689
 20
379.4460225621
 30
0.0
 11
146.8483296894
 21
379.55675871
 31
0.0
  0
LINE
  5
135
330
A1
100
AcDbEntity
  8
02001389_SCREW__
  6
Continuous
 62
     7
100
AcDbLine
 10
146.6397708177
 20
379.3292881848
 30
0.0
 11
146.6397708177
 21
379.9867825007
 31
0.0
  0
LINE
  5
136
330
A1
100
AcDbEntity
  8
02001389_SCREW__
  6
Continuous
 62
     7
100
AcDbLine
 10
147.141211946
 20
379.55675871
 30
0.0
 11
146.8483296894
 21
379.55675871
 31
0.0
  0
LINE
  5
137
330
A1
100
AcDbEntity
  8
02001389_SCREW__
  6
Continuous
 62
     7
100
AcDbLine
 10
148.2723002925
 20
380.6878470565
 30
0.0
 11
148.2723002925
 21
380.9807293131
 31
0.0
  0
LINE
  5
138
330
A1
100
AcDbEntity
  8
02001389_SCREW__
  6
Continuous
 62
     7
100
AcDbLine
 10
145.7172413429
 20
380.9807293131
 30
0.0
 11
145.7172413429
 21
380.6878470565
 31
0.0
  0
LINE
  5
139
330
A1
100
AcDbEntity
  8
02001389_SCREW__
  6
Continuous
 62
     7
100
AcDbLine
 10
147.141211946
 20
382.1118176596
 30
0.0
 11
146.8483296894
 21
382.1118176596
 31
0.0
  0
ARC
  5
13A
330
A1
100
AcDbEntity
  8
02001389_SCREW__
  6
Continuous
 62
     7
100
AcDbCircle
 10
45.9947708177
 20
380.8342881848
 30
0.0
 40
3.499999999999994
100
AcDbArc
 50
270.0
 51
0.0
  0
ARC
  5
13B
330
A1
100
AcDbEntity
  8
02001389_SCREW__
  6
Continuous
 62
     7
100
AcDbCircle
 10
45.9947708177
 20
380.8342881848
 30
0.0
 40
3.50000000000001
100
AcDbArc
 50
0.0
 51
90.0
  0
LINE
  5
13C
330
A1
100
AcDbEntity
  8
02001389_SCREW__
  6
Continuous
 62
     7
100
AcDbLine
 10
46.3497708177
 20
378.3567881848
 30
0.0
 11
45.6397708177
 21
378.3567881848
 31
0.0
  0
LINE
  5
13D
330
A1
100
AcDbEntity
  8
02001389_SCREW__
  6
Continuous
 62
     7
100
AcDbLine
 10
46.3497708177
 20
379.3292881848
 30
0.0
 11
46.3497708177
 21
378.3567881848
 31
0.0
  0
SPLINE
  5
13E
330
A1
100
AcDbEntity
  8
02001389_SCREW__
  6
Continuous
 62
     7
100
AcDbSpline
210
0.0
220
0.0
230
1.0
 70
     8
 71
     2
 72
    20
 73
    17
 74
     0
 42
0.0000000110575855
 43
0.0000000001
 40
0.0
 40
0.0
 40
0.0
 40
0.0625
 40
0.0625
 40
0.125
 40
0.125
 40
0.25
 40
0.25
 40
0.35
 40
0.35
 40
0.5
 40
0.5
 40
0.663265306122449
 40
0.663265306122449
 40
0.7857142857142859
 40
0.7857142857142859
 40
1.0
 40
1.0
 40
1.0
 10
46.68659801934458
 20
380.1424609831638
 30
0.0
 10
46.66639145843089
 20
380.1222342020567
 30
0.0
 10
46.6473218947493
 20
380.1012476693429
 30
0.0
 10
46.62861905926992
 20
380.0806647302058
 30
0.0
 10
46.61036435346611
 20
380.0584850576443
 30
0.0
 10
46.57488824319318
 20
380.0153811852474
 30
0.0
 10
46.54340502083605
 20
379.9683119406137
 30
0.0
 10
46.51875816382387
 20
379.9314634589367
 30
0.0
 10
46.49651507467085
 20
379.8917114691012
 30
0.0
 10
46.46381087556769
 20
379.8332637876041
 30
0.0
 10
46.43730935532113
 20
379.7693741320191
 30
0.0
 10
46.40890462728191
 20
379.7008962381275
 30
0.0
 10
46.38947892793329
 20
379.6295224868035
 30
0.0
 10
46.37515806909681
 20
379.5769049002242
 30
0.0
 10
46.36585382609646
 20
379.5221838238015
 30
0.0
 10
46.34982011468497
 20
379.427884701621
 30
0.0
 10
46.34977081770911
 20
379.3292881847992
 30
0.0
  0
SPLINE
  5
13F
330
A1
100
AcDbEntity
  8
02001389_SCREW__
  6
Continuous
 62
     7
100
AcDbSpline
210
0.0
220
0.0
230
1.0
 70
     8
 71
     2
 72
    20
 73
    17
 74
     0
 42
0.0000000110575855
 43
0.0000000001
 40
0.0
 40
0.0
 40
0.0
 40
0.0625
 40
0.0625
 40
0.125
 40
0.125
 40
0.25
 40
0.25
 40
0.35
 40
0.35
 40
0.5
 40
0.5
 40
0.663265306122449
 40
0.663265306122449
 40
0.7857142857142859
 40
0.7857142857142859
 40
1.0
 40
1.0
 40
1.0
 10
47.49977081770911
 20
380.4792881847993
 30
0.0
 10
47.47118012738149
 20
380.4792738869634
 30
0.0
 10
47.44285618999152
 20
380.4779183851613
 30
0.0
 10
47.41507695235668
 20
380.4765889511156
 30
0.0
 10
47.3864855292211
 20
380.4738135805052
 30
0.0
 10
47.33092109060971
 20
380.468419938182
 30
0.0
 10
47.2753761085218
 20
380.4573989561385
 30
0.0
 10
47.23189233752311
 20
380.4487711045964
 30
0.0
 10
47.1880551967702
 20
380.4363904421929
 30
0.0
 10
47.12360108387988
 20
380.4181870512209
 30
0.0
 10
47.05968487048926
 20
380.3917496471872
 30
0.0
 10
46.99117851154388
 20
380.3634136398701
 30
0.0
 10
46.92697360424579
 20
380.3266808200493
 30
0.0
 10
46.87964097556988
 20
380.299600944165
 30
0.0
 10
46.83436823803871
 20
380.2674863932723
 30
0.0
 10
46.75635114321798
 20
380.2121443905848
 30
0.0
 10
46.68659801934458
 20
380.1424609831638
 30
0.0
  0
LINE
  5
140
330
A1
100
AcDbEntity
  8
02001389_SCREW__
  6
Continuous
 62
     7
100
AcDbLine
 10
48.4722708177
 20
380.4792881848
 30
0.0
 11
47.4997708177
 21
380.4792881848
 31
0.0
  0
LINE
  5
141
330
A1
100
AcDbEntity
  8
02001389_SCREW__
  6
Continuous
 62
     7
100
AcDbLine
 10
48.4722708177
 20
381.1892881848
 30
0.0
 11
48.4722708177
 21
380.4792881848
 31
0.0
  0
LINE
  5
142
330
A1
100
AcDbEntity
  8
02001389_SCREW__
  6
Continuous
 62
     7
100
AcDbLine
 10
47.4997708177
 20
381.1892881848
 30
0.0
 11
48.4722708177
 21
381.1892881848
 31
0.0
  0
SPLINE
  5
143
330
A1
100
AcDbEntity
  8
02001389_SCREW__
  6
Continuous
 62
     7
100
AcDbSpline
210
0.0
220
0.0
230
1.0
 70
     8
 71
     2
 72
    20
 73
    17
 74
     0
 42
0.0000000110575855
 43
0.0000000001
 40
0.0
 40
0.0
 40
0.0
 40
0.0625
 40
0.0625
 40
0.125
 40
0.125
 40
0.25
 40
0.25
 40
0.35
 40
0.35
 40
0.5
 40
0.5
 40
0.663265306122449
 40
0.663265306122449
 40
0.7857142857142859
 40
0.7857142857142859
 40
1.0
 40
1.0
 40
1.0
 10
46.68659801934459
 20
381.5261153864347
 30
0.0
 10
46.70682480045181
 20
381.5059088255208
 30
0.0
 10
46.72781133316544
 20
381.4868392618394
 30
0.0
 10
46.74839427230254
 20
381.4681364263601
 30
0.0
 10
46.77057394486408
 20
381.4498817205563
 30
0.0
 10
46.81367781726107
 20
381.4144056102832
 30
0.0
 10
46.8607470618947
 20
381.3829223879262
 30
0.0
 10
46.89759554357194
 20
381.3582755309139
 30
0.0
 10
46.93734753340718
 20
381.336032441761
 30
0.0
 10
46.99579521490409
 20
381.3033282426579
 30
0.0
 10
47.05968487048926
 20
381.2768267224113
 30
0.0
 10
47.12816276438041
 20
381.2484219943722
 30
0.0
 10
47.19953651570366
 20
381.2289962950239
 30
0.0
 10
47.25215410228328
 20
381.2146754361874
 30
0.0
 10
47.30687517870551
 20
381.2053711931871
 30
0.0
 10
47.40117430088599
 20
381.1893374817756
 30
0.0
 10
47.49977081770911
 20
381.1892881847992
 30
0.0
  0
SPLINE
  5
144
330
A1
100
AcDbEntity
  8
02001389_SCREW__
  6
Continuous
 62
     7
100
AcDbSpline
210
0.0
220
0.0
230
1.0
 70
     8
 71
     2
 72
    20
 73
    17
 74
     0
 42
0.0000000110575855
 43
0.0000000001
 40
0.0
 40
0.0
 40
0.0
 40
0.0625
 40
0.0625
 40
0.125
 40
0.125
 40
0.25
 40
0.25
 40
0.35
 40
0.35
 40
0.5
 40
0.5
 40
0.663265306122449
 40
0.663265306122449
 40
0.7857142857142859
 40
0.7857142857142859
 40
1.0
 40
1.0
 40
1.0
 10
46.34977081770911
 20
382.3392881847992
 30
0.0
 10
46.34978511554495
 20
382.3106974944712
 30
0.0
 10
46.35114061734706
 20
382.2823735570818
 30
0.0
 10
46.35247005139278
 20
382.2545943194474
 30
0.0
 10
46.35524542200316
 20
382.2260028963114
 30
0.0
 10
46.36063906432624
 20
382.1704384577005
 30
0.0
 10
46.37166004636985
 20
382.1148934756122
 30
0.0
 10
46.38028789791188
 20
382.0714097046138
 30
0.0
 10
46.3926685603155
 20
382.0275725638605
 30
0.0
 10
46.41087195128721
 20
381.9631184509709
 30
0.0
 10
46.43730935532113
 20
381.8992022375794
 30
0.0
 10
46.46564536263778
 20
381.8306958786347
 30
0.0
 10
46.50237818245884
 20
381.7664909713361
 30
0.0
 10
46.52945805834286
 20
381.7191583426607
 30
0.0
 10
46.56157260923586
 20
381.673885605129
 30
0.0
 10
46.61691461192314
 20
381.5958685103085
 30
0.0
 10
46.68659801934459
 20
381.5261153864347
 30
0.0
  0
LINE
  5
145
330
A1
100
AcDbEntity
  8
02001389_SCREW__
  6
Continuous
 62
     7
100
AcDbLine
 10
46.3497708177
 20
383.3117881848
 30
0.0
 11
46.3497708177
 21
382.3392881848
 31
0.0
  0
LINE
  5
146
330
A1
100
AcDbEntity
  8
02001389_SCREW__
  6
Continuous
 62
     7
100
AcDbLine
 10
45.6397708177
 20
383.3117881848
 30
0.0
 11
46.3497708177
 21
383.3117881848
 31
0.0
  0
LINE
  5
147
330
A1
100
AcDbEntity
  8
02001389_SCREW__
  6
Continuous
 62
     7
100
AcDbLine
 10
45.6397708177
 20
382.3392881848
 30
0.0
 11
45.6397708177
 21
383.3117881848
 31
0.0
  0
SPLINE
  5
148
330
A1
100
AcDbEntity
  8
02001389_SCREW__
  6
Continuous
 62
     7
100
AcDbSpline
210
0.0
220
0.0
230
1.0
 70
     8
 71
     2
 72
    20
 73
    17
 74
     0
 42
0.0000000110575855
 43
0.0000000001
 40
0.0
 40
0.0
 40
0.0
 40
0.0625
 40
0.0625
 40
0.125
 40
0.125
 40
0.25
 40
0.25
 40
0.35
 40
0.35
 40
0.5
 40
0.5
 40
0.663265306122449
 40
0.663265306122449
 40
0.7857142857142859
 40
0.7857142857142859
 40
1.0
 40
1.0
 40
1.0
 10
45.30294361607363
 20
381.5261153864347
 30
0.0
 10
45.32315017698732
 20
381.5463421675417
 30
0.0
 10
45.34221974066892
 20
381.5673287002556
 30
0.0
 10
45.36092257614786
 20
381.5879116393922
 30
0.0
 10
45.3791772819521
 20
381.6100913119542
 30
0.0
 10
45.41465339222488
 20
381.6531951843508
 30
0.0
 10
45.44613661458216
 20
381.7002644289848
 30
0.0
 10
45.47078347159432
 20
381.7371129106618
 30
0.0
 10
45.49302656074737
 20
381.7768649004973
 30
0.0
 10
45.52573075985049
 20
381.8353125819943
 30
0.0
 10
45.55223228009709
 20
381.8992022375794
 30
0.0
 10
45.58063700813612
 20
381.9676801314706
 30
0.0
 10
45.60006270748444
 20
382.0390538827938
 30
0.0
 10
45.61438356632092
 20
382.0916714693734
 30
0.0
 10
45.62368780932121
 20
382.1463925457956
 30
0.0
 10
45.63972152073273
 20
382.2406916679762
 30
0.0
 10
45.63977081770911
 20
382.3392881847992
 30
0.0
  0
SPLINE
  5
149
330
A1
100
AcDbEntity
  8
02001389_SCREW__
  6
Continuous
 62
     7
100
AcDbSpline
210
0.0
220
0.0
230
1.0
 70
     8
 71
     2
 72
    20
 73
    17
 74
     0
 42
0.0000000110575855
 43
0.0000000001
 40
0.0
 40
0.0
 40
0.0
 40
0.0625
 40
0.0625
 40
0.125
 40
0.125
 40
0.25
 40
0.25
 40
0.35
 40
0.35
 40
0.5
 40
0.5
 40
0.663265306122449
 40
0.663265306122449
 40
0.7857142857142859
 40
0.7857142857142859
 40
1.0
 40
1.0
 40
1.0
 10
44.48977081770911
 20
381.1892881847992
 30
0.0
 10
44.5183615080372
 20
381.1893024826351
 30
0.0
 10
44.54668544542658
 20
381.1906579844372
 30
0.0
 10
44.5744646830616
 20
381.1919874184829
 30
0.0
 10
44.60305610619691
 20
381.1947627890933
 30
0.0
 10
44.65862054480873
 20
381.2001564314165
 30
0.0
 10
44.71416552689615
 20
381.21117741346
 30
0.0
 10
44.75764929789523
 20
381.2198052650022
 30
0.0
 10
44.80148643864778
 20
381.2321859274057
 30
0.0
 10
44.8659405515381
 20
381.2503893183776
 30
0.0
 10
44.92985676492896
 20
381.2768267224113
 30
0.0
 10
44.99836312387428
 20
381.3051627297282
 30
0.0
 10
45.06256803117225
 20
381.341895549549
 30
0.0
 10
45.10990065984834
 20
381.3689754254335
 30
0.0
 10
45.15517339737932
 20
381.401089976326
 30
0.0
 10
45.23319049220024
 20
381.4564319790136
 30
0.0
 10
45.30294361607363
 20
381.5261153864347
 30
0.0
  0
LINE
  5
14A
330
A1
100
AcDbEntity
  8
02001389_SCREW__
  6
Continuous
 62
     7
100
AcDbLine
 10
43.5172708177
 20
381.1892881848
 30
0.0
 11
44.4897708177
 21
381.1892881848
 31
0.0
  0
LINE
  5
14B
330
A1
100
AcDbEntity
  8
02001389_SCREW__
  6
Continuous
 62
     7
100
AcDbLine
 10
43.5172708177
 20
380.4792881848
 30
0.0
 11
43.5172708177
 21
381.1892881848
 31
0.0
  0
LINE
  5
14C
330
A1
100
AcDbEntity
  8
02001389_SCREW__
  6
Continuous
 62
     7
100
AcDbLine
 10
44.4897708177
 20
380.4792881848
 30
0.0
 11
43.5172708177
 21
380.4792881848
 31
0.0
  0
SPLINE
  5
14D
330
A1
100
AcDbEntity
  8
02001389_SCREW__
  6
Continuous
 62
     7
100
AcDbSpline
210
0.0
220
0.0
230
1.0
 70
     8
 71
     2
 72
    20
 73
    17
 74
     0
 42
0.0000000110575855
 43
0.0000000001
 40
0.0
 40
0.0
 40
0.0
 40
0.0625
 40
0.0625
 40
0.125
 40
0.125
 40
0.25
 40
0.25
 40
0.35
 40
0.35
 40
0.5
 40
0.5
 40
0.663265306122449
 40
0.663265306122449
 40
0.7857142857142859
 40
0.7857142857142859
 40
1.0
 40
1.0
 40
1.0
 10
45.30294361607363
 20
380.1424609831638
 30
0.0
 10
45.28271683496653
 20
380.1626675440776
 30
0.0
 10
45.26173030225277
 20
380.181737107759
 30
0.0
 10
45.24114736311574
 20
380.2004399432383
 30
0.0
 10
45.21896769055413
 20
380.2186946490422
 30
0.0
 10
45.17586381815732
 20
380.2541707593152
 30
0.0
 10
45.12879457352352
 20
380.2856539816723
 30
0.0
 10
45.0919460918464
 20
380.3103008386846
 30
0.0
 10
45.05219410201103
 20
380.3325439278375
 30
0.0
 10
44.99374642051414
 20
380.3652481269406
 30
0.0
 10
44.92985676492896
 20
380.3917496471872
 30
0.0
 10
44.8613788710374
 20
380.4201543752264
 30
0.0
 10
44.7900051197134
 20
380.4395800745751
 30
0.0
 10
44.737387533134
 20
380.4539009334115
 30
0.0
 10
44.6826664567114
 20
380.4632051764119
 30
0.0
 10
44.58836733453085
 20
380.4792388878234
 30
0.0
 10
44.48977081770911
 20
380.4792881847993
 30
0.0
  0
SPLINE
  5
14E
330
A1
100
AcDbEntity
  8
02001389_SCREW__
  6
Continuous
 62
     7
100
AcDbSpline
210
0.0
220
0.0
230
1.0
 70
     8
 71
     2
 72
    20
 73
    17
 74
     0
 42
0.0000000110575855
 43
0.0000000001
 40
0.0
 40
0.0
 40
0.0
 40
0.0625
 40
0.0625
 40
0.125
 40
0.125
 40
0.25
 40
0.25
 40
0.35
 40
0.35
 40
0.5
 40
0.5
 40
0.663265306122449
 40
0.663265306122449
 40
0.7857142857142859
 40
0.7857142857142859
 40
1.0
 40
1.0
 40
1.0
 10
45.63977081770911
 20
379.3292881847992
 30
0.0
 10
45.63975651987326
 20
379.3578788751275
 30
0.0
 10
45.63840101807116
 20
379.3862028125168
 30
0.0
 10
45.63707158402539
 20
379.4139820501518
 30
0.0
 10
45.63429621341506
 20
379.4425734732873
 30
0.0
 10
45.62890257109188
 20
379.4981379118987
 30
0.0
 10
45.61788158904837
 20
379.5536828939865
 30
0.0
 10
45.60925373750625
 20
379.5971666649854
 30
0.0
 10
45.59687307510271
 20
379.6410038057381
 30
0.0
 10
45.57866968413075
 20
379.7054579186284
 30
0.0
 10
45.55223228009709
 20
379.7693741320191
 30
0.0
 10
45.52389627278008
 20
379.8378804909644
 30
0.0
 10
45.4871634529592
 20
379.9020853982626
 30
0.0
 10
45.46008357707483
 20
379.9494180269385
 30
0.0
 10
45.42796902618217
 20
379.9946907644696
 30
0.0
 10
45.37262702349472
 20
380.0727078592903
 30
0.0
 10
45.30294361607363
 20
380.1424609831638
 30
0.0
  0
LINE
  5
14F
330
A1
100
AcDbEntity
  8
02001389_SCREW__
  6
Continuous
 62
     7
100
AcDbLine
 10
45.6397708177
 20
378.3567881848
 30
0.0
 11
45.6397708177
 21
379.3292881848
 31
0.0
  0
ARC
  5
150
330
A1
100
AcDbEntity
  8
02001389_SCREW__
  6
Continuous
 62
     7
100
AcDbCircle
 10
45.9947708177
 20
380.8342881848
 30
0.0
 40
3.499999999999996
100
AcDbArc
 50
180.0
 51
270.0
  0
ARC
  5
151
330
A1
100
AcDbEntity
  8
02001389_SCREW__
  6
Continuous
 62
     7
100
AcDbCircle
 10
45.9947708177
 20
380.8342881848
 30
0.0
 40
3.500000000000006
100
AcDbArc
 50
90.0
 51
180.0
  0
LINE
  5
152
330
A1
100
AcDbEntity
  8
02001389_SCREW__
  6
Continuous
 62
     7
100
AcDbLine
 10
45.7511149689
 20
379.4460225621
 30
0.0
 11
45.6397708177
 21
379.9867825007
 31
0.0
  0
LINE
  5
153
330
A1
100
AcDbEntity
  8
02001389_SCREW__
  6
Continuous
 62
     7
100
AcDbLine
 10
46.2384266665
 20
379.4460225621
 30
0.0
 11
45.7511149689
 21
379.4460225621
 31
0.0
  0
LINE
  5
154
330
A1
100
AcDbEntity
  8
02001389_SCREW__
  6
Continuous
 62
     7
100
AcDbLine
 10
46.3497708177
 20
379.9867825007
 30
0.0
 11
46.2384266665
 21
379.4460225621
 31
0.0
  0
LINE
  5
155
330
A1
100
AcDbEntity
  8
02001389_SCREW__
  6
Continuous
 62
     7
100
AcDbLine
 10
46.3497708177
 20
379.3292881848
 30
0.0
 11
46.3497708177
 21
379.9867825007
 31
0.0
  0
LINE
  5
156
330
A1
100
AcDbEntity
  8
02001389_SCREW__
  6
Continuous
 62
     7
100
AcDbLine
 10
46.141211946
 20
379.55675871
 30
0.0
 11
46.2384266665
 21
379.4460225621
 31
0.0
  0
SPLINE
  5
157
330
A1
100
AcDbEntity
  8
02001389_SCREW__
  6
Continuous
 62
     7
100
AcDbSpline
210
0.0
220
0.0
230
1.0
 70
     8
 71
     3
 72
     8
 73
     4
 74
     0
 42
0.0000000115361657
 43
0.0000000001
 40
0.0
 40
0.0
 40
0.0
 40
0.0
 40
1.0
 40
1.0
 40
1.0
 40
1.0
 10
46.52575206847864
 20
380.3033069340297
 30
0.0
 10
46.32461659487769
 20
380.1021714604287
 30
0.0
 10
46.18818475001547
 20
379.837301956481
 30
0.0
 10
46.14121194600533
 20
379.5567587099666
 30
0.0
  0
SPLINE
  5
158
330
A1
100
AcDbEntity
  8
02001389_SCREW__
  6
Continuous
 62
     7
100
AcDbSpline
210
0.0
220
0.0
230
1.0
 70
     8
 71
     3
 72
     8
 73
     4
 74
     0
 42
0.0000000115361657
 43
0.0000000001
 40
0.0
 40
0.0
 40
0.0
 40
0.0
 40
1.0
 40
1.0
 40
1.0
 40
1.0
 10
47.27230029254171
 20
380.687847056503
 30
0.0
 10
46.9917570460274
 20
380.6408742524929
 30
0.0
 10
46.72688754207958
 20
380.5044424076307
 30
0.0
 10
46.52575206847864
 20
380.3033069340297
 30
0.0
  0
LINE
  5
159
330
A1
100
AcDbEntity
  8
02001389_SCREW__
  6
Continuous
 62
     7
100
AcDbLine
 10
47.3830364404
 20
380.590632336
 30
0.0
 11
47.2723002925
 21
380.6878470565
 31
0.0
  0
LINE
  5
15A
330
A1
100
AcDbEntity
  8
02001389_SCREW__
  6
Continuous
 62
     7
100
AcDbLine
 10
46.8422765018
 20
380.4792881848
 30
0.0
 11
47.3830364404
 21
380.590632336
 31
0.0
  0
LINE
  5
15B
330
A1
100
AcDbEntity
  8
02001389_SCREW__
  6
Continuous
 62
     7
100
AcDbLine
 10
47.4997708177
 20
380.4792881848
 30
0.0
 11
46.8422765018
 21
380.4792881848
 31
0.0
  0
LINE
  5
15C
330
A1
100
AcDbEntity
  8
02001389_SCREW__
  6
Continuous
 62
     7
100
AcDbLine
 10
47.3830364404
 20
381.0779440336
 30
0.0
 11
47.3830364404
 21
380.590632336
 31
0.0
  0
LINE
  5
15D
330
A1
100
AcDbEntity
  8
02001389_SCREW__
  6
Continuous
 62
     7
100
AcDbLine
 10
46.8422765018
 20
381.1892881848
 30
0.0
 11
47.3830364404
 21
381.0779440336
 31
0.0
  0
LINE
  5
15E
330
A1
100
AcDbEntity
  8
02001389_SCREW__
  6
Continuous
 62
     7
100
AcDbLine
 10
47.4997708177
 20
381.1892881848
 30
0.0
 11
46.8422765018
 21
381.1892881848
 31
0.0
  0
LINE
  5
15F
330
A1
100
AcDbEntity
  8
02001389_SCREW__
  6
Continuous
 62
     7
100
AcDbLine
 10
47.2723002925
 20
380.9807293131
 30
0.0
 11
47.3830364404
 21
381.0779440336
 31
0.0
  0
SPLINE
  5
160
330
A1
100
AcDbEntity
  8
02001389_SCREW__
  6
Continuous
 62
     7
100
AcDbSpline
210
0.0
220
0.0
230
1.0
 70
     8
 71
     3
 72
     8
 73
     4
 74
     0
 42
0.0000000115361657
 43
0.0000000001
 40
0.0
 40
0.0
 40
0.0
 40
0.0
 40
1.0
 40
1.0
 40
1.0
 40
1.0
 10
46.52575206847865
 20
381.3652694355687
 30
0.0
 10
46.7268875420796
 20
381.1641339619678
 30
0.0
 10
46.99175704602741
 20
381.0277021171056
 30
0.0
 10
47.27230029254171
 20
380.9807293130955
 30
0.0
  0
SPLINE
  5
161
330
A1
100
AcDbEntity
  8
02001389_SCREW__
  6
Continuous
 62
     7
100
AcDbSpline
210
0.0
220
0.0
230
1.0
 70
     8
 71
     3
 72
     8
 73
     4
 74
     0
 42
0.0000000115361657
 43
0.0000000001
 40
0.0
 40
0.0
 40
0.0
 40
0.0
 40
1.0
 40
1.0
 40
1.0
 40
1.0
 10
46.14121194600533
 20
382.1118176596319
 30
0.0
 10
46.18818475001548
 20
381.8312744131175
 30
0.0
 10
46.3246165948777
 20
381.5664049091697
 30
0.0
 10
46.52575206847865
 20
381.3652694355687
 30
0.0
  0
LINE
  5
162
330
A1
100
AcDbEntity
  8
02001389_SCREW__
  6
Continuous
 62
     7
100
AcDbLine
 10
46.2384266665
 20
382.2225538075
 30
0.0
 11
46.141211946
 21
382.1118176596
 31
0.0
  0
LINE
  5
163
330
A1
100
AcDbEntity
  8
02001389_SCREW__
  6
Continuous
 62
     7
100
AcDbLine
 10
46.3497708177
 20
381.6817938689
 30
0.0
 11
46.2384266665
 21
382.2225538075
 31
0.0
  0
LINE
  5
164
330
A1
100
AcDbEntity
  8
02001389_SCREW__
  6
Continuous
 62
     7
100
AcDbLine
 10
46.3497708177
 20
382.3392881848
 30
0.0
 11
46.3497708177
 21
381.6817938689
 31
0.0
  0
LINE
  5
165
330
A1
100
AcDbEntity
  8
02001389_SCREW__
  6
Continuous
 62
     7
100
AcDbLine
 10
45.7511149689
 20
382.2225538075
 30
0.0
 11
46.2384266665
 21
382.2225538075
 31
0.0
  0
LINE
  5
166
330
A1
100
AcDbEntity
  8
02001389_SCREW__
  6
Continuous
 62
     7
100
AcDbLine
 10
45.6397708177
 20
381.6817938689
 30
0.0
 11
45.7511149689
 21
382.2225538075
 31
0.0
  0
LINE
  5
167
330
A1
100
AcDbEntity
  8
02001389_SCREW__
  6
Continuous
 62
     7
100
AcDbLine
 10
45.6397708177
 20
382.3392881848
 30
0.0
 11
45.6397708177
 21
381.6817938689
 31
0.0
  0
LINE
  5
168
330
A1
100
AcDbEntity
  8
02001389_SCREW__
  6
Continuous
 62
     7
100
AcDbLine
 10
45.8483296894
 20
382.1118176596
 30
0.0
 11
45.7511149689
 21
382.2225538075
 31
0.0
  0
SPLINE
  5
169
330
A1
100
AcDbEntity
  8
02001389_SCREW__
  6
Continuous
 62
     7
100
AcDbSpline
210
0.0
220
0.0
230
1.0
 70
     8
 71
     3
 72
     8
 73
     4
 74
     0
 42
0.0000000115361657
 43
0.0000000001
 40
0.0
 40
0.0
 40
0.0
 40
0.0
 40
1.0
 40
1.0
 40
1.0
 40
1.0
 10
45.46378956693957
 20
381.3652694355688
 30
0.0
 10
45.66492504054052
 20
381.5664049091697
 30
0.0
 10
45.80135688540274
 20
381.8312744131175
 30
0.0
 10
45.84832968941287
 20
382.1118176596319
 30
0.0
  0
SPLINE
  5
16A
330
A1
100
AcDbEntity
  8
02001389_SCREW__
  6
Continuous
 62
     7
100
AcDbSpline
210
0.0
220
0.0
230
1.0
 70
     8
 71
     3
 72
     8
 73
     4
 74
     0
 42
0.0000000115361657
 43
0.0000000001
 40
0.0
 40
0.0
 40
0.0
 40
0.0
 40
1.0
 40
1.0
 40
1.0
 40
1.0
 10
44.71724134287651
 20
380.9807293130955
 30
0.0
 10
44.99778458939081
 20
381.0277021171056
 30
0.0
 10
45.26265409333862
 20
381.1641339619679
 30
0.0
 10
45.46378956693957
 20
381.3652694355688
 30
0.0
  0
LINE
  5
16B
330
A1
100
AcDbEntity
  8
02001389_SCREW__
  6
Continuous
 62
     7
100
AcDbLine
 10
44.606505195
 20
381.0779440336
 30
0.0
 11
44.7172413429
 21
380.9807293131
 31
0.0
  0
LINE
  5
16C
330
A1
100
AcDbEntity
  8
02001389_SCREW__
  6
Continuous
 62
     7
100
AcDbLine
 10
45.1472651337
 20
381.1892881848
 30
0.0
 11
44.606505195
 21
381.0779440336
 31
0.0
  0
LINE
  5
16D
330
A1
100
AcDbEntity
  8
02001389_SCREW__
  6
Continuous
 62
     7
100
AcDbLine
 10
44.4897708177
 20
381.1892881848
 30
0.0
 11
45.1472651337
 21
381.1892881848
 31
0.0
  0
LINE
  5
16E
330
A1
100
AcDbEntity
  8
02001389_SCREW__
  6
Continuous
 62
     7
100
AcDbLine
 10
44.606505195
 20
380.590632336
 30
0.0
 11
44.606505195
 21
381.0779440336
 31
0.0
  0
LINE
  5
16F
330
A1
100
AcDbEntity
  8
02001389_SCREW__
  6
Continuous
 62
     7
100
AcDbLine
 10
45.1472651337
 20
380.4792881848
 30
0.0
 11
44.606505195
 21
380.590632336
 31
0.0
  0
LINE
  5
170
330
A1
100
AcDbEntity
  8
02001389_SCREW__
  6
Continuous
 62
     7
100
AcDbLine
 10
44.4897708177
 20
380.4792881848
 30
0.0
 11
45.1472651337
 21
380.4792881848
 31
0.0
  0
LINE
  5
171
330
A1
100
AcDbEntity
  8
02001389_SCREW__
  6
Continuous
 62
     7
100
AcDbLine
 10
44.7172413429
 20
380.6878470565
 30
0.0
 11
44.606505195
 21
380.590632336
 31
0.0
  0
SPLINE
  5
172
330
A1
100
AcDbEntity
  8
02001389_SCREW__
  6
Continuous
 62
     7
100
AcDbSpline
210
0.0
220
0.0
230
1.0
 70
     8
 71
     3
 72
     8
 73
     4
 74
     0
 42
0.0000000115361657
 43
0.0000000001
 40
0.0
 40
0.0
 40
0.0
 40
0.0
 40
1.0
 40
1.0
 40
1.0
 40
1.0
 10
45.46378956693956
 20
380.3033069340297
 30
0.0
 10
45.26265409333861
 20
380.5044424076307
 30
0.0
 10
44.9977845893908
 20
380.6408742524929
 30
0.0
 10
44.71724134287651
 20
380.687847056503
 30
0.0
  0
SPLINE
  5
173
330
A1
100
AcDbEntity
  8
02001389_SCREW__
  6
Continuous
 62
     7
100
AcDbSpline
210
0.0
220
0.0
230
1.0
 70
     8
 71
     3
 72
     8
 73
     4
 74
     0
 42
0.0000000115361657
 43
0.0000000001
 40
0.0
 40
0.0
 40
0.0
 40
0.0
 40
1.0
 40
1.0
 40
1.0
 40
1.0
 10
45.84832968941287
 20
379.5567587099666
 30
0.0
 10
45.80135688540274
 20
379.837301956481
 30
0.0
 10
45.66492504054052
 20
380.1021714604287
 30
0.0
 10
45.46378956693956
 20
380.3033069340297
 30
0.0
  0
LINE
  5
174
330
A1
100
AcDbEntity
  8
02001389_SCREW__
  6
Continuous
 62
     7
100
AcDbLine
 10
45.7511149689
 20
379.4460225621
 30
0.0
 11
45.8483296894
 21
379.55675871
 31
0.0
  0
LINE
  5
175
330
A1
100
AcDbEntity
  8
02001389_SCREW__
  6
Continuous
 62
     7
100
AcDbLine
 10
45.6397708177
 20
379.3292881848
 30
0.0
 11
45.6397708177
 21
379.9867825007
 31
0.0
  0
LINE
  5
176
330
A1
100
AcDbEntity
  8
02001389_SCREW__
  6
Continuous
 62
     7
100
AcDbLine
 10
46.141211946
 20
379.55675871
 30
0.0
 11
45.8483296894
 21
379.55675871
 31
0.0
  0
LINE
  5
177
330
A1
100
AcDbEntity
  8
02001389_SCREW__
  6
Continuous
 62
     7
100
AcDbLine
 10
47.2723002925
 20
380.6878470565
 30
0.0
 11
47.2723002925
 21
380.9807293131
 31
0.0
  0
LINE
  5
178
330
A1
100
AcDbEntity
  8
02001389_SCREW__
  6
Continuous
 62
     7
100
AcDbLine
 10
44.7172413429
 20
380.9807293131
 30
0.0
 11
44.7172413429
 21
380.6878470565
 31
0.0
  0
LINE
  5
179
330
A1
100
AcDbEntity
  8
02001389_SCREW__
  6
Continuous
 62
     7
100
AcDbLine
 10
46.141211946
 20
382.1118176596
 30
0.0
 11
45.8483296894
 21
382.1118176596
 31
0.0
  0
ENDBLK
  5
17B
330
A1
100
AcDbEntity
  8
0
100
AcDbBlockEnd
  0
BLOCK
  5
20C
330
17C
100
AcDbEntity
  8
0
100
AcDbBlockBegin
  2
SE1
 70
     0
 10
0.0
 20
0.0
 30
0.0
  3
SE1
  1

  0
LINE
  5
17E
330
17C
100
AcDbEntity
  8
11755031_GEH_THM
  6
Continuous
 62
     7
100
AcDbLine
 10
241.0733393619
 20
400.3342881848
 30
0.0
 11
252.9119388905
 21
400.3342881848
 31
0.0
  0
LINE
  5
17F
330
17C
100
AcDbEntity
  8
11755031_GEH_THM
  6
Continuous
 62
     7
100
AcDbLine
 10
227.2403660152
 20
380.8342881848
 30
0.0
 11
227.5918406427
 21
387.5408235941
 31
0.0
  0
LINE
  5
180
330
17C
100
AcDbEntity
  8
11755031_GEH_THM
  6
Continuous
 62
     7
100
AcDbLine
 10
227.5918406427
 20
374.1277527755
 30
0.0
 11
227.2403660152
 21
380.8342881848
 31
0.0
  0
ARC
  5
181
330
17C
100
AcDbEntity
  8
11755031_GEH_THM
  6
Continuous
 62
     7
100
AcDbCircle
 10
241.0733393619
 20
374.8342881848
 30
0.0
 40
13.5
100
AcDbArc
 50
183.0
 51
237.2958917853
  0
ARC
  5
182
330
17C
100
AcDbEntity
  8
11755031_GEH_THM
  6
Continuous
 62
     7
100
AcDbCircle
 10
241.0733393619
 20
386.8342881848
 30
0.0
 40
13.5
100
AcDbArc
 50
90.0
 51
177.0
  0
LINE
  5
183
330
17C
100
AcDbEntity
  8
11755031_GEH_THM
  6
Continuous
 62
     7
100
AcDbLine
 10
285.06879314
 20
400.3342881848
 30
0.0
 11
292.6643885778
 21
400.3342881848
 31
0.0
  0
ARC
  5
184
330
17C
100
AcDbEntity
  8
11755031_GEH_THM
  6
Continuous
 62
     7
100
AcDbCircle
 10
252.9119388905
 20
402.3342881848
 30
0.0
 40
2.000000000000002
100
AcDbArc
 50
270.0
 51
315.0
  0
ARC
  5
185
330
17C
100
AcDbEntity
  8
11755031_GEH_THM
  6
Continuous
 62
     7
100
AcDbCircle
 10
285.06879314
 20
402.3342881848
 30
0.0
 40
1.999999999999998
100
AcDbArc
 50
224.9999999998
 51
270.0
  0
LINE
  5
186
330
17C
100
AcDbEntity
  8
11755031_GEH_THM
  6
Continuous
 62
     7
100
AcDbLine
 10
294.6102270951
 20
401.2484536868
 30
0.0
 11
294.9029682766
 21
406.8342881848
 31
0.0
  0
ARC
  5
187
330
17C
100
AcDbEntity
  8
11755031_GEH_THM
  6
Continuous
 62
     7
100
AcDbCircle
 10
292.6643885778
 20
402.3342881848
 30
0.0
 40
2.000000000000002
100
AcDbArc
 50
270.0
 51
357.0
  0
LINE
  5
188
330
17C
100
AcDbEntity
  8
11755031_GEH_THM
  6
Continuous
 62
     7
100
AcDbLine
 10
258.892711239
 20
411.2006398785
 30
0.0
 11
259.1410360792
 21
415.9389600973
 31
0.0
  0
LINE
  5
189
330
17C
100
AcDbEntity
  8
11755031_GEH_THM
  6
Continuous
 62
     7
100
AcDbLine
 10
261.1382951487
 20
417.8342881848
 30
0.0
 11
265.2403660152
 21
417.8342881848
 31
0.0
  0
ARC
  5
18A
330
17C
100
AcDbEntity
  8
11755031_GEH_THM
  6
Continuous
 62
     7
100
AcDbCircle
 10
261.1382951487
 20
415.8342881848
 30
0.0
 40
2.0
100
AcDbArc
 50
90.0
 51
177.0
  0
LINE
  5
18B
330
17C
100
AcDbEntity
  8
11755031_GEH_THM
  6
Continuous
 62
     7
100
AcDbLine
 10
267.9201817197
 20
404.8626318049
 30
0.0
 11
267.9478710356
 21
404.3342881848
 31
0.0
  0
SPLINE
  5
18C
330
17C
100
AcDbEntity
  8
11755031_GEH_THM
  6
Continuous
 62
     7
100
AcDbSpline
210
0.0
220
0.0
230
1.0
 70
     8
 71
     3
 72
     8
 73
     4
 74
     0
 42
0.0000000006646741
 43
0.0000000001
 40
0.3516617358791465
 40
0.3516617358791465
 40
0.3516617358791465
 40
0.3516617358791465
 40
0.3533528350758313
 40
0.3533528350758313
 40
0.3533528350758313
 40
0.3533528350758313
 10
270.8051846074893
 20
340.5349139037156
 30
0.0
 10
270.7967395475306
 20
340.5348316894251
 30
0.0
 10
270.7882588382206
 20
340.5347871914097
 30
0.0
 10
270.7797425944977
 20
340.5347802651401
 30
0.0
  0
ARC
  5
18D
330
17C
100
AcDbEntity
  8
11755031_GEH_THM
  6
Continuous
 62
     7
100
AcDbCircle
 10
232.1583785216
 20
360.9499994664
 30
0.0
 40
3.0
100
AcDbArc
 50
3.0
 51
57.2958917853
  0
LINE
  5
18E
330
17C
100
AcDbEntity
  8
11755031_GEH_THM
  6
Continuous
 62
     7
100
AcDbLine
 10
258.5066571053
 20
403.8342881848
 30
0.0
 11
258.892711239
 21
411.2006398785
 31
0.0
  0
LINE
  5
18F
330
17C
100
AcDbEntity
  8
11755031_GEH_THM
  6
Continuous
 62
     7
100
AcDbLine
 10
284.4861245772
 20
340.907238006
 30
0.0
 11
292.4861245772
 21
340.907238006
 31
0.0
  0
LINE
  5
190
330
17C
100
AcDbEntity
  8
11755031_GEH_THM
  6
Continuous
 62
     7
100
AcDbLine
 10
289.2012657234
 20
340.1861742406
 30
0.0
 11
289.2012657234
 21
340.0342881848
 31
0.0
  0
LINE
  5
191
330
17C
100
AcDbEntity
  8
11755031_GEH_THM
  6
Continuous
 62
     7
100
AcDbLine
 10
289.2012657234
 20
340.1861742406
 30
0.0
 11
292.4861245772
 21
340.1861742406
 31
0.0
  0
LINE
  5
192
330
17C
100
AcDbEntity
  8
11755031_GEH_THM
  6
Continuous
 62
     7
100
AcDbLine
 10
292.4861245772
 20
340.1861742406
 30
0.0
 11
292.4861245772
 21
340.3927086048
 31
0.0
  0
LINE
  5
193
330
17C
100
AcDbEntity
  8
11755031_GEH_THM
  6
Continuous
 62
     7
100
AcDbLine
 10
292.4861245772
 20
340.3927086048
 30
0.0
 11
284.4861245772
 21
340.3927086048
 31
0.0
  0
LINE
  5
194
330
17C
100
AcDbEntity
  8
11755031_GEH_THM
  6
Continuous
 62
     7
100
AcDbLine
 10
284.4861245772
 20
340.3927086048
 30
0.0
 11
284.4861245772
 21
340.1861742406
 31
0.0
  0
LINE
  5
195
330
17C
100
AcDbEntity
  8
11755031_GEH_THM
  6
Continuous
 62
     7
100
AcDbLine
 10
284.4861245772
 20
340.1861742406
 30
0.0
 11
288.256868803
 21
340.1861742406
 31
0.0
  0
LINE
  5
196
330
17C
100
AcDbEntity
  8
11755031_GEH_THM
  6
Continuous
 62
     7
100
AcDbLine
 10
288.256868803
 20
340.0342881848
 30
0.0
 11
288.256868803
 21
340.1861742406
 31
0.0
  0
LINE
  5
197
330
17C
100
AcDbEntity
  8
11755031_GEH_THM
  6
Continuous
 62
     7
100
AcDbLine
 10
284.4861245772
 20
340.907238006
 30
0.0
 11
284.4861245772
 21
340.3927086048
 31
0.0
  0
LINE
  5
198
330
17C
100
AcDbEntity
  8
11755031_GEH_THM
  6
Continuous
 62
     7
100
AcDbLine
 10
292.4861245772
 20
340.907238006
 30
0.0
 11
292.4861245772
 21
340.3927086048
 31
0.0
  0
LINE
  5
199
330
17C
100
AcDbEntity
  8
11755031_GEH_THM
  6
Continuous
 62
     7
100
AcDbLine
 10
281.2240370319
 20
341.1806580262
 30
0.0
 11
273.2240370319
 21
341.1806580262
 31
0.0
  0
LINE
  5
19A
330
17C
100
AcDbEntity
  8
11755031_GEH_THM
  6
Continuous
 62
     7
100
AcDbLine
 10
273.2240370319
 20
340.0342881848
 30
0.0
 11
273.2240370319
 21
340.65494003
 31
0.0
  0
LINE
  5
19B
330
17C
100
AcDbEntity
  8
11755031_GEH_THM
  6
Continuous
 62
     7
100
AcDbLine
 10
281.2240370319
 20
340.65494003
 30
0.0
 11
281.2240370319
 21
340.0342881848
 31
0.0
  0
LINE
  5
19C
330
17C
100
AcDbEntity
  8
11755031_GEH_THM
  6
Continuous
 62
     7
100
AcDbLine
 10
273.2240370319
 20
340.65494003
 30
0.0
 11
281.2240370319
 21
340.65494003
 31
0.0
  0
LINE
  5
19D
330
17C
100
AcDbEntity
  8
11755031_GEH_THM
  6
Continuous
 62
     7
100
AcDbLine
 10
281.2240370319
 20
341.1806580262
 30
0.0
 11
281.2240370319
 21
340.65494003
 31
0.0
  0
LINE
  5
19E
330
17C
100
AcDbEntity
  8
11755031_GEH_THM
  6
Continuous
 62
     7
100
AcDbLine
 10
273.2240370319
 20
341.1806580262
 30
0.0
 11
273.2240370319
 21
340.65494003
 31
0.0
  0
LINE
  5
19F
330
17C
100
AcDbEntity
  8
11755031_GEH_THM
  6
Continuous
 62
     7
100
AcDbLine
 10
274.2840370319
 20
340.3658617076
 30
0.0
 11
280.1640370319
 21
340.3658617076
 31
0.0
  0
LINE
  5
1A0
330
17C
100
AcDbEntity
  8
11755031_GEH_THM
  6
Continuous
 62
     7
100
AcDbLine
 10
280.1640370319
 20
340.3658617076
 30
0.0
 11
280.1640370319
 21
340.0342881848
 31
0.0
  0
LINE
  5
1A1
330
17C
100
AcDbEntity
  8
11755031_GEH_THM
  6
Continuous
 62
     7
100
AcDbLine
 10
274.2840370319
 20
340.0342881848
 30
0.0
 11
274.2840370319
 21
340.3658617076
 31
0.0
  0
SPLINE
  5
1A2
330
17C
100
AcDbEntity
  8
11755031_GEH_THM
  6
Continuous
 62
     7
100
AcDbSpline
210
0.0
220
0.0
230
1.0
 70
     8
 71
     3
 72
    12
 73
     8
 74
     0
 42
0.0000000093230228
 43
0.0000000001
 40
0.0
 40
0.0
 40
0.0
 40
0.0
 40
0.2499999999999963
 40
0.2499999999999963
 40
0.3749999999999969
 40
0.3749999999999969
 40
0.4459226677416008
 40
0.4459226677416008
 40
0.4459226677416008
 40
0.4459226677416008
 10
292.0185204966529
 20
340.1465638111152
 30
0.0
 10
292.1811896668033
 20
340.1077673857783
 30
0.0
 10
292.3013321467136
 20
340.0770788895326
 30
0.0
 10
292.4178630849897
 20
340.0478884489931
 30
0.0
 10
292.4460654865465
 20
340.0409923602959
 30
0.0
 10
292.4733667824818
 20
340.0353181437716
 30
0.0
 10
292.479900516525
 20
340.0342889716163
 30
0.0
 10
292.4833079033107
 20
340.0342880295573
 30
0.0
  0
SPLINE
  5
1A3
330
17C
100
AcDbEntity
  8
11755031_GEH_THM
  6
Continuous
 62
     7
100
AcDbSpline
210
0.0
220
0.0
230
1.0
 70
     8
 71
     3
 72
     8
 73
     4
 74
     0
 42
0.0000001620048446
 43
0.0000000001
 40
0.4629473594813909
 40
0.4629473594813909
 40
0.4629473594813909
 40
0.4629473594813909
 40
0.4854048611949461
 40
0.4854048611949461
 40
0.4854048611949461
 40
0.4854048611949461
 10
292.4852243329884
 20
340.034465143871
 30
0.0
 10
292.4858320723499
 20
340.0346212186246
 30
0.0
 10
292.4861317085201
 20
340.0348804708973
 30
0.0
 10
292.4861303152052
 20
340.0352430078296
 30
0.0
  0
ARC
  5
1A4
330
17C
100
AcDbEntity
  8
11755031_GEH_THM
  6
Continuous
 62
     7
100
AcDbCircle
 10
289.2582163861
 20
328.4867768983
 30
0.0
 40
11.98206616722608
100
AcDbArc
 50
76.6811658118
 51
77.4830571517
  0
ARC
  5
1A5
330
17C
100
AcDbEntity
  8
11755031_GEH_THM
  6
Continuous
 62
     7
100
AcDbCircle
 10
288.7223961312
 20
322.5646444579
 30
0.0
 40
17.97682596119012
100
AcDbArc
 50
101.7326736944
 51
103.634864203
  0
SPLINE
  5
1A6
330
17C
100
AcDbEntity
  8
11755031_GEH_THM
  6
Continuous
 62
     7
100
AcDbSpline
210
0.0
220
0.0
230
1.0
 70
     8
 71
     3
 72
    12
 73
     8
 74
     0
 42
0.0000000121644897
 43
0.0000000001
 40
0.0
 40
0.0
 40
0.0
 40
0.0
 40
0.25
 40
0.25
 40
0.375
 40
0.375
 40
0.4478990181446372
 40
0.4478990181446372
 40
0.4478990181446372
 40
0.4478990181446372
 10
285.7257165264296
 20
340.0940637723547
 30
0.0
 10
285.5982384417566
 20
340.073812010388
 30
0.0
 10
285.502311508353
 20
340.0574807545336
 30
0.0
 10
285.4101919552248
 20
340.0417478831394
 30
0.0
 10
285.388397253399
 20
340.038020999871
 30
0.0
 10
285.3683323895295
 20
340.034876135108
 30
0.0
 10
285.3639764378653
 20
340.0342919298405
 30
0.0
 10
285.3624274777831
 20
340.0342882254611
 30
0.0
  0
ARC
  5
1A7
330
17C
100
AcDbEntity
  8
11755031_GEH_THM
  6
Continuous
 62
     7
100
AcDbCircle
 10
287.5205373899
 20
328.3994442363
 30
0.0
 40
11.83154715268881
100
AcDbArc
 50
94.93444704
 51
98.7253352155
  0
ARC
  5
1A8
330
17C
100
AcDbEntity
  8
11755031_GEH_THM
  6
Continuous
 62
     7
100
AcDbCircle
 10
289.8670106446
 20
331.8902437002
 30
0.0
 40
8.329432141378163
100
AcDbArc
 50
77.9198024421
 51
85.8070934628
  0
ARC
  5
1A9
330
17C
100
AcDbEntity
  8
11755031_GEH_THM
  6
Continuous
 62
     7
100
AcDbCircle
 10
277.224037035
 20
327.1544004967
 30
0.0
 40
13.21117356030602
100
AcDbArc
 50
77.1418014449
 51
102.8581974594
  0
ARC
  5
1AA
330
17C
100
AcDbEntity
  8
11755031_GEH_THM
  6
Continuous
 62
     7
100
AcDbCircle
 10
277.22403704
 20
327.4357101969
 30
0.0
 40
13.21832694607298
100
AcDbArc
 50
77.098622191
 51
78.1555871878
  0
ARC
  5
1AB
330
17C
100
AcDbEntity
  8
11755031_GEH_THM
  6
Continuous
 62
     7
100
AcDbCircle
 10
277.22403704
 20
327.4357101969
 30
0.0
 40
13.21832694607298
100
AcDbArc
 50
101.8465538267
 51
102.9022727135
  0
ELLIPSE
  5
1AC
330
17C
100
AcDbEntity
  8
11755031_GEH_THM
  6
Continuous
 62
     7
100
AcDbEllipse
 10
284.3244797582
 20
380.8342881855
 30
0.0
 11
-86.63909774304317
 21
-1.226416108197804E-10
 31
0.0
210
0.0
220
0.0
230
1.0
 40
0.2654690619
 41
-1.439552890900512
 42
-1.345696111040353
  0
LINE
  5
1AD
330
17C
100
AcDbEntity
  8
11755031_GEH_THM
  6
Continuous
 62
     7
100
AcDbLine
 10
272.9862821897
 20
404.3342881848
 30
0.0
 11
272.9862821897
 21
403.6364867005
 31
0.0
  0
LINE
  5
1AE
330
17C
100
AcDbEntity
  8
11755031_GEH_THM
  6
Continuous
 62
     7
100
AcDbLine
 10
272.9862821897
 20
404.3342881848
 30
0.0
 11
264.9862821897
 21
404.3342881848
 31
0.0
  0
LINE
  5
1AF
330
17C
100
AcDbEntity
  8
11755031_GEH_THM
  6
Continuous
 62
     7
100
AcDbLine
 10
264.9862821897
 20
404.3342881848
 30
0.0
 11
264.9862821897
 21
403.254038283
 31
0.0
  0
LINE
  5
1B0
330
17C
100
AcDbEntity
  8
11755031_GEH_THM
  6
Continuous
 62
     7
100
AcDbLine
 10
272.9903660152
 20
404.3342881848
 30
0.0
 11
272.9903660152
 21
403.8342881848
 31
0.0
  0
LINE
  5
1B1
330
17C
100
AcDbEntity
  8
11755031_GEH_THM
  6
Continuous
 62
     7
100
AcDbLine
 10
272.9903660152
 20
404.3342881848
 30
0.0
 11
272.9862821897
 21
404.3342881848
 31
0.0
  0
LINE
  5
1B2
330
17C
100
AcDbEntity
  8
11755031_GEH_THM
  6
Continuous
 62
     7
100
AcDbLine
 10
251.5584558034
 20
400.8342881848
 30
0.0
 11
251.5584558034
 21
400.3342881848
 31
0.0
  0
LINE
  5
1B3
330
17C
100
AcDbEntity
  8
11755031_GEH_THM
  6
Continuous
 62
     7
100
AcDbLine
 10
251.5584558034
 20
400.8342881848
 30
0.0
 11
243.5584558034
 21
400.8342881848
 31
0.0
  0
LINE
  5
1B4
330
17C
100
AcDbEntity
  8
11755031_GEH_THM
  6
Continuous
 62
     7
100
AcDbLine
 10
243.5584558034
 20
400.8342881848
 30
0.0
 11
243.5584558034
 21
400.3342881848
 31
0.0
  0
LINE
  5
1B5
330
17C
100
AcDbEntity
  8
11755031_GEH_THM
  6
Continuous
 62
     7
100
AcDbLine
 10
303.2403660152
 20
349.8190007935
 30
0.0
 11
303.2403660152
 21
352.5696215405
 31
0.0
  0
LINE
  5
1B6
330
17C
100
AcDbEntity
  8
11755031_GEH_THM
  6
Continuous
 62
     7
100
AcDbLine
 10
303.2403660152
 20
340.5767569981
 30
0.0
 11
303.2403660152
 21
349.8190007935
 31
0.0
  0
ARC
  5
1B7
330
17C
100
AcDbEntity
  8
11755031_GEH_THM
  6
Continuous
 62
     7
100
AcDbCircle
 10
265.3424368818
 20
415.8342881848
 30
0.0
 40
1.999999999999641
100
AcDbArc
 50
3.0
 51
90.0
  0
LINE
  5
1B8
330
17C
100
AcDbEntity
  8
11755031_GEH_THM
  6
Continuous
 62
     7
100
AcDbLine
 10
265.2403660152
 20
417.8342881848
 30
0.0
 11
265.2403660152
 21
411.2006398785
 31
0.0
  0
LINE
  5
1B9
330
17C
100
AcDbEntity
  8
11755031_GEH_THM
  6
Continuous
 62
     7
100
AcDbLine
 10
265.2403660152
 20
411.2006398785
 30
0.0
 11
265.2403660152
 21
407.3295538878
 31
0.0
  0
SPLINE
  5
1BA
330
17C
100
AcDbEntity
  8
11755031_GEH_THM
  6
Continuous
 62
     7
100
AcDbSpline
210
0.0
220
0.0
230
1.0
 70
     8
 71
     3
 72
    20
 73
    16
 74
     0
 42
0.0000000028605861
 43
0.0000000001
 40
0.0
 40
0.0
 40
0.0
 40
0.0
 40
0.1249999999999997
 40
0.1249999999999997
 40
0.2499999999999993
 40
0.2499999999999993
 40
0.5000000000000002
 40
0.5000000000000002
 40
0.7500000000000011
 40
0.7500000000000011
 40
0.8749999999999996
 40
0.8749999999999996
 40
0.9374999999999997
 40
0.9374999999999997
 40
1.0
 40
1.0
 40
1.0
 40
1.0
 10
267.9201817197286
 20
404.8626318049207
 30
0.0
 10
267.9143114437941
 20
404.9746433424226
 30
0.0
 10
267.8954585044411
 20
405.0896886473362
 30
0.0
 10
267.8353105648158
 20
405.3257678987127
 30
0.0
 10
267.793632115948
 20
405.4473687079192
 30
0.0
 10
267.6415377686133
 20
405.8101812299598
 30
0.0
 10
267.5048434401625
 20
406.0530754497435
 30
0.0
 10
267.1581826762077
 20
406.5336870049698
 30
0.0
 10
266.9545344378186
 20
406.7663527134011
 30
0.0
 10
266.5746960570067
 20
407.0650636409437
 30
0.0
 10
266.4366982296
 20
407.1544096023528
 30
0.0
 10
266.2073744316112
 20
407.2545243464188
 30
0.0
 10
266.1283836362231
 20
407.2815786207583
 30
0.0
 10
265.9639067679582
 20
407.3192765292244
 30
0.0
 10
265.8782180185534
 20
407.3295538877535
 30
0.0
 10
265.7936367421939
 20
407.3295538877535
 30
0.0
  0
LINE
  5
1BB
330
17C
100
AcDbEntity
  8
11755031_GEH_THM
  6
Continuous
 62
     7
100
AcDbLine
 10
265.7936367422
 20
407.3295538878
 30
0.0
 11
265.2403660152
 21
407.3295538878
 31
0.0
  0
LINE
  5
1BC
330
17C
100
AcDbEntity
  8
11755031_GEH_THM
  6
Continuous
 62
     7
100
AcDbLine
 10
265.2403660152
 20
417.8342881848
 30
0.0
 11
265.3424368818
 21
417.8342881848
 31
0.0
  0
LINE
  5
1BD
330
17C
100
AcDbEntity
  8
11755031_GEH_THM
  6
Continuous
 62
     7
100
AcDbLine
 10
267.3396959513
 20
415.9389600973
 30
0.0
 11
267.9201817197
 21
404.8626318049
 31
0.0
  0
LINE
  5
1BE
330
17C
100
AcDbEntity
  8
11755031_GEH_THM
  6
Continuous
 62
     7
100
AcDbLine
 10
236.6532102725
 20
431.8380934867
 30
0.0
 11
268.827521758
 21
431.8380934867
 31
0.0
  0
LINE
  5
1BF
330
17C
100
AcDbEntity
  8
11755031_GEH_THM
  6
Continuous
 62
     7
100
AcDbLine
 10
267.7403660152
 20
432.8342881848
 30
0.0
 11
237.7403660152
 21
432.8342881848
 31
0.0
  0
LINE
  5
1C0
330
17C
100
AcDbEntity
  8
11755031_GEH_THM
  6
Continuous
 62
     7
100
AcDbLine
 10
268.827521758
 20
329.8304828829
 30
0.0
 11
268.6848935363
 21
329.8304828829
 31
0.0
  0
LINE
  5
1C1
330
17C
100
AcDbEntity
  8
11755031_GEH_THM
  6
Continuous
 62
     7
100
AcDbLine
 10
236.7958384942
 20
329.8304828829
 30
0.0
 11
236.6532102725
 21
329.8304828829
 31
0.0
  0
LINE
  5
1C2
330
17C
100
AcDbEntity
  8
11755031_GEH_THM
  6
Continuous
 62
     7
100
AcDbLine
 10
237.7403660152
 20
328.8342881848
 30
0.0
 11
237.845608668
 21
328.8342881848
 31
0.0
  0
LINE
  5
1C3
330
17C
100
AcDbEntity
  8
11755031_GEH_THM
  6
Continuous
 62
     7
100
AcDbLine
 10
267.6351233625
 20
328.8342881848
 30
0.0
 11
267.7403660152
 21
328.8342881848
 31
0.0
  0
LINE
  5
1C4
330
17C
100
AcDbEntity
  8
11755031_GEH_THM
  6
Continuous
 62
     7
100
AcDbLine
 10
268.6874593187
 20
329.8329177196
 30
0.0
 11
236.7932727117
 21
329.8329177196
 31
0.0
  0
LINE
  5
1C5
330
17C
100
AcDbEntity
  8
11755031_GEH_THM
  6
Continuous
 62
     7
100
AcDbLine
 10
237.845608668
 20
328.8342881848
 30
0.0
 11
267.6351233625
 21
328.8342881848
 31
0.0
  0
LINE
  5
1C6
330
17C
100
AcDbEntity
  8
11755031_GEH_THM
  6
Continuous
 62
     7
100
AcDbLine
 10
256.6252902557
 20
403.2192124253
 30
0.0
 11
254.3261524529
 21
400.9200746224
 31
0.0
  0
LINE
  5
1C7
330
17C
100
AcDbEntity
  8
11755031_GEH_THM
  6
Continuous
 62
     7
100
AcDbLine
 10
264.9862821897
 20
403.8342881848
 30
0.0
 11
258.1102144962
 21
403.8342881848
 31
0.0
  0
LINE
  5
1C8
330
17C
100
AcDbEntity
  8
11755031_GEH_THM
  6
Continuous
 62
     7
100
AcDbLine
 10
279.8705175343
 20
403.8342881848
 30
0.0
 11
272.9862821897
 21
403.8342881848
 31
0.0
  0
LINE
  5
1C9
330
17C
100
AcDbEntity
  8
11755031_GEH_THM
  6
Continuous
 62
     7
100
AcDbLine
 10
287.2705175343
 20
402.3342881848
 30
0.0
 11
282.2403660153
 21
402.3342881848
 31
0.0
  0
LINE
  5
1CA
330
17C
100
AcDbEntity
  8
11755031_GEH_THM
  6
Continuous
 62
     7
100
AcDbLine
 10
292.0252902557
 20
406.2192124253
 30
0.0
 11
288.7554417747
 21
402.9493639443
 31
0.0
  0
ARC
  5
1CB
330
17C
100
AcDbEntity
  8
11755031_GEH_THM
  6
Continuous
 62
     7
100
AcDbCircle
 10
246.7426112895
 20
380.8342881848
 30
0.0
 40
19.5
100
AcDbArc
 50
174.1286369263
 51
179.8713630737
  0
ARC
  5
1CC
330
17C
100
AcDbEntity
  8
11755031_GEH_THM
  6
Continuous
 62
     7
100
AcDbCircle
 10
246.7426112895
 20
380.8342881848
 30
0.0
 40
19.5
100
AcDbArc
 50
180.1286369263
 51
185.8713630737
  0
LINE
  5
1CD
330
17C
100
AcDbEntity
  8
11755031_GEH_THM
  6
Continuous
 62
     7
100
AcDbLine
 10
235.1542671259
 20
361.1070073351
 30
0.0
 11
236.7932727117
 21
329.8329177196
 31
0.0
  0
LINE
  5
1CE
330
17C
100
AcDbEntity
  8
11755031_GEH_THM
  6
Continuous
 62
     7
100
AcDbLine
 10
268.6874593187
 20
329.8329177196
 30
0.0
 11
269.1865811724
 21
339.3567300338
 31
0.0
  0
LINE
  5
1CF
330
17C
100
AcDbEntity
  8
11755031_GEH_THM
  6
Continuous
 62
     7
100
AcDbLine
 10
283.6545795776
 20
400.9200746224
 30
0.0
 11
281.3554417748
 21
403.2192124253
 31
0.0
  0
ARC
  5
1D0
330
17C
100
AcDbEntity
  8
11755031_GEH_THM
  6
Continuous
 62
     7
100
AcDbCircle
 10
258.1102144962
 20
401.7342881848
 30
0.0
 40
2.099999999999998
100
AcDbArc
 50
90.0
 51
135.0
  0
ARC
  5
1D1
330
17C
100
AcDbEntity
  8
11755031_GEH_THM
  6
Continuous
 62
     7
100
AcDbCircle
 10
293.5102144962
 20
404.7342881848
 30
0.0
 40
2.100000000000001
100
AcDbArc
 50
90.0
 51
135.0
  0
ARC
  5
1D2
330
17C
100
AcDbEntity
  8
11755031_GEH_THM
  6
Continuous
 62
     7
100
AcDbCircle
 10
287.2705175343
 20
404.4342881848
 30
0.0
 40
2.099999999999996
100
AcDbArc
 50
270.0
 51
315.0
  0
ARC
  5
1D3
330
17C
100
AcDbEntity
  8
11755031_GEH_THM
  6
Continuous
 62
     7
100
AcDbCircle
 10
279.8705175343
 20
401.7342881848
 30
0.0
 40
2.100000000000003
100
AcDbArc
 50
44.9999999998
 51
90.0
  0
LINE
  5
1D4
330
17C
100
AcDbEntity
  8
11755031_GEH_THM
  6
Continuous
 62
     7
100
AcDbLine
 10
252.9176877996
 20
400.3342881848
 30
0.0
 11
252.9189656414
 21
400.3342881848
 31
0.0
  0
ARC
  5
1D5
330
17C
100
AcDbEntity
  8
11755031_GEH_THM
  6
Continuous
 62
     7
100
AcDbCircle
 10
285.0686754851
 20
402.334272731
 30
0.0
 40
1.999983610727642
100
AcDbArc
 50
224.9619980504
 51
269.8592406982
  0
LINE
  5
1D6
330
17C
100
AcDbEntity
  8
11755031_GEH_THM
  6
Continuous
 62
     7
100
AcDbLine
 10
271.1699615806
 20
405.063883798
 30
0.0
 11
268.827521758
 21
431.8380934867
 31
0.0
  0
LINE
  5
1D7
330
17C
100
AcDbEntity
  8
11755031_GEH_THM
  6
Continuous
 62
     7
100
AcDbLine
 10
236.6532102725
 20
431.8380934867
 30
0.0
 11
233.7055775944
 21
398.146497807
 31
0.0
  0
LINE
  5
1D8
330
17C
100
AcDbEntity
  8
11755031_GEH_THM
  6
Continuous
 62
     7
100
AcDbLine
 10
233.7055775944
 20
363.5220785626
 30
0.0
 11
236.6532102725
 21
329.8304828829
 31
0.0
  0
LINE
  5
1D9
330
17C
100
AcDbEntity
  8
11755031_GEH_THM
  6
Continuous
 62
     7
100
AcDbLine
 10
268.827521758
 20
329.8304828829
 30
0.0
 11
269.7250268664
 21
340.0890132141
 31
0.0
  0
ARC
  5
1DA
330
17C
100
AcDbEntity
  8
11755031_GEH_THM
  6
Continuous
 62
     7
100
AcDbCircle
 10
274.147709169
 20
405.3251170896
 30
0.0
 40
2.98469681546773
100
AcDbArc
 50
185.0024468018
 51
199.3786686966
  0
SPLINE
  5
1DB
330
17C
100
AcDbEntity
  8
11755031_GEH_THM
  6
Continuous
 62
     7
100
AcDbSpline
210
0.0
220
0.0
230
1.0
 70
     8
 71
     3
 72
    18
 73
    14
 74
     0
 42
0.0000000040195514
 43
0.0000000001
 40
0.122370204248587
 40
0.122370204248587
 40
0.122370204248587
 40
0.122370204248587
 40
0.1324397973309482
 40
0.2180400643427492
 40
0.3026479480486889
 40
0.3882085145139361
 40
0.47689371252931
 40
0.571161302130679
 40
0.6718741208069134
 40
0.7751309083133384
 40
0.851110420950574
 40
0.9272443088346471
 40
1.0
 40
1.0
 40
1.0
 40
1.0
 10
269.1787106315537
 20
339.2663400668372
 30
0.0
 10
269.1787012435525
 20
339.2664560860305
 30
0.0
 10
269.178907988567
 20
339.2692007240261
 30
0.0
 10
269.1853768704527
 20
339.3024467378712
 30
0.0
 10
269.2257560366572
 20
339.426882320786
 30
0.0
 10
269.3151491411584
 20
339.6131374410965
 30
0.0
 10
269.4702003311567
 20
339.842550383218
 30
0.0
 10
269.7024070731713
 20
340.0865143823846
 30
0.0
 10
270.0023669573081
 20
340.3039916230569
 30
0.0
 10
270.3073069296844
 20
340.4439732324606
 30
0.0
 10
270.5487934730579
 20
340.5110840799936
 30
0.0
 10
270.7106725575645
 20
340.5336237111376
 30
0.0
 10
270.7593971613413
 20
340.5354439429125
 30
0.0
 10
270.7860649834606
 20
340.5355059246446
 30
0.0
  0
ARC
  5
1DC
330
17C
100
AcDbEntity
  8
11755031_GEH_THM
  6
Continuous
 62
     7
100
AcDbCircle
 10
302.8304033767
 20
342.5342881848
 30
0.0
 40
1.999999999999998
100
AcDbArc
 50
269.9884154303
 51
281.8932168757
  0
LINE
  5
1DD
330
17C
100
AcDbEntity
  8
11755031_GEH_THM
  6
Continuous
 62
     7
100
AcDbLine
 10
288.256868803
 20
340.0342881848
 30
0.0
 11
289.2012657234
 21
340.0342881848
 31
0.0
  0
LINE
  5
1DE
330
17C
100
AcDbEntity
  8
11755031_GEH_THM
  6
Continuous
 62
     7
100
AcDbLine
 10
292.4861245772
 20
340.5342881848
 30
0.0
 11
302.8304033767
 21
340.5342881848
 31
0.0
  0
LINE
  5
1DF
330
17C
100
AcDbEntity
  8
11755031_GEH_THM
  6
Continuous
 62
     7
100
AcDbLine
 10
281.2240370319
 20
340.5342881848
 30
0.0
 11
284.4861245772
 21
340.5342881848
 31
0.0
  0
LINE
  5
1E0
330
17C
100
AcDbEntity
  8
11755031_GEH_THM
  6
Continuous
 62
     7
100
AcDbLine
 10
270.7602707939
 20
340.5342881848
 30
0.0
 11
273.2240370319
 21
340.5342881848
 31
0.0
  0
LINE
  5
1E1
330
17C
100
AcDbEntity
  8
11755031_GEH_THM
  6
Continuous
 62
     7
100
AcDbLine
 10
280.1640370319
 20
340.0342881848
 30
0.0
 11
281.2240370319
 21
340.0342881848
 31
0.0
  0
LINE
  5
1E2
330
17C
100
AcDbEntity
  8
11755031_GEH_THM
  6
Continuous
 62
     7
100
AcDbLine
 10
273.2240370319
 20
340.0342881848
 30
0.0
 11
274.2840370319
 21
340.0342881848
 31
0.0
  0
LINE
  5
1E3
330
17C
100
AcDbEntity
  8
11755031_GEH_THM
  6
Continuous
 62
     7
100
AcDbLine
 10
292.4861245772
 20
340.037092452
 30
0.0
 11
292.4861245772
 21
340.1861742406
 31
0.0
  0
LINE
  5
1E4
330
17C
100
AcDbEntity
  8
11755031_GEH_THM
  6
Continuous
 62
     7
100
AcDbLine
 10
284.4861245772
 20
340.1861742406
 30
0.0
 11
284.4861245772
 21
340.0350701242
 31
0.0
  0
LINE
  5
1E5
330
17C
100
AcDbEntity
  8
11755031_GEH_THM
  6
Continuous
 62
     7
100
AcDbLine
 10
291.6036001745
 20
340.0342881848
 30
0.0
 11
292.4788220371
 21
340.0342881848
 31
0.0
  0
LINE
  5
1E6
330
17C
100
AcDbEntity
  8
11755031_GEH_THM
  6
Continuous
 62
     7
100
AcDbLine
 10
284.4881840471
 20
340.0342881848
 30
0.0
 11
285.3951599731
 21
340.0342881848
 31
0.0
  0
LINE
  5
1E7
330
17C
100
AcDbEntity
  8
11755031_GEH_THM
  6
Continuous
 62
     7
100
AcDbLine
 10
274.2840370319
 20
340.0342881848
 30
0.0
 11
274.2906684065
 21
340.0342881848
 31
0.0
  0
LINE
  5
1E8
330
17C
100
AcDbEntity
  8
11755031_GEH_THM
  6
Continuous
 62
     7
100
AcDbLine
 10
268.827521758
 20
431.8380934867
 30
0.0
 11
267.7403660152
 21
432.8342881848
 31
0.0
  0
LINE
  5
1E9
330
17C
100
AcDbEntity
  8
11755031_GEH_THM
  6
Continuous
 62
     7
100
AcDbLine
 10
237.7403660152
 20
432.8342881848
 30
0.0
 11
236.6532102725
 21
431.8380934867
 31
0.0
  0
LINE
  5
1EA
330
17C
100
AcDbEntity
  8
11755031_GEH_THM
  6
Continuous
 62
     7
100
AcDbLine
 10
236.6532102725
 20
329.8304828829
 30
0.0
 11
237.7403660152
 21
328.8342881848
 31
0.0
  0
LINE
  5
1EB
330
17C
100
AcDbEntity
  8
11755031_GEH_THM
  6
Continuous
 62
     7
100
AcDbLine
 10
267.7403660152
 20
328.8342881848
 30
0.0
 11
268.827521758
 21
329.8304828829
 31
0.0
  0
LINE
  5
1EC
330
17C
100
AcDbEntity
  8
11755031_GEH_THM
  6
Continuous
 62
     7
100
AcDbLine
 10
236.7932727117
 20
329.8329177196
 30
0.0
 11
237.845608668
 21
328.8342881848
 31
0.0
  0
LINE
  5
1ED
330
17C
100
AcDbEntity
  8
11755031_GEH_THM
  6
Continuous
 62
     7
100
AcDbLine
 10
267.6351233625
 20
328.8342881848
 30
0.0
 11
268.6874593187
 21
329.8329177196
 31
0.0
  0
LINE
  5
1EE
330
17C
100
AcDbEntity
  8
4220392_SCHABL_M
  6
Continuous
 62
     7
100
AcDbLine
 10
401.2403660152
 20
404.8282541811
 30
0.0
 11
401.2403660152
 21
356.8403221885
 31
0.0
  0
LINE
  5
1EF
330
17C
100
AcDbEntity
  8
4220392_SCHABL_M
  6
Continuous
 62
     7
100
AcDbLine
 10
326.2403660152
 20
412.3467881848
 30
0.0
 11
326.2403660152
 21
420.4842881848
 31
0.0
  0
LINE
  5
1F0
330
17C
100
AcDbEntity
  8
4220392_SCHABL_M
  6
Continuous
 62
     7
100
AcDbLine
 10
326.2403660152
 20
420.4842881848
 30
0.0
 11
305.2403660152
 21
418.6470262508
 31
0.0
  0
LINE
  5
1F1
330
17C
100
AcDbEntity
  8
4220392_SCHABL_M
  6
Continuous
 62
     7
100
AcDbLine
 10
326.2403660152
 20
340.3842881848
 30
0.0
 11
305.2403660152
 21
342.2215501188
 31
0.0
  0
LINE
  5
1F2
330
17C
100
AcDbEntity
  8
4220392_SCHABL_M
  6
Continuous
 62
     7
100
AcDbLine
 10
326.2403660152
 20
340.3842881848
 30
0.0
 11
326.2403660152
 21
345.3915777278
 31
0.0
  0
LINE
  5
1F3
330
17C
100
AcDbEntity
  8
4220392_SCHABL_M
  6
Continuous
 62
     7
100
AcDbLine
 10
326.2403660152
 20
345.3915777278
 30
0.0
 11
326.2403660152
 21
366.094875147
 31
0.0
  0
LINE
  5
1F4
330
17C
100
AcDbEntity
  8
4220392_SCHABL_M
  6
Continuous
 62
     7
100
AcDbLine
 10
326.2403660152
 20
366.094875147
 30
0.0
 11
326.2403660152
 21
390.5871728002
 31
0.0
  0
LINE
  5
1F5
330
17C
100
AcDbEntity
  8
4220392_SCHABL_M
  6
Continuous
 62
     7
100
AcDbLine
 10
326.2403660152
 20
390.5871728002
 30
0.0
 11
326.2403660152
 21
412.3467881848
 31
0.0
  0
LINE
  5
1F6
330
17C
100
AcDbEntity
  8
4220392_SCHABL_M
  6
Continuous
 62
     7
100
AcDbLine
 10
305.2403660152
 20
411.6048170191
 30
0.0
 11
305.2403660152
 21
418.6470262508
 31
0.0
  0
LINE
  5
1F7
330
17C
100
AcDbEntity
  8
4220392_SCHABL_M
  6
Continuous
 62
     7
100
AcDbLine
 10
305.2403660152
 20
342.2215501188
 30
0.0
 11
305.2403660152
 21
346.5129095086
 31
0.0
  0
LINE
  5
1F8
330
17C
100
AcDbEntity
  8
4220392_SCHABL_M
  6
Continuous
 62
     7
100
AcDbLine
 10
305.2403660152
 20
346.5129095086
 30
0.0
 11
305.2403660152
 21
367.2162069277
 31
0.0
  0
LINE
  5
1F9
330
17C
100
AcDbEntity
  8
4220392_SCHABL_M
  6
Continuous
 62
     7
100
AcDbLine
 10
305.2403660152
 20
367.2162069277
 30
0.0
 11
305.2403660152
 21
389.8452016345
 31
0.0
  0
LINE
  5
1FA
330
17C
100
AcDbEntity
  8
4220392_SCHABL_M
  6
Continuous
 62
     7
100
AcDbLine
 10
305.2403660152
 20
389.8452016345
 30
0.0
 11
305.2403660152
 21
406.8342881848
 31
0.0
  0
LINE
  5
1FB
330
17C
100
AcDbEntity
  8
4220392_SCHABL_M
  6
Continuous
 62
     7
100
AcDbLine
 10
287.2403660152
 20
417.832835082
 30
0.0
 11
305.2403660152
 21
418.1470262508
 31
0.0
  0
LINE
  5
1FC
330
17C
100
AcDbEntity
  8
4220392_SCHABL_M
  6
Continuous
 62
     7
100
AcDbLine
 10
287.2403660152
 20
406.8342881848
 30
0.0
 11
287.2403660152
 21
411.2760090471
 31
0.0
  0
LINE
  5
1FD
330
17C
100
AcDbEntity
  8
4220392_SCHABL_M
  6
Continuous
 62
     7
100
AcDbLine
 10
287.2403660152
 20
411.2760090471
 30
0.0
 11
287.2403660152
 21
417.832835082
 31
0.0
  0
LINE
  5
1FE
330
17C
100
AcDbEntity
  8
4220392_SCHABL_M
  6
Continuous
 62
     7
100
AcDbLine
 10
406.2403660152
 20
373.3342881848
 30
0.0
 11
406.2403660152
 21
378.3342881848
 31
0.0
  0
LINE
  5
1FF
330
17C
100
AcDbEntity
  8
4220392_SCHABL_M
  6
Continuous
 62
     7
100
AcDbLine
 10
303.2403660152
 20
406.8342881848
 30
0.0
 11
287.2403660152
 21
406.8342881848
 31
0.0
  0
LINE
  5
200
330
17C
100
AcDbEntity
  8
4220392_SCHABL_M
  6
Continuous
 62
     7
100
AcDbLine
 10
305.2403660152
 20
406.8342881848
 30
0.0
 11
305.2403660152
 21
411.6048170191
 31
0.0
  0
LINE
  5
201
330
17C
100
AcDbEntity
  8
4220392_SCHABL_M
  6
Continuous
 62
     7
100
AcDbLine
 10
303.2403660152
 20
406.8342881848
 30
0.0
 11
305.2403660152
 21
406.8342881848
 31
0.0
  0
LINE
  5
202
330
17C
100
AcDbEntity
  8
4220392_SCHABL_M
  6
Continuous
 62
     7
100
AcDbLine
 10
303.2403660152
 20
406.8342881848
 30
0.0
 11
303.2403660152
 21
389.8452016345
 31
0.0
  0
LINE
  5
203
330
17C
100
AcDbEntity
  8
4220392_SCHABL_M
  6
Continuous
 62
     7
100
AcDbLine
 10
303.2403660152
 20
389.8452016345
 30
0.0
 11
303.2403660152
 21
367.2162069277
 31
0.0
  0
LINE
  5
204
330
17C
100
AcDbEntity
  8
4220392_SCHABL_M
  6
Continuous
 62
     7
100
AcDbLine
 10
303.2403660152
 20
367.2162069277
 30
0.0
 11
303.2403660152
 21
349.8606108015
 31
0.0
  0
LINE
  5
205
330
17C
100
AcDbEntity
  8
4220392_SCHABL_M
  6
Continuous
 62
     7
100
AcDbLine
 10
303.2403660152
 20
342.2215501188
 30
0.0
 11
305.2403660152
 21
342.2215501188
 31
0.0
  0
ARC
  5
206
330
17C
100
AcDbEntity
  8
4220392_SCHABL_M
  6
Continuous
 62
     7
100
AcDbCircle
 10
399.2403660152
 20
356.8403221885
 30
0.0
 40
2.0
100
AcDbArc
 50
272.5
 51
0.0
  0
ARC
  5
207
330
17C
100
AcDbEntity
  8
4220392_SCHABL_M
  6
Continuous
 62
     7
100
AcDbCircle
 10
399.2403660152
 20
404.8282541811
 30
0.0
 40
2.000000000000002
100
AcDbArc
 50
0.0
 51
87.5
  0
LINE
  5
208
330
17C
100
AcDbEntity
  8
4220392_SCHABL_M
  6
Continuous
 62
     7
100
AcDbLine
 10
326.2403660152
 20
351.6511679859
 30
0.0
 11
399.32760479
 21
354.8422257454
 31
0.0
  0
LINE
  5
209
330
17C
100
AcDbEntity
  8
4220392_SCHABL_M
  6
Continuous
 62
     7
100
AcDbLine
 10
399.32760479
 20
406.8263506242
 30
0.0
 11
326.2403660152
 21
410.0174083837
 31
0.0
  0
LINE
  5
20A
330
17C
100
AcDbEntity
  8
4220392_SCHABL_M
  6
Continuous
 62
     7
100
AcDbLine
 10
401.2403660152
 20
373.3342881848
 30
0.0
 11
406.2403660152
 21
373.3342881848
 31
0.0
  0
LINE
  5
20B
330
17C
100
AcDbEntity
  8
4220392_SCHABL_M
  6
Continuous
 62
     7
100
AcDbLine
 10
406.2403660152
 20
378.3342881848
 30
0.0
 11
401.2403660152
 21
378.3342881848
 31
0.0
  0
ENDBLK
  5
20D
330
17C
100
AcDbEntity
  8
0
100
AcDbBlockEnd
  0
BLOCK
  5
2B0
330
20E
100
AcDbEntity
  8
0
100
AcDbBlockBegin
  2
SE2
 70
     0
 10
0.0
 20
0.0
 30
0.0
  3
SE2
  1

  0
LINE
  5
210
330
20E
100
AcDbEntity
  8
11755031_GEH_THM
  6
Continuous
 62
     7
100
AcDbLine
 10
66.0132720985
 20
284.0553290939
 30
0.0
 11
40.0365153922
 21
284.0553290939
 31
0.0
  0
SPLINE
  5
211
330
20E
100
AcDbEntity
  8
11755031_GEH_THM
  6
Continuous
 62
     7
100
AcDbSpline
210
0.0
220
0.0
230
1.0
 70
     8
 71
     3
 72
    16
 73
    12
 74
     0
 42
0.0000000004680378
 43
0.0000000001
 40
0.0
 40
0.0
 40
0.0
 40
0.0
 40
0.2500000000000016
 40
0.2500000000000016
 40
0.3750000000000014
 40
0.3750000000000014
 40
0.5000000000000013
 40
0.5000000000000013
 40
0.7500000000000007
 40
0.7500000000000007
 40
1.0
 40
1.0
 40
1.0
 40
1.0
 10
40.03651539221466
 20
284.0553290939009
 30
0.0
 10
38.24968817810505
 20
284.0553290939009
 30
0.0
 10
36.49602114775669
 20
283.7065342318224
 30
0.0
 10
34.03746127292474
 20
282.6919450466934
 30
0.0
 10
33.26004032898356
 20
282.2777859845621
 30
0.0
 10
31.78863892087764
 20
281.2989094330563
 30
0.0
 10
31.09155604927304
 20
280.7287091900593
 30
0.0
 10
29.21701764821085
 20
278.8595718051205
 30
0.0
 10
28.20735883002985
 20
277.3522465767381
 30
0.0
 10
26.85431638155771
 20
274.09909920617
 30
0.0
 10
26.49477081770905
 20
272.2984277043565
 30
0.0
 10
26.49477081770908
 20
270.536802422929
 30
0.0
  0
LINE
  5
212
330
20E
100
AcDbEntity
  8
11755031_GEH_THM
  6
Continuous
 62
     7
100
AcDbLine
 10
152.9530262432
 20
284.0553290939
 30
0.0
 11
126.9762695369
 21
284.0553290939
 31
0.0
  0
SPLINE
  5
213
330
20E
100
AcDbEntity
  8
11755031_GEH_THM
  6
Continuous
 62
     7
100
AcDbSpline
210
0.0
220
0.0
230
1.0
 70
     8
 71
     3
 72
    16
 73
    12
 74
     0
 42
0.0000000004680378
 43
0.0000000001
 40
0.0
 40
0.0
 40
0.0
 40
0.0
 40
0.2499999999999993
 40
0.2499999999999993
 40
0.3749999999999992
 40
0.3749999999999992
 40
0.4999999999999992
 40
0.4999999999999992
 40
0.7499999999999996
 40
0.7499999999999996
 40
1.0
 40
1.0
 40
1.0
 40
1.0
 10
152.9530262432035
 20
284.0553290939009
 30
0.0
 10
154.7398534573116
 20
284.0553290939012
 30
0.0
 10
156.4935204876615
 20
283.7065342318224
 30
0.0
 10
158.9520803624934
 20
282.6919450466934
 30
0.0
 10
159.7295013064345
 20
282.2777859845621
 30
0.0
 10
161.2009027145405
 20
281.2989094330563
 30
0.0
 10
161.8979855861451
 20
280.7287091900594
 30
0.0
 10
163.7725239872073
 20
278.8595718051206
 30
0.0
 10
164.7821828053883
 20
277.3522465767381
 30
0.0
 10
166.1352252538604
 20
274.09909920617
 30
0.0
 10
166.4947708177091
 20
272.2984277043565
 30
0.0
 10
166.4947708177091
 20
270.536802422929
 30
0.0
  0
ELLIPSE
  5
214
330
20E
100
AcDbEntity
  8
11755031_GEH_THM
  6
Continuous
 62
     7
100
AcDbEllipse
 10
127.0132974887
 20
270.5368024229
 30
0.0
 11
9.572124286373402
 21
-9.572124286373402
 31
0.0
210
0.0
220
0.0
230
0.9999999999999998
 40
0.9972646886
 41
2.357564018062736
 42
3.214069566266122
  0
SPLINE
  5
215
330
20E
100
AcDbEntity
  8
11755031_GEH_THM
  6
Continuous
 62
     7
100
AcDbSpline
210
0.0
220
0.0
230
1.0
 70
     8
 71
     3
 72
    10
 73
     6
 74
     0
 42
0.0000000012197743
 43
0.0000000001
 40
0.0
 40
0.0
 40
0.0
 40
0.0
 40
0.5000000000000003
 40
0.5000000000000003
 40
1.0
 40
1.0
 40
1.0
 40
1.0
 10
116.7750481003053
 20
279.3925421745932
 30
0.0
 10
115.8964558651249
 20
278.37597632031
 30
0.0
 10
114.6110754714647
 20
277.7510296616866
 30
0.0
 10
111.9638483656949
 20
277.5981344746936
 30
0.0
 10
110.5985810200695
 20
278.0840482431609
 30
0.0
 10
109.6189199444627
 20
278.9755215365311
 30
0.0
  0
ELLIPSE
  5
216
330
20E
100
AcDbEntity
  8
11755031_GEH_THM
  6
Continuous
 62
     7
100
AcDbEllipse
 10
65.9762441467
 20
270.5368024229
 30
0.0
 11
-9.572124286373402
 21
-9.572124286373402
 31
0.0
210
0.0
220
0.0
230
0.9999999999999998
 40
0.9972646886
 41
3.069115740913473
 42
3.925621289116846
  0
SPLINE
  5
217
330
20E
100
AcDbEntity
  8
11755031_GEH_THM
  6
Continuous
 62
     7
100
AcDbSpline
210
0.0
220
0.0
230
1.0
 70
     8
 71
     3
 72
    10
 73
     6
 74
     0
 42
0.0000000012197743
 43
0.0000000001
 40
0.0
 40
0.0
 40
0.0
 40
0.0
 40
0.5
 40
0.5
 40
1.0
 40
1.0
 40
1.0
 40
1.0
 10
83.37062169095542
 20
278.9755215365311
 30
0.0
 10
82.39096061534867
 20
278.0840482431609
 30
0.0
 10
81.02569326972328
 20
277.5981344746936
 30
0.0
 10
78.37846616395345
 20
277.7510296616866
 30
0.0
 10
77.09308577029326
 20
278.37597632031
 30
0.0
 10
76.21449353511291
 20
279.3925421745932
 30
0.0
  0
LINE
  5
218
330
20E
100
AcDbEntity
  8
11755031_GEH_THM
  6
Continuous
 62
     7
100
AcDbLine
 10
44.0638150331
 20
238.3094129195
 30
0.0
 11
42.9848301457
 21
238.3094129195
 31
0.0
  0
LINE
  5
219
330
20E
100
AcDbEntity
  8
11755031_GEH_THM
  6
Continuous
 62
     7
100
AcDbLine
 10
42.9848301457
 20
238.3094129195
 30
0.0
 11
40.8610776507
 21
246.3094129195
 31
0.0
  0
LINE
  5
21A
330
20E
100
AcDbEntity
  8
11755031_GEH_THM
  6
Continuous
 62
     7
100
AcDbLine
 10
40.8610776507
 20
246.3094129195
 30
0.0
 11
41.946905994
 21
246.3094129195
 31
0.0
  0
LINE
  5
21B
330
20E
100
AcDbEntity
  8
11755031_GEH_THM
  6
Continuous
 62
     7
100
AcDbLine
 10
41.946905994
 20
246.3094129195
 30
0.0
 11
43.1627600003
 21
241.0650445134
 31
0.0
  0
SPLINE
  5
21C
330
20E
100
AcDbEntity
  8
11755031_GEH_THM
  6
Continuous
 62
     7
100
AcDbSpline
210
0.0
220
0.0
230
1.0
 70
     8
 71
     3
 72
     8
 73
     4
 74
     0
 42
0.0000000059762398
 43
0.0000000001
 40
0.0
 40
0.0
 40
0.0
 40
0.0
 40
1.0
 40
1.0
 40
1.0
 40
1.0
 10
43.16276000026998
 20
241.0650445134289
 30
0.0
 10
43.29506681521153
 20
240.515286885827
 30
0.0
 10
43.40684326231732
 20
239.9700915621885
 30
0.0
 10
43.50265164555086
 20
239.4271773905318
 30
0.0
  0
SPLINE
  5
21D
330
20E
100
AcDbEntity
  8
11755031_GEH_THM
  6
Continuous
 62
     7
100
AcDbSpline
210
0.0
220
0.0
230
1.0
 70
     8
 71
     3
 72
     8
 73
     4
 74
     0
 42
0.0000000065625945
 43
0.0000000001
 40
0.0
 40
0.0
 40
0.0
 40
0.0
 40
1.0
 40
1.0
 40
1.0
 40
1.0
 10
43.50265164555086
 20
239.4271773905318
 30
0.0
 10
43.70567417192667
 20
240.2826093836884
 30
0.0
 10
43.82657522695946
 20
240.7753382117465
 30
0.0
 10
43.86307365866747
 20
240.9076450266881
 30
0.0
  0
LINE
  5
21E
330
20E
100
AcDbEntity
  8
11755031_GEH_THM
  6
Continuous
 62
     7
100
AcDbLine
 10
43.8630736587
 20
240.9076450267
 30
0.0
 11
45.3846020305
 21
246.3094129195
 31
0.0
  0
LINE
  5
21F
330
20E
100
AcDbEntity
  8
11755031_GEH_THM
  6
Continuous
 62
     7
100
AcDbLine
 10
45.3846020305
 20
246.3094129195
 30
0.0
 11
46.6620471403
 21
246.3094129195
 31
0.0
  0
LINE
  5
220
330
20E
100
AcDbEntity
  8
11755031_GEH_THM
  6
Continuous
 62
     7
100
AcDbLine
 10
46.6620471403
 20
246.3094129195
 30
0.0
 11
47.8094665871
 21
242.2603681519
 31
0.0
  0
SPLINE
  5
221
330
20E
100
AcDbEntity
  8
11755031_GEH_THM
  6
Continuous
 62
     7
100
AcDbSpline
210
0.0
220
0.0
230
1.0
 70
     8
 71
     3
 72
     8
 73
     4
 74
     0
 42
0.0000000034424269
 43
0.0000000001
 40
0.0
 40
0.0
 40
0.0
 40
0.0
 40
1.0
 40
1.0
 40
1.0
 40
1.0
 10
47.80946658709634
 20
242.2603681518663
 30
0.0
 10
48.09689173679693
 20
241.256661279896
 30
0.0
 10
48.30447656713626
 20
240.3122643594511
 30
0.0
 10
48.42993992613255
 20
239.4271773905318
 30
0.0
  0
SPLINE
  5
222
330
20E
100
AcDbEntity
  8
11755031_GEH_THM
  6
Continuous
 62
     7
100
AcDbSpline
210
0.0
220
0.0
230
1.0
 70
     8
 71
     3
 72
     8
 73
     4
 74
     0
 42
0.0000000055921141
 43
0.0000000001
 40
0.0
 40
0.0
 40
0.0
 40
0.0
 40
1.0
 40
1.0
 40
1.0
 40
1.0
 10
48.42993992613255
 20
239.4271773905318
 30
0.0
 10
48.53259176531133
 20
239.9335931304805
 30
0.0
 10
48.66489858025289
 20
240.5130057338452
 30
0.0
 10
48.82914152293893
 20
241.1699775045894
 30
0.0
  0
LINE
  5
223
330
20E
100
AcDbEntity
  8
11755031_GEH_THM
  6
Continuous
 62
     7
100
AcDbLine
 10
48.8291415229
 20
241.1699775046
 30
0.0
 11
50.0837751129
 21
246.3094129195
 31
0.0
  0
LINE
  5
224
330
20E
100
AcDbEntity
  8
11755031_GEH_THM
  6
Continuous
 62
     7
100
AcDbLine
 10
50.0837751129
 20
246.3094129195
 30
0.0
 11
51.1490730884
 21
246.3094129195
 31
0.0
  0
LINE
  5
225
330
20E
100
AcDbEntity
  8
11755031_GEH_THM
  6
Continuous
 62
     7
100
AcDbLine
 10
51.1490730884
 20
246.3094129195
 30
0.0
 11
48.9546048819
 21
238.3094129195
 31
0.0
  0
LINE
  5
226
330
20E
100
AcDbEntity
  8
11755031_GEH_THM
  6
Continuous
 62
     7
100
AcDbLine
 10
48.9546048819
 20
238.3094129195
 30
0.0
 11
47.9349299461
 21
238.3094129195
 31
0.0
  0
LINE
  5
227
330
20E
100
AcDbEntity
  8
11755031_GEH_THM
  6
Continuous
 62
     7
100
AcDbLine
 10
47.9349299461
 20
238.3094129195
 30
0.0
 11
46.2468774796
 21
244.4046510147
 31
0.0
  0
SPLINE
  5
228
330
20E
100
AcDbEntity
  8
11755031_GEH_THM
  6
Continuous
 62
     7
100
AcDbSpline
210
0.0
220
0.0
230
1.0
 70
     8
 71
     3
 72
     8
 73
     4
 74
     0
 42
0.000000010278351
 43
0.0000000001
 40
0.0
 40
0.0
 40
0.0
 40
0.0
 40
1.0
 40
1.0
 40
1.0
 40
1.0
 10
46.24687747959705
 20
244.404651014712
 30
0.0
 10
46.1054460567285
 20
244.9156290586242
 30
0.0
 10
46.02104343340372
 20
245.2281468801241
 30
0.0
 10
45.99595076160446
 20
245.3444856311934
 30
0.0
  0
SPLINE
  5
229
330
20E
100
AcDbEntity
  8
11755031_GEH_THM
  6
Continuous
 62
     7
100
AcDbSpline
210
0.0
220
0.0
230
1.0
 70
     8
 71
     3
 72
     8
 73
     4
 74
     0
 42
0.00000001032
 43
0.0000000001
 40
0.0
 40
0.0
 40
0.0
 40
0.0
 40
1.0
 40
1.0
 40
1.0
 40
1.0
 10
45.99595076160446
 20
245.3444856311934
 30
0.0
 10
45.91382929026143
 20
244.9772201621315
 30
0.0
 10
45.83398897090016
 20
244.6647023406316
 30
0.0
 10
45.76099210748414
 20
244.404651014712
 30
0.0
  0
LINE
  5
22A
330
20E
100
AcDbEntity
  8
11755031_GEH_THM
  6
Continuous
 62
     7
100
AcDbLine
 10
45.7609921075
 20
244.4046510147
 30
0.0
 11
44.0638150331
 21
238.3094129195
 31
0.0
  0
LINE
  5
22B
330
20E
100
AcDbEntity
  8
11755031_GEH_THM
  6
Continuous
 62
     7
100
AcDbLine
 10
144.7496249099
 20
238.3053290939
 30
0.0
 11
143.6911703903
 21
238.3053290939
 31
0.0
  0
LINE
  5
22C
330
20E
100
AcDbEntity
  8
11755031_GEH_THM
  6
Continuous
 62
     7
100
AcDbLine
 10
143.6911703903
 20
238.3053290939
 30
0.0
 11
143.6911703903
 21
246.3053290939
 31
0.0
  0
LINE
  5
22D
330
20E
100
AcDbEntity
  8
11755031_GEH_THM
  6
Continuous
 62
     7
100
AcDbLine
 10
143.6911703903
 20
246.3053290939
 30
0.0
 11
144.7496249099
 21
246.3053290939
 31
0.0
  0
LINE
  5
22E
330
20E
100
AcDbEntity
  8
11755031_GEH_THM
  6
Continuous
 62
     7
100
AcDbLine
 10
144.7496249099
 20
246.3053290939
 30
0.0
 11
144.7496249099
 21
242.3384057976
 31
0.0
  0
LINE
  5
22F
330
20E
100
AcDbEntity
  8
11755031_GEH_THM
  6
Continuous
 62
     7
100
AcDbLine
 10
144.7496249099
 20
242.3384057976
 30
0.0
 11
148.7233916621
 21
246.3053290939
 31
0.0
  0
LINE
  5
230
330
20E
100
AcDbEntity
  8
11755031_GEH_THM
  6
Continuous
 62
     7
100
AcDbLine
 10
148.7233916621
 20
246.3053290939
 30
0.0
 11
150.1582362586
 21
246.3053290939
 31
0.0
  0
LINE
  5
231
330
20E
100
AcDbEntity
  8
11755031_GEH_THM
  6
Continuous
 62
     7
100
AcDbLine
 10
150.1582362586
 20
246.3053290939
 30
0.0
 11
146.8026616934
 21
243.0638121278
 31
0.0
  0
LINE
  5
232
330
20E
100
AcDbEntity
  8
11755031_GEH_THM
  6
Continuous
 62
     7
100
AcDbLine
 10
146.8026616934
 20
243.0638121278
 30
0.0
 11
150.3065111374
 21
238.3053290939
 31
0.0
  0
LINE
  5
233
330
20E
100
AcDbEntity
  8
11755031_GEH_THM
  6
Continuous
 62
     7
100
AcDbLine
 10
150.3065111374
 20
238.3053290939
 30
0.0
 11
148.9081649726
 21
238.3053290939
 31
0.0
  0
LINE
  5
234
330
20E
100
AcDbEntity
  8
11755031_GEH_THM
  6
Continuous
 62
     7
100
AcDbLine
 10
148.9081649726
 20
238.3053290939
 30
0.0
 11
146.0590061474
 21
242.3543738615
 31
0.0
  0
LINE
  5
235
330
20E
100
AcDbEntity
  8
11755031_GEH_THM
  6
Continuous
 62
     7
100
AcDbLine
 10
146.0590061474
 20
242.3543738615
 30
0.0
 11
144.7496249099
 21
241.0769287517
 31
0.0
  0
LINE
  5
236
330
20E
100
AcDbEntity
  8
11755031_GEH_THM
  6
Continuous
 62
     7
100
AcDbLine
 10
144.7496249099
 20
241.0769287517
 30
0.0
 11
144.7496249099
 21
238.3053290939
 31
0.0
  0
LINE
  5
237
330
20E
100
AcDbEntity
  8
11755031_GEH_THM
  6
Continuous
 62
     7
100
AcDbLine
 10
62.9947708177
 20
267.7372393057
 30
0.0
 11
62.9947708177
 21
259.7372393057
 31
0.0
  0
LINE
  5
238
330
20E
100
AcDbEntity
  8
11755031_GEH_THM
  6
Continuous
 62
     7
100
AcDbLine
 10
62.9947708177
 20
259.7372393057
 30
0.0
 11
54.9947708177
 21
259.7372393057
 31
0.0
  0
LINE
  5
239
330
20E
100
AcDbEntity
  8
11755031_GEH_THM
  6
Continuous
 62
     7
100
AcDbLine
 10
54.9947708177
 20
259.7372393057
 30
0.0
 11
54.9947708177
 21
267.7372393057
 31
0.0
  0
LINE
  5
23A
330
20E
100
AcDbEntity
  8
11755031_GEH_THM
  6
Continuous
 62
     7
100
AcDbLine
 10
54.9947708177
 20
267.7372393057
 30
0.0
 11
62.9947708177
 21
267.7372393057
 31
0.0
  0
LINE
  5
23B
330
20E
100
AcDbEntity
  8
11755031_GEH_THM
  6
Continuous
 62
     7
100
AcDbLine
 10
62.4947708177
 20
267.2372393057
 30
0.0
 11
62.4947708177
 21
260.2372393057
 31
0.0
  0
LINE
  5
23C
330
20E
100
AcDbEntity
  8
11755031_GEH_THM
  6
Continuous
 62
     7
100
AcDbLine
 10
62.4947708177
 20
260.2372393057
 30
0.0
 11
55.4947708177
 21
260.2372393057
 31
0.0
  0
LINE
  5
23D
330
20E
100
AcDbEntity
  8
11755031_GEH_THM
  6
Continuous
 62
     7
100
AcDbLine
 10
55.4947708177
 20
260.2372393057
 30
0.0
 11
55.4947708177
 21
267.2372393057
 31
0.0
  0
LINE
  5
23E
330
20E
100
AcDbEntity
  8
11755031_GEH_THM
  6
Continuous
 62
     7
100
AcDbLine
 10
55.4947708177
 20
267.2372393057
 30
0.0
 11
62.4947708177
 21
267.2372393057
 31
0.0
  0
CIRCLE
  5
23F
330
20E
100
AcDbEntity
  8
11755031_GEH_THM
  6
Continuous
 62
     7
100
AcDbCircle
 10
133.9947708177
 20
264.5553290939
 30
0.0
 40
3.999999999999993
  0
CIRCLE
  5
240
330
20E
100
AcDbEntity
  8
11755031_GEH_THM
  6
Continuous
 62
     7
100
AcDbCircle
 10
133.9947708177
 20
264.5553290939
 30
0.0
 40
3.5
  0
SPLINE
  5
241
330
20E
100
AcDbEntity
  8
11755031_GEH_THM
  6
Continuous
 62
     7
100
AcDbSpline
210
0.0
220
0.0
230
1.0
 70
     8
 71
     3
 72
    20
 73
    16
 74
     0
 42
0.000000003063232
 43
0.0000000001
 40
0.0
 40
0.0
 40
0.0
 40
0.0
 40
0.1249999999999994
 40
0.1249999999999994
 40
0.2499999999999987
 40
0.2499999999999987
 40
0.4999999999999991
 40
0.4999999999999991
 40
0.6249999999999992
 40
0.6249999999999992
 40
0.7499999999999994
 40
0.7499999999999994
 40
0.8749999999999998
 40
0.8749999999999998
 40
1.0
 40
1.0
 40
1.0
 40
1.0
 10
115.3350366784886
 20
243.9559991578216
 30
0.0
 10
115.4372855506549
 20
243.962465347162
 30
0.0
 10
115.5425356546542
 20
243.9800923020244
 30
0.0
 10
115.7589386391402
 20
244.0352109580206
 30
0.0
 10
115.8706440671758
 20
244.0730242918248
 30
0.0
 10
116.2059446492566
 20
244.2116923819601
 30
0.0
 10
116.4339448016448
 20
244.3379597237229
 30
0.0
 10
116.7692229452127
 20
244.5778892067526
 30
0.0
 10
116.8787104542542
 20
244.6656420358293
 30
0.0
 10
117.0899454968351
 20
244.8603616448917
 30
0.0
 10
117.1927301056052
 20
244.9683022222503
 30
0.0
 10
117.3781397514832
 20
245.2073067837485
 30
0.0
 10
117.4618986146823
 20
245.3398779002357
 30
0.0
 10
117.5842361558799
 20
245.6305571361539
 30
0.0
 10
117.6217874715017
 20
245.7914815232757
 30
0.0
 10
117.6217874715017
 20
245.9532582273307
 30
0.0
  0
LINE
  5
242
330
20E
100
AcDbEntity
  8
11755031_GEH_THM
  6
Continuous
 62
     7
100
AcDbLine
 10
128.4833377605
 20
246.0553290939
 30
0.0
 11
121.4929310172
 21
246.0553290939
 31
0.0
  0
LINE
  5
243
330
20E
100
AcDbEntity
  8
11755031_GEH_THM
  6
Continuous
 62
     7
100
AcDbLine
 10
121.4929310172
 20
246.0553290939
 30
0.0
 11
117.6217874715
 21
246.0553290939
 31
0.0
  0
ARC
  5
244
330
20E
100
AcDbEntity
  8
11755031_GEH_THM
  6
Continuous
 62
     7
100
AcDbCircle
 10
126.622171421
 20
245.4314345267
 30
0.0
 40
2.065249249173397
100
AcDbArc
 50
275.4476834842
 51
1.9596845452
  0
ELLIPSE
  5
245
330
20E
100
AcDbEntity
  8
11755031_GEH_THM
  6
Continuous
 62
     7
100
AcDbEllipse
 10
121.4947708177
 20
243.6884746389
 30
0.0
 11
7.999999999999996
 21
0.0
 31
0.0
210
0.0
220
0.0
230
1.0
 40
0.0524077793
 41
2.449585394972314
 42
5.440463525713711
  0
LINE
  5
246
330
20E
100
AcDbEntity
  8
11755031_GEH_THM
  6
Continuous
 62
     7
100
AcDbLine
 10
117.6217874715
 20
245.9532582273
 30
0.0
 11
117.6217874715
 21
246.0553290939
 31
0.0
  0
LINE
  5
247
330
20E
100
AcDbEntity
  8
11755031_GEH_THM
  6
Continuous
 62
     7
100
AcDbLine
 10
128.6862127807
 20
245.5020583669
 30
0.0
 11
128.6862127807
 21
246.0553290939
 31
0.0
  0
LINE
  5
248
330
20E
100
AcDbEntity
  8
11755031_GEH_THM
  6
Continuous
 62
     7
100
AcDbLine
 10
128.4833377605
 20
246.0553290939
 30
0.0
 11
128.6862127807
 21
246.0553290939
 31
0.0
  0
SPLINE
  5
249
330
20E
100
AcDbEntity
  8
11755031_GEH_THM
  6
Continuous
 62
     7
100
AcDbSpline
210
0.0
220
0.0
230
1.0
 70
     8
 71
     3
 72
    20
 73
    16
 74
     0
 42
0.0000000030622946
 43
0.0000000001
 40
0.0
 40
0.0
 40
0.0
 40
0.0
 40
0.1250000000000007
 40
0.1250000000000007
 40
0.2500000000000014
 40
0.2500000000000014
 40
0.3750000000000021
 40
0.3750000000000021
 40
0.5000000000000028
 40
0.5000000000000028
 40
0.6250000000000034
 40
0.6250000000000034
 40
0.7500000000000042
 40
0.7500000000000042
 40
1.0
 40
1.0
 40
1.0
 40
1.0
 10
75.3677541639165
 20
245.9532582273307
 30
0.0
 10
75.3677541639165
 20
245.7914922028569
 30
0.0
 10
75.4052409506537
 20
245.6304700864642
 30
0.0
 10
75.52836348182008
 20
245.3384077120031
 30
0.0
 10
75.61194746330189
 20
245.2065502823376
 30
0.0
 10
75.79686100220486
 20
244.968291836507
 30
0.0
 10
75.89997867845958
 20
244.8599739621465
 30
0.0
 10
76.11127404386619
 20
244.6652689873937
 30
0.0
 10
76.22049701548464
 20
244.5777825858869
 30
0.0
 10
76.44292703099867
 20
244.4185668057286
 30
0.0
 10
76.55685871877236
 20
244.3465668247024
 30
0.0
 10
76.78294979758223
 20
244.2201543488182
 30
0.0
 10
76.8953071596145
 20
244.1655162884078
 30
0.0
 10
77.22937320286105
 20
244.0272894261088
 30
0.0
 10
77.45014883494423
 20
243.9689225803459
 30
0.0
 10
77.65450495692951
 20
243.9559991578216
 30
0.0
  0
LINE
  5
24A
330
20E
100
AcDbEntity
  8
11755031_GEH_THM
  6
Continuous
 62
     7
100
AcDbLine
 10
71.4966106182
 20
246.0553290939
 30
0.0
 11
64.5062038749
 21
246.0553290939
 31
0.0
  0
LINE
  5
24B
330
20E
100
AcDbEntity
  8
11755031_GEH_THM
  6
Continuous
 62
     7
100
AcDbLine
 10
64.5062038749
 20
246.0553290939
 30
0.0
 11
64.3033288547
 21
246.0553290939
 31
0.0
  0
LINE
  5
24C
330
20E
100
AcDbEntity
  8
11755031_GEH_THM
  6
Continuous
 62
     7
100
AcDbLine
 10
75.3677541639
 20
246.0553290939
 30
0.0
 11
71.4966106182
 21
246.0553290939
 31
0.0
  0
ARC
  5
24D
330
20E
100
AcDbEntity
  8
11755031_GEH_THM
  6
Continuous
 62
     7
100
AcDbCircle
 10
66.3602488019
 20
245.4251790243
 30
0.0
 40
2.058356165125911
100
AcDbArc
 50
177.8595120098
 51
264.7331199608
  0
LINE
  5
24E
330
20E
100
AcDbEntity
  8
11755031_GEH_THM
  6
Continuous
 62
     7
100
AcDbLine
 10
64.3033288547
 20
245.5020583669
 30
0.0
 11
64.3033288547
 21
246.0553290939
 31
0.0
  0
LINE
  5
24F
330
20E
100
AcDbEntity
  8
11755031_GEH_THM
  6
Continuous
 62
     7
100
AcDbLine
 10
75.3677541639
 20
246.0553290939
 30
0.0
 11
75.3677541639
 21
245.9532582273
 31
0.0
  0
ELLIPSE
  5
250
330
20E
100
AcDbEntity
  8
11755031_GEH_THM
  6
Continuous
 62
     7
100
AcDbEllipse
 10
71.4947708177
 20
243.6884746389
 30
0.0
 11
-8.000000000000011
 21
0.0
 31
0.0
210
0.0
220
0.0
230
1.0
 40
0.0524077793
 41
0.8427217814658865
 42
3.833599912207258
  0
ELLIPSE
  5
251
330
20E
100
AcDbEntity
  8
11755031_GEH_THM
  6
Continuous
 62
     7
100
AcDbEllipse
 10
71.4947708177
 20
252.4221835489
 30
0.0
 11
5.000000000000001
 21
0.0
 31
0.0
210
0.0
220
0.0
230
1.0
 40
0.0524077793
 41
0.0
 42
6.283185307179586
  0
ELLIPSE
  5
252
330
20E
100
AcDbEntity
  8
11755031_GEH_THM
  6
Continuous
 62
     7
100
AcDbEllipse
 10
121.4947708177
 20
252.4221835489
 30
0.0
 11
5.000000000000001
 21
0.0
 31
0.0
210
0.0
220
0.0
230
1.0
 40
0.0524077793
 41
0.0
 42
6.283185307179586
  0
CIRCLE
  5
253
330
20E
100
AcDbEntity
  8
11755031_GEH_THM
  6
Continuous
 62
     7
100
AcDbCircle
 10
96.4947708177
 20
258.5553290939
 30
0.0
 40
16.08715574274845
  0
CIRCLE
  5
254
330
20E
100
AcDbEntity
  8
11755031_GEH_THM
  6
Continuous
 62
     7
100
AcDbCircle
 10
96.4947708177
 20
258.5553290939
 30
0.0
 40
15.00000000000002
  0
CIRCLE
  5
255
330
20E
100
AcDbEntity
  8
11755031_GEH_THM
  6
Continuous
 62
     7
100
AcDbCircle
 10
96.4947708177
 20
258.5553290939
 30
0.0
 40
12.1316943953887
  0
CIRCLE
  5
256
330
20E
100
AcDbEntity
  8
11755031_GEH_THM
  6
Continuous
 62
     7
100
AcDbCircle
 10
96.4947708177
 20
258.5553290939
 30
0.0
 40
12.07637027167752
  0
CIRCLE
  5
257
330
20E
100
AcDbEntity
  8
11755031_GEH_THM
  6
Continuous
 62
     7
100
AcDbCircle
 10
96.4947708177
 20
258.5553290939
 30
0.0
 40
10.0
  0
CIRCLE
  5
258
330
20E
100
AcDbEntity
  8
11755031_GEH_THM
  6
Continuous
 62
     7
100
AcDbCircle
 10
96.4947708177
 20
258.5553290939
 30
0.0
 40
11.99999999999999
  0
CIRCLE
  5
259
330
20E
100
AcDbEntity
  8
11755031_GEH_THM
  6
Continuous
 62
     7
100
AcDbCircle
 10
96.4947708177
 20
258.5553290939
 30
0.0
 40
13.42626544328772
  0
CIRCLE
  5
25A
330
20E
100
AcDbEntity
  8
11755031_GEH_THM
  6
Continuous
 62
     7
100
AcDbCircle
 10
96.4947708177
 20
258.5553290939
 30
0.0
 40
12.40445055825316
  0
ARC
  5
25B
330
20E
100
AcDbEntity
  8
11755031_GEH_THM
  6
Continuous
 62
     7
100
AcDbCircle
 10
90.1892940975
 20
254.8184126184
 30
0.0
 40
2.059932978829154
100
AcDbArc
 50
209.8824413953
 51
264.8936277462
  0
ARC
  5
25C
330
20E
100
AcDbEntity
  8
11755031_GEH_THM
  6
Continuous
 62
     7
100
AcDbCircle
 10
96.4947708177
 20
258.5553290939
 30
0.0
 40
9.389424777652644
100
AcDbArc
 50
126.5381684873
 51
210.4839052924
  0
ARC
  5
25D
330
20E
100
AcDbEntity
  8
11755031_GEH_THM
  6
Continuous
 62
     7
100
AcDbCircle
 10
96.4947708177
 20
258.5553290939
 30
0.0
 40
9.389424777653275
100
AcDbArc
 50
329.5160947076
 51
53.4618315127
  0
ARC
  5
25E
330
20E
100
AcDbEntity
  8
11755031_GEH_THM
  6
Continuous
 62
     7
100
AcDbCircle
 10
102.8117117288
 20
254.800494808
 30
0.0
 40
2.041089551721526
100
AcDbArc
 50
274.830602352
 51
330.3933285057
  0
LINE
  5
25F
330
20E
100
AcDbEntity
  8
11755031_GEH_THM
  6
Continuous
 62
     7
100
AcDbLine
 10
102.9835920227
 20
252.7666551578
 30
0.0
 11
102.6164837582
 21
252.7471265919
 31
0.0
  0
ARC
  5
260
330
20E
100
AcDbEntity
  8
11755031_GEH_THM
  6
Continuous
 62
     7
100
AcDbCircle
 10
96.4947708177
 20
396.5651501008
 30
0.0
 40
143.948252005089
100
AcDbArc
 50
267.5626371208
 51
272.4373628792
  0
LINE
  5
261
330
20E
100
AcDbEntity
  8
11755031_GEH_THM
  6
Continuous
 62
     7
100
AcDbLine
 10
90.3730578772
 20
252.7471265919
 30
0.0
 11
90.0059496127
 21
252.7666551578
 31
0.0
  0
ARC
  5
262
330
20E
100
AcDbEntity
  8
11755031_GEH_THM
  6
Continuous
 62
     7
100
AcDbCircle
 10
96.2475180785
 20
258.5997991816
 30
0.0
 40
9.503565764744327
100
AcDbArc
 50
52.1044039945
 51
85.1442114144
  0
LINE
  5
263
330
20E
100
AcDbEntity
  8
11755031_GEH_THM
  6
Continuous
 62
     7
100
AcDbLine
 10
97.0519767034
 20
268.0692557957
 30
0.0
 11
95.937564932
 21
268.0692557957
 31
0.0
  0
ARC
  5
264
330
20E
100
AcDbEntity
  8
11755031_GEH_THM
  6
Continuous
 62
     7
100
AcDbCircle
 10
96.7799464945
 20
258.5029102738
 30
0.0
 40
9.603362605887211
100
AcDbArc
 50
95.0323016984
 51
127.7190828927
  0
LINE
  5
265
330
20E
100
AcDbEntity
  8
11755031_GEH_THM
  6
Continuous
 62
     7
100
AcDbLine
 10
25.9089843801
 20
256.9695426563
 30
0.0
 11
23.6098465772
 21
254.6704048534
 31
0.0
  0
LINE
  5
266
330
20E
100
AcDbEntity
  8
11755031_GEH_THM
  6
Continuous
 62
     7
100
AcDbLine
 10
22.9947708177
 20
253.1854806129
 30
0.0
 11
22.9947708177
 21
231.4251775749
 31
0.0
  0
LINE
  5
267
330
20E
100
AcDbEntity
  8
11755031_GEH_THM
  6
Continuous
 62
     7
100
AcDbLine
 10
26.4947708177
 20
226.2269019691
 30
0.0
 11
26.4947708177
 21
208.0553290939
 31
0.0
  0
LINE
  5
268
330
20E
100
AcDbEntity
  8
11755031_GEH_THM
  6
Continuous
 62
     7
100
AcDbLine
 10
26.4947708177
 20
270.5368024229
 30
0.0
 11
26.4947708177
 21
258.3837562186
 31
0.0
  0
LINE
  5
269
330
20E
100
AcDbEntity
  8
11755031_GEH_THM
  6
Continuous
 62
     7
100
AcDbLine
 10
169.9947708177
 20
231.4251775749
 30
0.0
 11
169.9947708177
 21
253.1854806129
 31
0.0
  0
LINE
  5
26A
330
20E
100
AcDbEntity
  8
11755031_GEH_THM
  6
Continuous
 62
     7
100
AcDbLine
 10
169.3796950582
 20
254.6704048534
 30
0.0
 11
167.0805572553
 21
256.9695426563
 31
0.0
  0
LINE
  5
26B
330
20E
100
AcDbEntity
  8
11755031_GEH_THM
  6
Continuous
 62
     7
100
AcDbLine
 10
166.4947708177
 20
258.3837562186
 30
0.0
 11
166.4947708177
 21
270.5368024229
 31
0.0
  0
LINE
  5
26C
330
20E
100
AcDbEntity
  8
11755031_GEH_THM
  6
Continuous
 62
     7
100
AcDbLine
 10
167.0805572553
 20
227.6411155315
 30
0.0
 11
169.3796950582
 21
229.9402533344
 31
0.0
  0
ARC
  5
26D
330
20E
100
AcDbEntity
  8
11755031_GEH_THM
  6
Continuous
 62
     7
100
AcDbCircle
 10
96.4947708177
 20
264.5530838196
 30
0.0
 40
19.5
100
AcDbArc
 50
47.6966540079
 51
90.0
  0
ARC
  5
26E
330
20E
100
AcDbEntity
  8
11755031_GEH_THM
  6
Continuous
 62
     7
100
AcDbCircle
 10
96.4947708177
 20
264.5530838196
 30
0.0
 40
19.5
100
AcDbArc
 50
90.0
 51
132.3040609351
  0
LINE
  5
26F
330
20E
100
AcDbEntity
  8
11755031_GEH_THM
  6
Continuous
 62
     7
100
AcDbLine
 10
23.6098465772
 20
229.9402533344
 30
0.0
 11
25.9089843801
 21
227.6411155315
 31
0.0
  0
ARC
  5
270
330
20E
100
AcDbEntity
  8
11755031_GEH_THM
  6
Continuous
 62
     7
100
AcDbCircle
 10
25.0947708177
 20
253.1854806129
 30
0.0
 40
2.099999999999991
100
AcDbArc
 50
135.0
 51
180.0
  0
ARC
  5
271
330
20E
100
AcDbEntity
  8
11755031_GEH_THM
  6
Continuous
 62
     7
100
AcDbCircle
 10
167.8947708177
 20
253.1854806129
 30
0.0
 40
2.099999999999991
100
AcDbArc
 50
0.0
 51
45.0
  0
ARC
  5
272
330
20E
100
AcDbEntity
  8
11755031_GEH_THM
  6
Continuous
 62
     7
100
AcDbCircle
 10
167.8947708177
 20
231.4251775749
 30
0.0
 40
2.099999999999998
100
AcDbArc
 50
314.9999999998
 51
0.0
  0
ARC
  5
273
330
20E
100
AcDbEntity
  8
11755031_GEH_THM
  6
Continuous
 62
     7
100
AcDbCircle
 10
25.0947708177
 20
231.4251775749
 30
0.0
 40
2.100000000000005
100
AcDbArc
 50
180.0
 51
225.0000000002
  0
ARC
  5
274
330
20E
100
AcDbEntity
  8
11755031_GEH_THM
  6
Continuous
 62
     7
100
AcDbCircle
 10
24.4947708177
 20
258.3837562186
 30
0.0
 40
2.000000000000002
100
AcDbArc
 50
315.0
 51
0.0
  0
ARC
  5
275
330
20E
100
AcDbEntity
  8
11755031_GEH_THM
  6
Continuous
 62
     7
100
AcDbCircle
 10
24.4947708177
 20
226.2269019691
 30
0.0
 40
2.000000000000005
100
AcDbArc
 50
0.0
 51
45.0000000002
  0
ARC
  5
276
330
20E
100
AcDbEntity
  8
11755031_GEH_THM
  6
Continuous
 62
     7
100
AcDbCircle
 10
168.4947708177
 20
226.2269019691
 30
0.0
 40
2.000000000000002
100
AcDbArc
 50
134.9999999998
 51
180.0
  0
ARC
  5
277
330
20E
100
AcDbEntity
  8
11755031_GEH_THM
  6
Continuous
 62
     7
100
AcDbCircle
 10
168.4947708177
 20
258.3837562186
 30
0.0
 40
1.999999999999996
100
AcDbArc
 50
180.0
 51
225.0
  0
LINE
  5
278
330
20E
100
AcDbEntity
  8
11755031_GEH_THM
  6
Continuous
 62
     7
100
AcDbLine
 10
166.4947708177
 20
208.0553290939
 30
0.0
 11
166.4947708177
 21
226.2269019691
 31
0.0
  0
ARC
  5
279
330
20E
100
AcDbEntity
  8
11755031_GEH_THM
  6
Continuous
 62
     7
100
AcDbCircle
 10
96.4947708177
 20
258.5553290939
 30
0.0
 40
13.85479055825316
100
AcDbArc
 50
255.0
 51
195.0
  0
ARC
  5
27A
330
20E
100
AcDbEntity
  8
11755031_GEH_THM
  6
Continuous
 62
     7
100
AcDbCircle
 10
96.4947708177
 20
258.5553290939
 30
0.0
 40
13.5820343953887
100
AcDbArc
 50
255.0
 51
195.0
  0
LINE
  5
27C
330
20E
100
AcDbEntity
  8
09872031_NIPPEL_
  6
Continuous
 62
     7
100
AcDbLine
 10
105.8071978727
 20
259.7553290939
 30
0.0
 11
87.1823437627
 21
259.7553290939
 31
0.0
  0
LINE
  5
27D
330
20E
100
AcDbEntity
  8
09872031_NIPPEL_
  6
Continuous
 62
     7
100
AcDbLine
 10
105.8409624301
 20
259.4553290939
 30
0.0
 11
87.1485792053
 21
259.4553290939
 31
0.0
  0
LINE
  5
27E
330
20E
100
AcDbEntity
  8
4220392_SCHABL_M
  6
Continuous
 62
     7
100
AcDbLine
 10
72.5008048214
 20
110.0553290939
 30
0.0
 11
120.488736814
 21
110.0553290939
 31
0.0
  0
LINE
  5
27F
330
20E
100
AcDbEntity
  8
4220392_SCHABL_M
  6
Continuous
 62
     7
100
AcDbLine
 10
33.5073834308
 20
185.0553290939
 30
0.0
 11
45.9947708177
 21
185.0553290939
 31
0.0
  0
LINE
  5
280
330
20E
100
AcDbEntity
  8
4220392_SCHABL_M
  6
Continuous
 62
     7
100
AcDbLine
 10
45.9947708177
 20
185.0553290939
 30
0.0
 11
146.9947708177
 21
185.0553290939
 31
0.0
  0
LINE
  5
281
330
20E
100
AcDbEntity
  8
4220392_SCHABL_M
  6
Continuous
 62
     7
100
AcDbLine
 10
146.9947708177
 20
185.0553290939
 30
0.0
 11
159.4821582046
 21
185.0553290939
 31
0.0
  0
LINE
  5
282
330
20E
100
AcDbEntity
  8
4220392_SCHABL_M
  6
Continuous
 62
     7
100
AcDbLine
 10
159.4821582046
 20
185.0553290939
 30
0.0
 11
169.0878408099
 21
185.0553290939
 31
0.0
  0
LINE
  5
283
330
20E
100
AcDbEntity
  8
4220392_SCHABL_M
  6
Continuous
 62
     7
100
AcDbLine
 10
171.1447708177
 20
185.0553290939
 30
0.0
 11
169.0878408099
 21
185.0553290939
 31
0.0
  0
LINE
  5
284
330
20E
100
AcDbEntity
  8
4220392_SCHABL_M
  6
Continuous
 62
     7
100
AcDbLine
 10
23.9017008255
 20
185.0553290939
 30
0.0
 11
21.8447708177
 21
185.0553290939
 31
0.0
  0
LINE
  5
285
330
20E
100
AcDbEntity
  8
4220392_SCHABL_M
  6
Continuous
 62
     7
100
AcDbLine
 10
23.9017008255
 20
185.0553290939
 30
0.0
 11
33.5073834308
 21
185.0553290939
 31
0.0
  0
LINE
  5
286
330
20E
100
AcDbEntity
  8
4220392_SCHABL_M
  6
Continuous
 62
     7
100
AcDbLine
 10
35.1881600976
 20
206.0553290939
 30
0.0
 11
45.9947708177
 21
206.0553290939
 31
0.0
  0
LINE
  5
287
330
20E
100
AcDbEntity
  8
4220392_SCHABL_M
  6
Continuous
 62
     7
100
AcDbLine
 10
45.9947708177
 20
206.0553290939
 30
0.0
 11
146.9947708177
 21
206.0553290939
 31
0.0
  0
LINE
  5
288
330
20E
100
AcDbEntity
  8
4220392_SCHABL_M
  6
Continuous
 62
     7
100
AcDbLine
 10
146.9947708177
 20
206.0553290939
 30
0.0
 11
157.8013815378
 21
206.0553290939
 31
0.0
  0
LINE
  5
289
330
20E
100
AcDbEntity
  8
4220392_SCHABL_M
  6
Continuous
 62
     7
100
AcDbLine
 10
157.8013815378
 20
206.0553290939
 30
0.0
 11
159.9073096543
 21
206.0553290939
 31
0.0
  0
LINE
  5
28A
330
20E
100
AcDbEntity
  8
4220392_SCHABL_M
  6
Continuous
 62
     7
100
AcDbLine
 10
169.3075088837
 20
206.0553290939
 30
0.0
 11
167.4070641431
 21
206.0553290939
 31
0.0
  0
LINE
  5
28B
330
20E
100
AcDbEntity
  8
4220392_SCHABL_M
  6
Continuous
 62
     7
100
AcDbLine
 10
25.5824774923
 20
206.0553290939
 30
0.0
 11
23.6820327518
 21
206.0553290939
 31
0.0
  0
LINE
  5
28C
330
20E
100
AcDbEntity
  8
4220392_SCHABL_M
  6
Continuous
 62
     7
100
AcDbLine
 10
25.5824774923
 20
206.0553290939
 30
0.0
 11
33.0822319811
 21
206.0553290939
 31
0.0
  0
LINE
  5
28D
330
20E
100
AcDbEntity
  8
4220392_SCHABL_M
  6
Continuous
 62
     7
100
AcDbLine
 10
33.9722267502
 20
224.0553290939
 30
0.0
 11
35.9330040925
 21
224.0553290939
 31
0.0
  0
LINE
  5
28E
330
20E
100
AcDbEntity
  8
4220392_SCHABL_M
  6
Continuous
 62
     7
100
AcDbLine
 10
35.9330040925
 20
224.0553290939
 30
0.0
 11
45.9947708177
 21
224.0553290939
 31
0.0
  0
LINE
  5
28F
330
20E
100
AcDbEntity
  8
4220392_SCHABL_M
  6
Continuous
 62
     7
100
AcDbLine
 10
45.9947708177
 20
224.0553290939
 30
0.0
 11
146.9947708177
 21
224.0553290939
 31
0.0
  0
LINE
  5
290
330
20E
100
AcDbEntity
  8
4220392_SCHABL_M
  6
Continuous
 62
     7
100
AcDbLine
 10
146.9947708177
 20
224.0553290939
 30
0.0
 11
157.0565375429
 21
224.0553290939
 31
0.0
  0
LINE
  5
291
330
20E
100
AcDbEntity
  8
4220392_SCHABL_M
  6
Continuous
 62
     7
100
AcDbLine
 10
157.0565375429
 20
224.0553290939
 30
0.0
 11
159.0173148853
 21
224.0553290939
 31
0.0
  0
LINE
  5
292
330
20E
100
AcDbEntity
  8
4220392_SCHABL_M
  6
Continuous
 62
     7
100
AcDbLine
 10
81.9947708177
 20
105.0553290939
 30
0.0
 11
76.9947708177
 21
105.0553290939
 31
0.0
  0
LINE
  5
293
330
20E
100
AcDbEntity
  8
4220392_SCHABL_M
  6
Continuous
 62
     7
100
AcDbLine
 10
115.9947708177
 20
105.0553290939
 30
0.0
 11
110.9947708177
 21
105.0553290939
 31
0.0
  0
LINE
  5
294
330
20E
100
AcDbEntity
  8
4220392_SCHABL_M
  6
Continuous
 62
     7
100
AcDbLine
 10
159.0173148853
 20
224.0553290939
 30
0.0
 11
159.3225978129
 21
208.0553290939
 31
0.0
  0
LINE
  5
295
330
20E
100
AcDbEntity
  8
4220392_SCHABL_M
  6
Continuous
 62
     7
100
AcDbLine
 10
33.6287834565
 20
206.0553290939
 30
0.0
 11
33.6669438225
 21
208.0553290939
 31
0.0
  0
LINE
  5
296
330
20E
100
AcDbEntity
  8
4220392_SCHABL_M
  6
Continuous
 62
     7
100
AcDbLine
 10
33.6669438225
 20
208.0553290939
 30
0.0
 11
33.9722267502
 21
224.0553290939
 31
0.0
  0
LINE
  5
297
330
20E
100
AcDbEntity
  8
4220392_SCHABL_M
  6
Continuous
 62
     7
100
AcDbLine
 10
33.0822319811
 20
206.0553290939
 30
0.0
 11
35.1881600976
 21
206.0553290939
 31
0.0
  0
LINE
  5
298
330
20E
100
AcDbEntity
  8
4220392_SCHABL_M
  6
Continuous
 62
     7
100
AcDbLine
 10
33.6669438225
 20
208.0553290939
 30
0.0
 11
33.0822319811
 21
208.0553290939
 31
0.0
  0
LINE
  5
299
330
20E
100
AcDbEntity
  8
4220392_SCHABL_M
  6
Continuous
 62
     7
100
AcDbLine
 10
33.0822319811
 20
208.0553290939
 30
0.0
 11
33.0822319811
 21
206.0553290939
 31
0.0
  0
LINE
  5
29A
330
20E
100
AcDbEntity
  8
4220392_SCHABL_M
  6
Continuous
 62
     7
100
AcDbLine
 10
33.0822319811
 20
208.0553290939
 30
0.0
 11
25.5824774923
 21
208.0553290939
 31
0.0
  0
LINE
  5
29B
330
20E
100
AcDbEntity
  8
4220392_SCHABL_M
  6
Continuous
 62
     7
100
AcDbLine
 10
23.6820327518
 20
208.0553290939
 30
0.0
 11
25.5824774923
 21
208.0553290939
 31
0.0
  0
LINE
  5
29C
330
20E
100
AcDbEntity
  8
4220392_SCHABL_M
  6
Continuous
 62
     7
100
AcDbLine
 10
159.3225978129
 20
208.0553290939
 30
0.0
 11
159.3607581789
 21
206.0553290939
 31
0.0
  0
LINE
  5
29D
330
20E
100
AcDbEntity
  8
4220392_SCHABL_M
  6
Continuous
 62
     7
100
AcDbLine
 10
159.9073096543
 20
206.0553290939
 30
0.0
 11
167.4070641431
 21
206.0553290939
 31
0.0
  0
LINE
  5
29E
330
20E
100
AcDbEntity
  8
4220392_SCHABL_M
  6
Continuous
 62
     7
100
AcDbLine
 10
159.9073096543
 20
208.0553290939
 30
0.0
 11
159.9073096543
 21
206.0553290939
 31
0.0
  0
LINE
  5
29F
330
20E
100
AcDbEntity
  8
4220392_SCHABL_M
  6
Continuous
 62
     7
100
AcDbLine
 10
159.3225978129
 20
208.0553290939
 30
0.0
 11
159.9073096543
 21
208.0553290939
 31
0.0
  0
LINE
  5
2A0
330
20E
100
AcDbEntity
  8
4220392_SCHABL_M
  6
Continuous
 62
     7
100
AcDbLine
 10
159.9073096543
 20
208.0553290939
 30
0.0
 11
167.4070641431
 21
208.0553290939
 31
0.0
  0
LINE
  5
2A1
330
20E
100
AcDbEntity
  8
4220392_SCHABL_M
  6
Continuous
 62
     7
100
AcDbLine
 10
169.3075088837
 20
208.0553290939
 30
0.0
 11
167.4070641431
 21
208.0553290939
 31
0.0
  0
ARC
  5
2A2
330
20E
100
AcDbEntity
  8
4220392_SCHABL_M
  6
Continuous
 62
     7
100
AcDbCircle
 10
72.5008048214
 20
112.0553290939
 30
0.0
 40
2.0
100
AcDbArc
 50
182.5
 51
270.0
  0
ARC
  5
2A3
330
20E
100
AcDbEntity
  8
4220392_SCHABL_M
  6
Continuous
 62
     7
100
AcDbCircle
 10
120.488736814
 20
112.0553290939
 30
0.0
 40
2.000000000000002
100
AcDbArc
 50
270.0
 51
357.5
  0
LINE
  5
2A4
330
20E
100
AcDbEntity
  8
4220392_SCHABL_M
  6
Continuous
 62
     7
100
AcDbLine
 10
67.3116506188
 20
185.0553290939
 30
0.0
 11
70.5027083783
 21
111.9680903192
 31
0.0
  0
LINE
  5
2A5
330
20E
100
AcDbEntity
  8
4220392_SCHABL_M
  6
Continuous
 62
     7
100
AcDbLine
 10
122.4868332571
 20
111.9680903192
 30
0.0
 11
125.6778910166
 21
185.0553290939
 31
0.0
  0
LINE
  5
2A6
330
20E
100
AcDbEntity
  8
4220392_SCHABL_M
  6
Continuous
 62
     7
100
AcDbLine
 10
171.1447708177
 20
185.0553290939
 30
0.0
 11
169.3075088837
 21
206.0553290939
 31
0.0
  0
LINE
  5
2A7
330
20E
100
AcDbEntity
  8
4220392_SCHABL_M
  6
Continuous
 62
     7
100
AcDbLine
 10
23.6820327518
 20
206.0553290939
 30
0.0
 11
21.8447708177
 21
185.0553290939
 31
0.0
  0
LINE
  5
2A8
330
20E
100
AcDbEntity
  8
4220392_SCHABL_M
  6
Continuous
 62
     7
100
AcDbLine
 10
76.9947708177
 20
110.0553290939
 30
0.0
 11
76.9947708177
 21
105.0553290939
 31
0.0
  0
LINE
  5
2A9
330
20E
100
AcDbEntity
  8
4220392_SCHABL_M
  6
Continuous
 62
     7
100
AcDbLine
 10
81.9947708177
 20
105.0553290939
 30
0.0
 11
81.9947708177
 21
110.0553290939
 31
0.0
  0
LINE
  5
2AA
330
20E
100
AcDbEntity
  8
4220392_SCHABL_M
  6
Continuous
 62
     7
100
AcDbLine
 10
110.9947708177
 20
110.0553290939
 30
0.0
 11
110.9947708177
 21
105.0553290939
 31
0.0
  0
LINE
  5
2AB
330
20E
100
AcDbEntity
  8
4220392_SCHABL_M
  6
Continuous
 62
     7
100
AcDbLine
 10
115.9947708177
 20
105.0553290939
 30
0.0
 11
115.9947708177
 21
110.0553290939
 31
0.0
  0
LINE
  5
2AC
330
20E
100
AcDbEntity
  8
4220392_SCHABL_M
  6
Continuous
 62
     7
100
AcDbLine
 10
23.6820327518
 20
208.0553290939
 30
0.0
 11
23.6820327518
 21
206.0553290939
 31
0.0
  0
LINE
  5
2AD
330
20E
100
AcDbEntity
  8
4220392_SCHABL_M
  6
Continuous
 62
     7
100
AcDbLine
 10
169.3075088837
 20
206.0553290939
 30
0.0
 11
169.3075088837
 21
208.0553290939
 31
0.0
  0
ARC
  5
2AE
330
20E
100
AcDbEntity
  8
02001389_SCREW__
  6
Continuous
 62
     7
100
AcDbCircle
 10
318.780562759
 20
498.6154410584
 30
0.0
 40
338.3500981122986
100
AcDbArc
 50
239.8447019997
 51
239.879450792
  0
ARC
  5
2AF
330
20E
100
AcDbEntity
  8
02001389_SCREW__
  6
Continuous
 62
     7
100
AcDbCircle
 10
-110.9300897016
 20
-60.9879613075
 30
0.0
 40
308.9173382736697
100
AcDbArc
 50
59.7759214907
 51
59.8198588798
  0
ENDBLK
  5
2B1
330
20E
100
AcDbEntity
  8
0
100
AcDbBlockEnd
  0
ENDSEC
  0
SECTION
  2
ENTITIES
  0
INSERT
  5
5F
330
1F
100
AcDbEntity
  8
Default
100
AcDbBlockReference
  2
SEANNOT_GROUP
 10
0.0
 20
0.0
 30
0.0
  0
INSERT
  5
66
330
1F
100
AcDbEntity
  8
Default
100
AcDbBlockReference
  2
SEANNOT_GROUP1
 10
0.0
 20
0.0
 30
0.0
  0
INSERT
  5
6C
330
1F
100
AcDbEntity
  8
Default
100
AcDbBlockReference
  2
SEANNOT_GROUP2
 10
0.0
 20
0.0
 30
0.0
  0
INSERT
  5
72
330
1F
100
AcDbEntity
  8
Default
100
AcDbBlockReference
  2
SEANNOT_GROUP3
 10
0.0
 20
0.0
 30
0.0
  0
INSERT
  5
78
330
1F
100
AcDbEntity
  8
Default
100
AcDbBlockReference
  2
SEANNOT_GROUP4
 10
0.0
 20
0.0
 30
0.0
  0
INSERT
  5
7E
330
1F
100
AcDbEntity
  8
Default
100
AcDbBlockReference
  2
SEANNOT_GROUP5
 10
0.0
 20
0.0
 30
0.0
  0
INSERT
  5
84
330
1F
100
AcDbEntity
  8
Default
100
AcDbBlockReference
  2
SEANNOT_GROUP6
 10
0.0
 20
0.0
 30
0.0
  0
INSERT
  5
8E
330
1F
100
AcDbEntity
  8
Default
100
AcDbBlockReference
  2
SEANNOT_GROUP7
 10
0.0
 20
0.0
 30
0.0
  0
INSERT
  5
98
330
1F
100
AcDbEntity
  8
Default
100
AcDbBlockReference
  2
SEANNOT_GROUP8
 10
0.0
 20
0.0
 30
0.0
  0
INSERT
  5
A2
330
1F
100
AcDbEntity
  8
Default
100
AcDbBlockReference
  2
SE
 10
0.0
 20
0.0
 30
0.0
  0
INSERT
  5
17D
330
1F
100
AcDbEntity
  8
Default
100
AcDbBlockReference
  2
SE1
 10
0.0
 20
0.0
 30
0.0
  0
INSERT
  5
20F
330
1F
100
AcDbEntity
  8
Default
100
AcDbBlockReference
  2
SE2
 10
0.0
 20
0.0
 30
0.0
  0
TEXT
  5
2B3
330
1F
100
AcDbEntity
  8
Default
  6
Continuous
 62
     7
100
AcDbText
 10
5.9362635081
 20
53.4225120485
 30
0.0
 40
10.0
  1
Grohe AG^J
  7
SEACAD_seiso_ttf
 11
5.9362635081
 21
63.4225120485
 31
0.0
100
AcDbText
 73
     3
  0
TEXT
  5
2B4
330
1F
100
AcDbEntity
  8
Default
  6
Continuous
 62
     7
100
AcDbText
 10
5.9362635081
 20
37.0588756849
 30
0.0
 40
10.0
  1
 
  7
SEACAD_seiso_ttf
 11
5.9362635081
 21
47.0588756849
 31
0.0
100
AcDbText
 73
     3
  0
TEXT
  5
2B5
330
1F
100
AcDbEntity
  8
Default
  6
Continuous
 62
     7
100
AcDbText
 10
5.9362635081
 20
20.6952393213
 30
0.0
 40
10.0
  1
ecn: 
  7
SEACAD_seiso_ttf
 11
5.9362635081
 21
30.6952393213
 31
0.0
100
AcDbText
 73
     3
  0
TEXT
  5
2B6
330
1F
100
AcDbEntity
  8
Default
  6
Continuous
 62
     7
100
AcDbText
 10
5.9362635081
 20
4.3316029576
 30
0.0
 40
10.0
  1
unit: mm
  7
SEACAD_seiso_ttf
 11
5.9362635081
 21
14.3316029576
 31
0.0
100
AcDbText
 73
     3
  0
LINE
  5
2B7
330
1F
100
AcDbEntity
  8
Default
  6
Continuous
 62
     7
100
AcDbLine
 10
0.0
 20
0.0
 30
0.0
 11
100.0
 21
0.0
 31
0.0
  0
LINE
  5
2B8
330
1F
100
AcDbEntity
  8
Default
  6
Continuous
 62
     7
100
AcDbLine
 10
0.0
 20
0.0
 30
0.0
 11
0.0
 21
100.0
 31
0.0
  0
TEXT
  5
2B9
330
1F
100
AcDbEntity
  8
Default
  6
Continuous
 62
     7
100
AcDbText
 10
24.3923665681
 20
-18.2375342018
 30
0.0
 40
10.0
  1
100 mm
  7
SEACAD_seiso_ttf
 11
24.3923665681
 21
-8.2375342018
 31
0.0
100
AcDbText
 73
     3
  0
TEXT
  5
2BA
330
1F
100
AcDbEntity
  8
Default
  6
Continuous
 62
     7
100
AcDbText
 10
-7.6150308803
 20
24.6231930421
 30
0.0
 40
10.0
  1
100 mm
 50
90.0
  7
SEACAD_seiso_ttf
 11
-17.6150308803
 21
24.6231930421
 31
0.0
100
AcDbText
 73
     3
  0
TEXT
  5
2BB
330
1F
100
AcDbEntity
  8
Default
  6
Continuous
 62
     7
100
AcDbText
 10
28.4878128572
 20
20.0907663715
 30
0.0
 40
10.0
  1
30391
  7
SEACAD_seiso_ttf
 11
28.4878128572
 21
30.0907663715
 31
0.0
100
AcDbText
 73
     3
  0
TEXT
  5
2BC
330
1F
100
AcDbEntity
  8
Default
  6
Continuous
 62
     7
100
AcDbText
 10
5.9012241913
 20
36.7242780188
 30
0.0
 40
10.0
  1
34124000
  7
SEACAD_seiso_ttf
 11
5.9012241913
 21
46.7242780188
 31
0.0
100
AcDbText
 73
     3
  0
ENDSEC
  0
SECTION
  2
OBJECTS
  0
DICTIONARY
  5
C
330
0
100
AcDbDictionary
281
     1
  3
ACAD_GROUP
350
D
  3
ACAD_LAYOUT
350
1A
  3
ACAD_MLEADERSTYLE
350
2C0
  3
ACAD_MLINESTYLE
350
17
  3
ACAD_PLOTSETTINGS
350
19
  3
ACAD_PLOTSTYLENAME
350
E
  3
ACAD_SCALELIST
350
3B
  3
ACAD_TABLESTYLE
350
2BF
  3
ACAD_VISUALSTYLE
350
2A
  3
AcDbVariableDictionary
350
2BD
  0
DICTIONARY
  5
D
102
{ACAD_REACTORS
330
C
102
}
330
C
100
AcDbDictionary
281
     1
  0
DICTIONARY
  5
1A
102
{ACAD_REACTORS
330
C
102
}
330
C
100
AcDbDictionary
281
     1
  3
Layout1
350
1E
  3
Model
350
22
  0
DICTIONARY
  5
2C0
102
{ACAD_REACTORS
330
C
102
}
330
C
100
AcDbDictionary
281
     1
  0
DICTIONARY
  5
17
102
{ACAD_REACTORS
330
C
102
}
330
C
100
AcDbDictionary
281
     1
  3
Standard
350
18
  0
DICTIONARY
  5
19
102
{ACAD_REACTORS
330
C
102
}
330
C
100
AcDbDictionary
281
     1
  0
ACDBDICTIONARYWDFLT
  5
E
102
{ACAD_REACTORS
330
C
102
}
330
C
100
AcDbDictionary
281
     1
  3
Normal
350
F
100
AcDbDictionaryWithDefault
340
F
  0
DICTIONARY
  5
3B
102
{ACAD_REACTORS
330
C
102
}
330
C
100
AcDbDictionary
281
     1
  3
A0
350
3C
  3
A1
350
3D
  3
A2
350
3E
  3
A3
350
3F
  3
A4
350
40
  3
A5
350
41
  3
A6
350
42
  3
A7
350
43
  3
A8
350
44
  3
A9
350
45
  3
B0
350
46
  3
B1
350
47
  3
B2
350
48
  3
B3
350
49
  3
B4
350
4A
  3
B5
350
4B
  3
B6
350
4C
  3
B7
350
4D
  3
B8
350
4E
  3
B9
350
4F
  3
C0
350
50
  3
C1
350
51
  3
C2
350
52
  3
C3
350
53
  3
C4
350
54
  3
C5
350
55
  3
C6
350
56
  3
C7
350
57
  3
C8
350
58
  3
C9
350
59
  3
D0
350
5A
  3
D1
350
5B
  3
D2
350
5C
  0
DICTIONARY
  5
2BF
102
{ACAD_REACTORS
330
C
102
}
330
C
100
AcDbDictionary
281
     1
  0
DICTIONARY
  5
2A
102
{ACAD_REACTORS
330
C
102
}
330
C
100
AcDbDictionary
281
     1
  3
2dWireframe
350
2F
  3
3D Hidden
350
31
  3
3dWireframe
350
30
  3
Basic
350
32
  3
Brighten
350
36
  3
ColorChange
350
3A
  3
Conceptual
350
34
  3
Dim
350
35
  3
Facepattern
350
39
  3
Flat
350
2B
  3
FlatWithEdges
350
2C
  3
Gouraud
350
2D
  3
GouraudWithEdges
350
2E
  3
Linepattern
350
38
  3
Realistic
350
33
  3
Thicken
350
37
  0
DICTIONARY
  5
2BD
102
{ACAD_REACTORS
330
C
102
}
330
C
100
AcDbDictionary
281
     1
  3
CANNOSCALE
350
2BE
  3
PSOLHEIGHT
350
2C2
  3
PSOLWIDTH
350
2C1
  0
LAYOUT
  5
1E
102
{ACAD_REACTORS
330
1A
102
}
330
1A
100
AcDbPlotSettings
  1

  2
none_device
  4

  6

 40
0.0
 41
0.0
 42
0.0
 43
0.0
 44
0.0
 45
0.0
 46
0.0
 47
0.0
 48
0.0
 49
0.0
140
0.0
141
0.0
142
1.0
143
1.0
 70
   688
 72
     0
 73
     0
 74
     5
  7

 75
    16
147
1.0
148
0.0
149
0.0
100
AcDbLayout
  1
Layout1
 70
     1
 71
     1
 10
0.0
 20
0.0
 11
1682.0
 21
2378.0
 12
0.0
 22
0.0
 32
0.0
 14
0.0
 24
0.0
 34
0.0
 15
1682.0
 25
2378.0
 35
0.0
146
0.0
 13
0.0
 23
0.0
 33
0.0
 16
1.0
 26
0.0
 36
0.0
 17
0.0
 27
1.0
 37
0.0
 76
     0
330
1B
  0
LAYOUT
  5
22
102
{ACAD_REACTORS
330
1A
102
}
330
1A
100
AcDbPlotSettings
  1

  2
none_device
  4

  6

 40
0.0
 41
0.0
 42
0.0
 43
0.0
 44
0.0
 45
0.0
 46
0.0
 47
0.0
 48
0.0
 49
0.0
140
0.0
141
0.0
142
1.0
143
1.0
 70
  1712
 72
     0
 73
     0
 74
     0
  7

 75
     0
147
1.0
148
0.0
149
0.0
100
AcDbLayout
  1
Model
 70
     1
 71
     0
 10
0.0
 20
0.0
 11
1682.0
 21
2378.0
 12
0.0
 22
0.0
 32
0.0
 14
0.0
 24
0.0
 34
0.0
 15
1682.0
 25
2378.0
 35
0.0
146
0.0
 13
0.0
 23
0.0
 33
0.0
 16
1.0
 26
0.0
 36
0.0
 17
0.0
 27
1.0
 37
0.0
 76
     0
330
1F
331
29
  0
MLINESTYLE
  5
18
102
{ACAD_REACTORS
330
17
102
}
330
17
100
AcDbMlineStyle
  2
Standard
 70
     0
  3

 62
   256
 51
90.0
 52
90.0
 71
     2
 49
0.5
 62
   256
  6
BYLAYER
 49
-0.5
 62
   256
  6
BYLAYER
  0
ACDBPLACEHOLDER
  5
F
102
{ACAD_REACTORS
330
E
102
}
330
E
  0
SCALE
  5
3C
102
{ACAD_REACTORS
330
3B
102
}
330
3B
100
AcDbScale
 70
     0
300
1:1
140
1.0
141
1.0
290
     1
  0
SCALE
  5
3D
102
{ACAD_REACTORS
330
3B
102
}
330
3B
100
AcDbScale
 70
     0
300
1:2
140
1.0
141
2.0
290
     0
  0
SCALE
  5
3E
102
{ACAD_REACTORS
330
3B
102
}
330
3B
100
AcDbScale
 70
     0
300
1:4
140
1.0
141
4.0
290
     0
  0
SCALE
  5
3F
102
{ACAD_REACTORS
330
3B
102
}
330
3B
100
AcDbScale
 70
     0
300
1:5
140
1.0
141
5.0
290
     0
  0
SCALE
  5
40
102
{ACAD_REACTORS
330
3B
102
}
330
3B
100
AcDbScale
 70
     0
300
1:8
140
1.0
141
8.0
290
     0
  0
SCALE
  5
41
102
{ACAD_REACTORS
330
3B
102
}
330
3B
100
AcDbScale
 70
     0
300
1:10
140
1.0
141
10.0
290
     0
  0
SCALE
  5
42
102
{ACAD_REACTORS
330
3B
102
}
330
3B
100
AcDbScale
 70
     0
300
1:16
140
1.0
141
16.0
290
     0
  0
SCALE
  5
43
102
{ACAD_REACTORS
330
3B
102
}
330
3B
100
AcDbScale
 70
     0
300
1:20
140
1.0
141
20.0
290
     0
  0
SCALE
  5
44
102
{ACAD_REACTORS
330
3B
102
}
330
3B
100
AcDbScale
 70
     0
300
1:30
140
1.0
141
30.0
290
     0
  0
SCALE
  5
45
102
{ACAD_REACTORS
330
3B
102
}
330
3B
100
AcDbScale
 70
     0
300
1:40
140
1.0
141
40.0
290
     0
  0
SCALE
  5
46
102
{ACAD_REACTORS
330
3B
102
}
330
3B
100
AcDbScale
 70
     0
300
1:50
140
1.0
141
50.0
290
     0
  0
SCALE
  5
47
102
{ACAD_REACTORS
330
3B
102
}
330
3B
100
AcDbScale
 70
     0
300
1:100
140
1.0
141
100.0
290
     0
  0
SCALE
  5
48
102
{ACAD_REACTORS
330
3B
102
}
330
3B
100
AcDbScale
 70
     0
300
2:1
140
2.0
141
1.0
290
     0
  0
SCALE
  5
49
102
{ACAD_REACTORS
330
3B
102
}
330
3B
100
AcDbScale
 70
     0
300
4:1
140
4.0
141
1.0
290
     0
  0
SCALE
  5
4A
102
{ACAD_REACTORS
330
3B
102
}
330
3B
100
AcDbScale
 70
     0
300
8:1
140
8.0
141
1.0
290
     0
  0
SCALE
  5
4B
102
{ACAD_REACTORS
330
3B
102
}
330
3B
100
AcDbScale
 70
     0
300
10:1
140
10.0
141
1.0
290
     0
  0
SCALE
  5
4C
102
{ACAD_REACTORS
330
3B
102
}
330
3B
100
AcDbScale
 70
     0
300
100:1
140
100.0
141
1.0
290
     0
  0
SCALE
  5
4D
102
{ACAD_REACTORS
330
3B
102
}
330
3B
100
AcDbScale
 70
     0
300
1/128" = 1'-0"
140
0.0078125
141
12.0
290
     0
  0
SCALE
  5
4E
102
{ACAD_REACTORS
330
3B
102
}
330
3B
100
AcDbScale
 70
     0
300
1/64" = 1'-0"
140
0.015625
141
12.0
290
     0
  0
SCALE
  5
4F
102
{ACAD_REACTORS
330
3B
102
}
330
3B
100
AcDbScale
 70
     0
300
1/32" = 1'-0"
140
0.03125
141
12.0
290
     0
  0
SCALE
  5
50
102
{ACAD_REACTORS
330
3B
102
}
330
3B
100
AcDbScale
 70
     0
300
1/16" = 1'-0"
140
0.0625
141
12.0
290
     0
  0
SCALE
  5
51
102
{ACAD_REACTORS
330
3B
102
}
330
3B
100
AcDbScale
 70
     0
300
3/32" = 1'-0"
140
0.09375
141
12.0
290
     0
  0
SCALE
  5
52
102
{ACAD_REACTORS
330
3B
102
}
330
3B
100
AcDbScale
 70
     0
300
1/8" = 1'-0"
140
0.125
141
12.0
290
     0
  0
SCALE
  5
53
102
{ACAD_REACTORS
330
3B
102
}
330
3B
100
AcDbScale
 70
     0
300
3/16" = 1'-0"
140
0.1875
141
12.0
290
     0
  0
SCALE
  5
54
102
{ACAD_REACTORS
330
3B
102
}
330
3B
100
AcDbScale
 70
     0
300
1/4" = 1'-0"
140
0.25
141
12.0
290
     0
  0
SCALE
  5
55
102
{ACAD_REACTORS
330
3B
102
}
330
3B
100
AcDbScale
 70
     0
300
3/8" = 1'-0"
140
0.375
141
12.0
290
     0
  0
SCALE
  5
56
102
{ACAD_REACTORS
330
3B
102
}
330
3B
100
AcDbScale
 70
     0
300
1/2" = 1'-0"
140
0.5
141
12.0
290
     0
  0
SCALE
  5
57
102
{ACAD_REACTORS
330
3B
102
}
330
3B
100
AcDbScale
 70
     0
300
3/4" = 1'-0"
140
0.75
141
12.0
290
     0
  0
SCALE
  5
58
102
{ACAD_REACTORS
330
3B
102
}
330
3B
100
AcDbScale
 70
     0
300
1" = 1'-0"
140
1.0
141
12.0
290
     0
  0
SCALE
  5
59
102
{ACAD_REACTORS
330
3B
102
}
330
3B
100
AcDbScale
 70
     0
300
1-1/2" = 1'-0"
140
1.5
141
12.0
290
     0
  0
SCALE
  5
5A
102
{ACAD_REACTORS
330
3B
102
}
330
3B
100
AcDbScale
 70
     0
300
3" = 1'-0"
140
3.0
141
12.0
290
     0
  0
SCALE
  5
5B
102
{ACAD_REACTORS
330
3B
102
}
330
3B
100
AcDbScale
 70
     0
300
6" = 1'-0"
140
6.0
141
12.0
290
     0
  0
SCALE
  5
5C
102
{ACAD_REACTORS
330
3B
102
}
330
3B
100
AcDbScale
 70
     0
300
1'-0" = 1'-0"
140
12.0
141
12.0
290
     0
  0
VISUALSTYLE
  5
2F
102
{ACAD_REACTORS
330
2A
102
}
330
2A
100
AcDbVisualStyle
  2
2dWireframe
 70
     4
 71
     0
 72
     2
 73
     0
 90
        0
 40
-0.6
 41
-30.0
 62
     5
 63
     7
 74
     1
 91
        4
 64
     7
 65
   257
 75
     1
175
     1
 42
1.0
 92
        0
 66
   257
 43
1.0
 76
     1
 77
     6
 78
     2
 67
     7
 79
     5
170
     0
171
     0
290
     0
174
     0
 93
        1
 44
0.0
173
     0
291
     0
 45
0.0
1001
ACAD
1000
AcDbSavedByObjectVersion
1070
     0
  0
VISUALSTYLE
  5
31
102
{ACAD_REACTORS
330
2A
102
}
330
2A
100
AcDbVisualStyle
  2
3D Hidden
 70
     6
 71
     1
 72
     2
 73
     2
 90
        0
 40
-0.6
 41
-30.0
 62
     5
 63
     7
 74
     2
 91
        2
 64
     7
 65
   257
 75
     2
175
     1
 42
40.0
 92
        0
 66
   257
 43
1.0
 76
     1
 77
     6
 78
     2
 67
     7
 79
     3
170
     0
171
     0
290
     0
174
     0
 93
        1
 44
0.0
173
     0
291
     0
 45
0.0
1001
ACAD
1000
AcDbSavedByObjectVersion
1070
     0
  0
VISUALSTYLE
  5
30
102
{ACAD_REACTORS
330
2A
102
}
330
2A
100
AcDbVisualStyle
  2
3dWireframe
 70
     5
 71
     0
 72
     2
 73
     0
 90
        0
 40
-0.6
 41
-30.0
 62
     5
 63
     7
 74
     1
 91
        4
 64
     7
 65
   257
 75
     1
175
     1
 42
1.0
 92
        0
 66
   257
 43
1.0
 76
     1
 77
     6
 78
     2
 67
     7
 79
     5
170
     0
171
     0
290
     0
174
     0
 93
        1
 44
0.0
173
     0
291
     0
 45
0.0
1001
ACAD
1000
AcDbSavedByObjectVersion
1070
     0
  0
VISUALSTYLE
  5
32
102
{ACAD_REACTORS
330
2A
102
}
330
2A
100
AcDbVisualStyle
  2
Basic
 70
     7
 71
     1
 72
     0
 73
     1
 90
        0
 40
-0.6
 41
-30.0
 62
     5
 63
     7
 74
     0
 91
        4
 64
     7
 65
   257
 75
     1
175
     1
 42
1.0
 92
        8
 66
     7
 43
1.0
 76
     1
 77
     6
 78
     2
 67
     7
 79
     5
170
     0
171
     0
290
     0
174
     0
 93
        1
 44
0.0
173
     0
291
     1
 45
0.0
1001
ACAD
1000
AcDbSavedByObjectVersion
1070
     0
  0
VISUALSTYLE
  5
36
102
{ACAD_REACTORS
330
2A
102
}
330
2A
100
AcDbVisualStyle
  2
Brighten
 70
    12
 71
     2
 72
     2
 73
     0
 90
        0
 40
-0.6
 41
-30.0
 62
     5
 63
     7
 74
     1
 91
        4
 64
     7
 65
   257
 75
     1
175
     1
 42
1.0
 92
        8
 66
     7
 43
1.0
 76
     1
 77
     6
 78
     2
 67
     7
 79
     5
170
     0
171
     0
290
     0
174
     0
 93
        1
 44
50.0
173
     0
291
     1
 45
0.0
1001
ACAD
1000
AcDbSavedByObjectVersion
1070
     0
  0
VISUALSTYLE
  5
3A
102
{ACAD_REACTORS
330
2A
102
}
330
2A
100
AcDbVisualStyle
  2
ColorChange
 70
    16
 71
     2
 72
     2
 73
     3
 90
        0
 40
-0.6
 41
-30.0
 62
     5
 63
     8
 74
     1
 91
        4
 64
     7
 65
   257
 75
     1
175
     1
 42
1.0
 92
        8
 66
     8
 43
1.0
 76
     1
 77
     6
 78
     2
 67
     7
 79
     5
170
     0
171
     0
290
     0
174
     0
 93
        1
 44
0.0
173
     0
291
     1
 45
0.0
1001
ACAD
1000
AcDbSavedByObjectVersion
1070
     0
  0
VISUALSTYLE
  5
34
102
{ACAD_REACTORS
330
2A
102
}
330
2A
100
AcDbVisualStyle
  2
Conceptual
 70
     9
 71
     3
 72
     2
 73
     0
 90
        0
 40
-0.6
 41
-30.0
 62
     5
 63
     7
 74
     2
 91
        2
 64
     7
 65
   257
 75
     1
175
     1
 42
40.0
 92
        8
 66
     7
 43
1.0
 76
     1
 77
     6
 78
     2
 67
     7
 79
     3
170
     0
171
     0
290
     0
174
     0
 93
        1
 44
0.0
173
     0
291
     0
 45
0.0
1001
ACAD
1000
AcDbSavedByObjectVersion
1070
     0
  0
VISUALSTYLE
  5
35
102
{ACAD_REACTORS
330
2A
102
}
330
2A
100
AcDbVisualStyle
  2
Dim
 70
    11
 71
     2
 72
     2
 73
     0
 90
        0
 40
-0.6
 41
-30.0
 62
     5
 63
     7
 74
     1
 91
        4
 64
     7
 65
   257
 75
     1
175
     1
 42
1.0
 92
        8
 66
     7
 43
1.0
 76
     1
 77
     6
 78
     2
 67
     7
 79
     5
170
     0
171
     0
290
     0
174
     0
 93
        1
 44
-50.0
173
     0
291
     1
 45
0.0
1001
ACAD
1000
AcDbSavedByObjectVersion
1070
     0
  0
VISUALSTYLE
  5
39
102
{ACAD_REACTORS
330
2A
102
}
330
2A
100
AcDbVisualStyle
  2
Facepattern
 70
    15
 71
     2
 72
     2
 73
     0
 90
        0
 40
-0.6
 41
-30.0
 62
     5
 63
     7
 74
     1
 91
        4
 64
     7
 65
   257
 75
     1
175
     1
 42
1.0
 92
        8
 66
     7
 43
1.0
 76
     1
 77
     6
 78
     2
 67
     7
 79
     5
170
     0
171
     0
290
     0
174
     0
 93
        1
 44
0.0
173
     0
291
     1
 45
0.0
1001
ACAD
1000
AcDbSavedByObjectVersion
1070
     0
  0
VISUALSTYLE
  5
2B
102
{ACAD_REACTORS
330
2A
102
}
330
2A
100
AcDbVisualStyle
  2
Flat
 70
     0
 71
     2
 72
     1
 73
     1
 90
        2
 40
-0.6
 41
30.0
 62
     5
 63
     7
 74
     0
 91
        4
 64
     7
 65
   257
 75
     1
175
     1
 42
1.0
 92
        8
 66
     7
 43
1.0
 76
     1
 77
     6
 78
     2
 67
     7
 79
     5
170
     0
171
     0
290
     0
174
     0
 93
       13
 44
0.0
173
     0
291
     1
 45
0.0
1001
ACAD
1000
AcDbSavedByObjectVersion
1070
     0
  0
VISUALSTYLE
  5
2C
102
{ACAD_REACTORS
330
2A
102
}
330
2A
100
AcDbVisualStyle
  2
FlatWithEdges
 70
     1
 71
     2
 72
     1
 73
     1
 90
        2
 40
-0.6
 41
30.0
 62
     5
 63
     7
 74
     1
 91
        4
 64
     7
 65
   257
 75
     1
175
     1
 42
1.0
 92
        0
 66
   257
 43
1.0
 76
     1
 77
     6
 78
     2
 67
     7
 79
     5
170
     0
171
     0
290
     0
174
     0
 93
       13
 44
0.0
173
     0
291
     1
 45
0.0
1001
ACAD
1000
AcDbSavedByObjectVersion
1070
     0
  0
VISUALSTYLE
  5
2D
102
{ACAD_REACTORS
330
2A
102
}
330
2A
100
AcDbVisualStyle
  2
Gouraud
 70
     2
 71
     2
 72
     2
 73
     1
 90
        2
 40
-0.6
 41
30.0
 62
     5
 63
     7
 74
     0
 91
        4
 64
     7
 65
   257
 75
     1
175
     1
 42
1.0
 92
        0
 66
     7
 43
1.0
 76
     1
 77
     6
 78
     2
 67
     7
 79
     5
170
     0
171
     0
290
     0
174
     0
 93
       13
 44
0.0
173
     0
291
     1
 45
0.0
1001
ACAD
1000
AcDbSavedByObjectVersion
1070
     0
  0
VISUALSTYLE
  5
2E
102
{ACAD_REACTORS
330
2A
102
}
330
2A
100
AcDbVisualStyle
  2
GouraudWithEdges
 70
     3
 71
     2
 72
     2
 73
     1
 90
        2
 40
-0.6
 41
30.0
 62
     5
 63
     7
 74
     1
 91
        4
 64
     7
 65
   257
 75
     1
175
     1
 42
1.0
 92
        0
 66
   257
 43
1.0
 76
     1
 77
     6
 78
     2
 67
     7
 79
     5
170
     0
171
     0
290
     0
174
     0
 93
       13
 44
0.0
173
     0
291
     1
 45
0.0
1001
ACAD
1000
AcDbSavedByObjectVersion
1070
     0
  0
VISUALSTYLE
  5
38
102
{ACAD_REACTORS
330
2A
102
}
330
2A
100
AcDbVisualStyle
  2
Linepattern
 70
    14
 71
     2
 72
     2
 73
     0
 90
        0
 40
-0.6
 41
-30.0
 62
     5
 63
     7
 74
     1
 91
        4
 64
     7
 65
   257
 75
     7
175
     7
 42
1.0
 92
        8
 66
     7
 43
1.0
 76
     1
 77
     6
 78
     2
 67
     7
 79
     5
170
     0
171
     0
290
     0
174
     0
 93
        1
 44
0.0
173
     0
291
     1
 45
0.0
1001
ACAD
1000
AcDbSavedByObjectVersion
1070
     0
  0
VISUALSTYLE
  5
33
102
{ACAD_REACTORS
330
2A
102
}
330
2A
100
AcDbVisualStyle
  2
Realistic
 70
     8
 71
     2
 72
     2
 73
     0
 90
        0
 40
-0.6
 41
-30.0
 62
     5
 63
     7
 74
     1
 91
        0
 64
     7
 65
   257
 75
     1
175
     1
 42
1.0
 92
        8
 66
     8
 43
1.0
 76
     1
 77
     6
 78
     2
 67
     7
 79
     5
170
     0
171
     0
290
     0
174
     0
 93
       13
 44
0.0
173
     0
291
     0
 45
0.0
1001
ACAD
1000
AcDbSavedByObjectVersion
1070
     0
  0
VISUALSTYLE
  5
37
102
{ACAD_REACTORS
330
2A
102
}
330
2A
100
AcDbVisualStyle
  2
Thicken
 70
    13
 71
     2
 72
     2
 73
     0
 90
        0
 40
-0.6
 41
-30.0
 62
     5
 63
     7
 74
     1
 91
        4
 64
     7
 65
   257
 75
     1
175
     1
 42
1.0
 92
       12
 66
     7
 43
1.0
 76
     1
 77
     6
 78
     2
 67
     7
 79
     5
170
     0
171
     0
290
     0
174
     0
 93
        1
 44
0.0
173
     0
291
     1
 45
0.0
1001
ACAD
1000
AcDbSavedByObjectVersion
1070
     0
  0
DICTIONARYVAR
  5
2BE
102
{ACAD_REACTORS
330
2BD
102
}
330
2BD
100
DictionaryVariables
280
     0
  1
1:1
  0
DICTIONARYVAR
  5
2C2
102
{ACAD_REACTORS
330
2BD
102
}
330
2BD
100
DictionaryVariables
280
     0
  1
80.000000
  0
DICTIONARYVAR
  5
2C1
102
{ACAD_REACTORS
330
2BD
102
}
330
2BD
100
DictionaryVariables
280
     0
  1
5.000000
  0
ENDSEC
  0
EOF
