  0
SECTION
  2
HEADER
  9
$ACADVER
  1
AC1015
  9
$ACADMAINTVER
 70
     6
  9
$DWGCODEPAGE
  3
ANSI_1252
  9
$INSBASE
 10
0.0
 20
0.0
 30
0.0
  9
$EXTMIN
 10
0.0
 20
0.0
 30
0.0
  9
$EXTMAX
 10
1682.0
 20
2378.0
 30
0.0
  9
$LIMMIN
 10
0.0
 20
0.0
  9
$LIMMAX
 10
1682.0
 20
2378.0
  9
$ORTHOMODE
 70
     0
  9
$REGENMODE
 70
     1
  9
$FILLMODE
 70
     1
  9
$QTEXTMODE
 70
     0
  9
$MIRRTEXT
 70
     1
  9
$LTSCALE
 40
1.0
  9
$ATTMODE
 70
     1
  9
$TEXTSIZE
 40
2.5
  9
$TRACEWID
 40
1.0
  9
$TEXTSTYLE
  7
Standard
  9
$CLAYER
  8
0
  9
$CELTYPE
  6
ByLayer
  9
$CECOLOR
 62
   256
  9
$CELTSCALE
 40
1.0
  9
$DISPSILH
 70
     0
  9
$DIMSCALE
 40
1.0
  9
$DIMASZ
 40
2.5
  9
$DIMEXO
 40
0.625
  9
$DIMDLI
 40
3.75
  9
$DIMRND
 40
0.0
  9
$DIMDLE
 40
0.0
  9
$DIMEXE
 40
1.25
  9
$DIMTP
 40
0.0
  9
$DIMTM
 40
0.0
  9
$DIMTXT
 40
2.5
  9
$DIMCEN
 40
2.5
  9
$DIMTSZ
 40
0.0
  9
$DIMTOL
 70
     0
  9
$DIMLIM
 70
     0
  9
$DIMTIH
 70
     0
  9
$DIMTOH
 70
     0
  9
$DIMSE1
 70
     0
  9
$DIMSE2
 70
     0
  9
$DIMTAD
 70
     1
  9
$DIMZIN
 70
     8
  9
$DIMBLK
  1

  9
$DIMASO
 70
     1
  9
$DIMSHO
 70
     1
  9
$DIMPOST
  1

  9
$DIMAPOST
  1

  9
$DIMALT
 70
     0
  9
$DIMALTD
 70
     3
  9
$DIMALTF
 40
0.0393700787
  9
$DIMLFAC
 40
1.0
  9
$DIMTOFL
 70
     1
  9
$DIMTVP
 40
0.0
  9
$DIMTIX
 70
     0
  9
$DIMSOXD
 70
     0
  9
$DIMSAH
 70
     0
  9
$DIMBLK1
  1

  9
$DIMBLK2
  1

  9
$DIMSTYLE
  2
ISO-25
  9
$DIMCLRD
 70
     0
  9
$DIMCLRE
 70
     0
  9
$DIMCLRT
 70
     0
  9
$DIMTFAC
 40
1.0
  9
$DIMGAP
 40
0.625
  9
$DIMJUST
 70
     0
  9
$DIMSD1
 70
     0
  9
$DIMSD2
 70
     0
  9
$DIMTOLJ
 70
     0
  9
$DIMTZIN
 70
     8
  9
$DIMALTZ
 70
     0
  9
$DIMALTTZ
 70
     0
  9
$DIMUPT
 70
     0
  9
$DIMDEC
 70
     2
  9
$DIMTDEC
 70
     2
  9
$DIMALTU
 70
     2
  9
$DIMALTTD
 70
     3
  9
$DIMTXSTY
  7
Standard
  9
$DIMAUNIT
 70
     0
  9
$DIMADEC
 70
     0
  9
$DIMALTRND
 40
0.0
  9
$DIMAZIN
 70
     0
  9
$DIMDSEP
 70
    44
  9
$DIMATFIT
 70
     3
  9
$DIMFRAC
 70
     0
  9
$DIMLDRBLK
  1

  9
$DIMLUNIT
 70
     2
  9
$DIMLWD
 70
    -2
  9
$DIMLWE
 70
    -2
  9
$DIMTMOVE
 70
     0
  9
$LUNITS
 70
     2
  9
$LUPREC
 70
     4
  9
$SKETCHINC
 40
1.0
  9
$FILLETRAD
 40
10.0
  9
$AUNITS
 70
     0
  9
$AUPREC
 70
     0
  9
$MENU
  1
.
  9
$ELEVATION
 40
0.0
  9
$PELEVATION
 40
0.0
  9
$THICKNESS
 40
0.0
  9
$LIMCHECK
 70
     0
  9
$CHAMFERA
 40
10.0
  9
$CHAMFERB
 40
10.0
  9
$CHAMFERC
 40
20.0
  9
$CHAMFERD
 40
0.0
  9
$SKPOLY
 70
     0
  9
$TDCREATE
 40
2455749.471708646
  9
$TDUCREATE
 40
2455749.388375313
  9
$TDUPDATE
 40
2455749.471708657
  9
$TDUUPDATE
 40
2455749.388375324
  9
$TDINDWG
 40
0.0000000116
  9
$TDUSRTIMER
 40
0.0000000116
  9
$USRTIMER
 70
     1
  9
$ANGBASE
 50
0.0
  9
$ANGDIR
 70
     0
  9
$PDMODE
 70
     0
  9
$PDSIZE
 40
0.0
  9
$PLINEWID
 40
0.0
  9
$SPLFRAME
 70
     0
  9
$SPLINETYPE
 70
     6
  9
$SPLINESEGS
 70
     8
  9
$HANDSEED
  5
4B7
  9
$SURFTAB1
 70
     6
  9
$SURFTAB2
 70
     6
  9
$SURFTYPE
 70
     6
  9
$SURFU
 70
     6
  9
$SURFV
 70
     6
  9
$UCSBASE
  2

  9
$UCSNAME
  2

  9
$UCSORG
 10
0.0
 20
0.0
 30
0.0
  9
$UCSXDIR
 10
1.0
 20
0.0
 30
0.0
  9
$UCSYDIR
 10
0.0
 20
1.0
 30
0.0
  9
$UCSORTHOREF
  2

  9
$UCSORTHOVIEW
 70
     0
  9
$UCSORGTOP
 10
0.0
 20
0.0
 30
0.0
  9
$UCSORGBOTTOM
 10
0.0
 20
0.0
 30
0.0
  9
$UCSORGLEFT
 10
0.0
 20
0.0
 30
0.0
  9
$UCSORGRIGHT
 10
0.0
 20
0.0
 30
0.0
  9
$UCSORGFRONT
 10
0.0
 20
0.0
 30
0.0
  9
$UCSORGBACK
 10
0.0
 20
0.0
 30
0.0
  9
$PUCSBASE
  2

  9
$PUCSNAME
  2

  9
$PUCSORG
 10
0.0
 20
0.0
 30
0.0
  9
$PUCSXDIR
 10
1.0
 20
0.0
 30
0.0
  9
$PUCSYDIR
 10
0.0
 20
1.0
 30
0.0
  9
$PUCSORTHOREF
  2

  9
$PUCSORTHOVIEW
 70
     0
  9
$PUCSORGTOP
 10
0.0
 20
0.0
 30
0.0
  9
$PUCSORGBOTTOM
 10
0.0
 20
0.0
 30
0.0
  9
$PUCSORGLEFT
 10
0.0
 20
0.0
 30
0.0
  9
$PUCSORGRIGHT
 10
0.0
 20
0.0
 30
0.0
  9
$PUCSORGFRONT
 10
0.0
 20
0.0
 30
0.0
  9
$PUCSORGBACK
 10
0.0
 20
0.0
 30
0.0
  9
$USERI1
 70
     0
  9
$USERI2
 70
     0
  9
$USERI3
 70
     0
  9
$USERI4
 70
     0
  9
$USERI5
 70
     0
  9
$USERR1
 40
0.0
  9
$USERR2
 40
0.0
  9
$USERR3
 40
0.0
  9
$USERR4
 40
0.0
  9
$USERR5
 40
0.0
  9
$WORLDVIEW
 70
     1
  9
$SHADEDGE
 70
     3
  9
$SHADEDIF
 70
    70
  9
$TILEMODE
 70
     1
  9
$MAXACTVP
 70
    64
  9
$PINSBASE
 10
0.0
 20
0.0
 30
0.0
  9
$PLIMCHECK
 70
     0
  9
$PEXTMIN
 10
0.0
 20
0.0
 30
0.0
  9
$PEXTMAX
 10
1682.0
 20
2378.0
 30
0.0
  9
$PLIMMIN
 10
0.0
 20
0.0
  9
$PLIMMAX
 10
1682.0
 20
2378.0
  9
$UNITMODE
 70
     0
  9
$VISRETAIN
 70
     1
  9
$PLINEGEN
 70
     0
  9
$PSLTSCALE
 70
     1
  9
$TREEDEPTH
 70
  3020
  9
$CMLSTYLE
  2
Standard
  9
$CMLJUST
 70
     0
  9
$CMLSCALE
 40
20.0
  9
$PROXYGRAPHICS
 70
     1
  9
$MEASUREMENT
 70
     1
  9
$CELWEIGHT
370
    -1
  9
$ENDCAPS
280
     0
  9
$JOINSTYLE
280
     0
  9
$LWDISPLAY
290
     0
  9
$INSUNITS
 70
     4
  9
$HYPERLINKBASE
  1

  9
$STYLESHEET
  1

  9
$XEDIT
290
     1
  9
$CEPSNTYPE
380
     0
  9
$PSTYLEMODE
290
     1
  9
$FINGERPRINTGUID
  2
{126849D5-1947-4C00-9D7E-8E2C2693A064}
  9
$VERSIONGUID
  2
{FAEB1C32-E019-11D5-929B-00C0DF256EC4}
  9
$EXTNAMES
290
     1
  9
$PSVPSCALE
 40
0.0
  9
$OLESTARTUP
290
     0
  0
ENDSEC
  0
SECTION
  2
CLASSES
  0
CLASS
  1
ACDBDICTIONARYWDFLT
  2
AcDbDictionaryWithDefault
  3
ObjectDBX Classes
 90
        0
280
     0
281
     0
  0
CLASS
  1
VISUALSTYLE
  2
AcDbVisualStyle
  3
ObjectDBX Classes
 90
     4095
280
     0
281
     0
  0
CLASS
  1
SCALE
  2
AcDbScale
  3
ObjectDBX Classes
 90
     1153
280
     0
281
     0
  0
CLASS
  1
DICTIONARYVAR
  2
AcDbDictionaryVar
  3
ObjectDBX Classes
 90
        0
280
     0
281
     0
  0
CLASS
  1
ACDBPLACEHOLDER
  2
AcDbPlaceHolder
  3
ObjectDBX Classes
 90
        0
280
     0
281
     0
  0
CLASS
  1
LAYOUT
  2
AcDbLayout
  3
ObjectDBX Classes
 90
        0
280
     0
281
     0
  0
ENDSEC
  0
SECTION
  2
TABLES
  0
TABLE
  2
VPORT
  5
8
330
0
100
AcDbSymbolTable
 70
     1
  0
VPORT
  5
29
330
8
100
AcDbSymbolTableRecord
100
AcDbViewportTableRecord
  2
*Active
 70
     0
 10
0.0
 20
0.0
 11
1.0
 21
1.0
 12
344.1869158879
 22
148.5
 13
0.0
 23
0.0
 14
10.0
 24
10.0
 15
10.0
 25
10.0
 16
0.0
 26
0.0
 36
1.0
 17
0.0
 27
0.0
 37
0.0
 40
297.0
 41
1.9729729729
 42
50.0
 43
0.0
 44
0.0
 50
0.0
 51
0.0
 71
     0
 72
   100
 73
     1
 74
     3
 75
     0
 76
     0
 77
     0
 78
     0
281
     0
 65
     1
110
0.0
120
0.0
130
0.0
111
1.0
121
0.0
131
0.0
112
0.0
122
1.0
132
0.0
 79
     0
146
0.0
  0
ENDTAB
  0
TABLE
  2
LTYPE
  5
5
330
0
100
AcDbSymbolTable
 70
     2
  0
LTYPE
  5
14
330
5
100
AcDbSymbolTableRecord
100
AcDbLinetypeTableRecord
  2
ByBlock
 70
     0
  3

 72
    65
 73
     0
 40
0.0
  0
LTYPE
  5
15
330
5
100
AcDbSymbolTableRecord
100
AcDbLinetypeTableRecord
  2
ByLayer
 70
     0
  3

 72
    65
 73
     0
 40
0.0
  0
LTYPE
  5
16
330
5
100
AcDbSymbolTableRecord
100
AcDbLinetypeTableRecord
  2
Continuous
 70
     0
  3
Solid line
 72
    65
 73
     0
 40
0.0
  0
LTYPE
  5
60
330
5
100
AcDbSymbolTableRecord
100
AcDbLinetypeTableRecord
  2
CENTER2
 70
     0
  3
Center (.5x) ___ _ ___ _ ___ _ ___ _ ___ _ ___
 72
    65
 73
     4
 40
28.575
 49
19.05
 74
     4
 75
     0
340
0
 46
0.0
 50
0.0
 44
0.0
 45
0.0
 49
-3.175
 74
     4
 75
     0
340
0
 46
0.0
 50
0.0
 44
0.0
 45
0.0
 49
3.175
 74
     4
 75
     0
340
0
 46
0.0
 50
0.0
 44
0.0
 45
0.0
 49
-3.175
 74
     4
 75
     0
340
0
 46
0.0
 50
0.0
 44
0.0
 45
0.0
  0
ENDTAB
  0
TABLE
  2
LAYER
  5
2
330
0
100
AcDbSymbolTable
 70
     9
  0
LAYER
  5
10
330
2
100
AcDbSymbolTableRecord
100
AcDbLayerTableRecord
  2
0
 70
     0
 62
     7
  6
Continuous
370
    -3
390
F
  0
LAYER
  5
5D
330
2
100
AcDbSymbolTableRecord
100
AcDbLayerTableRecord
  2
Default
 70
     0
 62
     7
  6
Continuous
370
    -3
390
F
  0
LAYER
  5
79
330
2
100
AcDbSymbolTableRecord
100
AcDbLayerTableRecord
  2
410019031__STOP_
 70
     0
 62
     7
  6
Continuous
370
    -3
390
F
  0
LAYER
  5
8A
330
2
100
AcDbSymbolTableRecord
100
AcDbLayerTableRecord
  2
17378031__STOP_P
 70
     0
 62
     7
  6
Continuous
370
    -3
390
F
  0
LAYER
  5
BF
330
2
100
AcDbSymbolTableRecord
100
AcDbLayerTableRecord
  2
410069031__BOX_S
 70
     0
 62
     7
  6
Continuous
370
    -3
390
F
  0
LAYER
  5
C8
330
2
100
AcDbSymbolTableRecord
100
AcDbLayerTableRecord
  2
410052031__BOX_0
 70
     0
 62
     7
  6
Continuous
370
    -3
390
F
  0
LAYER
  5
2D8
330
2
100
AcDbSymbolTableRecord
100
AcDbLayerTableRecord
  2
410062031__BOX_L
 70
     0
 62
     7
  6
Continuous
370
    -3
390
F
  0
LAYER
  5
329
330
2
100
AcDbSymbolTableRecord
100
AcDbLayerTableRecord
  2
15750031_DICHTUN
 70
     0
 62
     7
  6
Continuous
370
    -3
390
F
  0
LAYER
  5
3C3
330
2
100
AcDbSymbolTableRecord
100
AcDbLayerTableRecord
  2
410065031__BOX_S
 70
     0
 62
     7
  6
Continuous
370
    -3
390
F
  0
ENDTAB
  0
TABLE
  2
STYLE
  5
3
330
0
100
AcDbSymbolTable
 70
     2
  0
STYLE
  5
11
330
3
100
AcDbSymbolTableRecord
100
AcDbTextStyleTableRecord
  2
Standard
 70
     0
 40
0.0
 41
1.0
 50
0.0
 71
     0
 42
2.5
  3
txt
  4

  0
STYLE
  5
4A6
330
3
100
AcDbSymbolTableRecord
100
AcDbTextStyleTableRecord
  2
SEACAD_seiso_ttf
 70
     0
 40
0.0
 41
1.0
 50
0.0
 71
     0
 42
0.2
  3
seiso.ttf
  4

  0
ENDTAB
  0
TABLE
  2
VIEW
  5
6
330
0
100
AcDbSymbolTable
 70
     0
  0
ENDTAB
  0
TABLE
  2
UCS
  5
7
330
0
100
AcDbSymbolTable
 70
     0
  0
ENDTAB
  0
TABLE
  2
APPID
  5
9
330
0
100
AcDbSymbolTable
 70
     1
  0
APPID
  5
12
330
9
100
AcDbSymbolTableRecord
100
AcDbRegAppTableRecord
  2
ACAD
 70
     0
  0
ENDTAB
  0
TABLE
  2
DIMSTYLE
  5
A
330
0
100
AcDbSymbolTable
 70
     1
100
AcDbDimStyleTable
  0
DIMSTYLE
105
27
330
A
100
AcDbSymbolTableRecord
100
AcDbDimStyleTableRecord
  2
ISO-25
 70
     0
 41
2.5
 42
0.625
 43
3.75
 44
1.25
 73
     0
 74
     0
 77
     1
 78
     8
140
2.5
141
2.5
143
0.0393700787
147
0.625
171
     3
172
     1
271
     2
272
     2
274
     3
278
    44
283
     0
284
     8
340
11
  0
ENDTAB
  0
TABLE
  2
BLOCK_RECORD
  5
1
330
0
100
AcDbSymbolTable
 70
     7
  0
BLOCK_RECORD
  5
1F
330
1
100
AcDbSymbolTableRecord
100
AcDbBlockTableRecord
  2
*Model_Space
340
22
  0
BLOCK_RECORD
  5
1B
330
1
100
AcDbSymbolTableRecord
100
AcDbBlockTableRecord
  2
*Paper_Space
340
1E
  0
BLOCK_RECORD
  5
5E
330
1
100
AcDbSymbolTableRecord
100
AcDbBlockTableRecord
  2
SEANNOT_GROUP
340
0
102
{BLKREFS
331
5F
102
}
  0
BLOCK_RECORD
  5
67
330
1
100
AcDbSymbolTableRecord
100
AcDbBlockTableRecord
  2
SEANNOT_GROUP1
340
0
102
{BLKREFS
331
68
102
}
  0
BLOCK_RECORD
  5
6D
330
1
100
AcDbSymbolTableRecord
100
AcDbBlockTableRecord
  2
SEANNOT_GROUP2
340
0
102
{BLKREFS
331
6E
102
}
  0
BLOCK_RECORD
  5
77
330
1
100
AcDbSymbolTableRecord
100
AcDbBlockTableRecord
  2
SE
340
0
102
{BLKREFS
331
78
102
}
  0
BLOCK_RECORD
  5
2E9
330
1
100
AcDbSymbolTableRecord
100
AcDbBlockTableRecord
  2
SE1
340
0
102
{BLKREFS
331
2EA
102
}
  0
BLOCK_RECORD
  5
3CA
330
1
100
AcDbSymbolTableRecord
100
AcDbBlockTableRecord
  2
SE2
340
0
102
{BLKREFS
331
3CB
102
}
  0
ENDTAB
  0
ENDSEC
  0
SECTION
  2
BLOCKS
  0
BLOCK
  5
20
330
1F
100
AcDbEntity
  8
0
100
AcDbBlockBegin
  2
*Model_Space
 70
     0
 10
0.0
 20
0.0
 30
0.0
  3
*Model_Space
  1

  0
ENDBLK
  5
21
330
1F
100
AcDbEntity
  8
0
100
AcDbBlockEnd
  0
BLOCK
  5
1C
330
1B
100
AcDbEntity
 67
     1
  8
0
100
AcDbBlockBegin
  2
*Paper_Space
 70
     0
 10
0.0
 20
0.0
 30
0.0
  3
*Paper_Space
  1

  0
ENDBLK
  5
1D
330
1B
100
AcDbEntity
 67
     1
  8
0
100
AcDbBlockEnd
  0
BLOCK
  5
63
330
5E
100
AcDbEntity
  8
0
100
AcDbBlockBegin
  2
SEANNOT_GROUP
 70
     0
 10
0.0
 20
0.0
 30
0.0
  3
SEANNOT_GROUP
  1

  0
LINE
  5
61
330
5E
100
AcDbEntity
  8
Default
  6
CENTER2
 62
     7
100
AcDbLine
 10
259.6403790873
 20
361.9403795343
 30
0.0
 11
219.6403799814
 21
361.9403795343
 31
0.0
  0
LINE
  5
62
330
5E
100
AcDbEntity
  8
Default
  6
CENTER2
 62
     7
100
AcDbLine
 10
239.6403795343
 20
381.9403790873
 30
0.0
 11
239.6403795343
 21
341.9403799814
 31
0.0
  0
ENDBLK
  5
64
330
5E
100
AcDbEntity
  8
0
100
AcDbBlockEnd
  0
BLOCK
  5
6B
330
67
100
AcDbEntity
  8
0
100
AcDbBlockBegin
  2
SEANNOT_GROUP1
 70
     0
 10
0.0
 20
0.0
 30
0.0
  3
SEANNOT_GROUP1
  1

  0
LINE
  5
69
330
67
100
AcDbEntity
  8
Default
  6
CENTER2
 62
     7
100
AcDbLine
 10
111.449999553
 20
225.85
 30
0.0
 11
71.450000447
 21
225.85
 31
0.0
  0
LINE
  5
6A
330
67
100
AcDbEntity
  8
Default
  6
CENTER2
 62
     7
100
AcDbLine
 10
91.45
 20
245.849999553
 30
0.0
 11
91.45
 21
205.850000447
 31
0.0
  0
ENDBLK
  5
6C
330
67
100
AcDbEntity
  8
0
100
AcDbBlockEnd
  0
BLOCK
  5
75
330
6D
100
AcDbEntity
  8
0
100
AcDbBlockBegin
  2
SEANNOT_GROUP2
 70
     0
 10
0.0
 20
0.0
 30
0.0
  3
SEANNOT_GROUP2
  1

  0
LINE
  5
6F
330
6D
100
AcDbEntity
  8
Default
  6
CENTER2
 62
     7
100
AcDbLine
 10
111.449999553
 20
361.9403795343
 30
0.0
 11
71.450000447
 21
361.9403795343
 31
0.0
  0
LINE
  5
70
330
6D
100
AcDbEntity
  8
Default
  6
CENTER2
 62
     7
100
AcDbLine
 10
91.45
 20
381.9403790873
 30
0.0
 11
91.45
 21
341.9403799814
 31
0.0
  0
LINE
  5
71
330
6D
100
AcDbEntity
  8
Default
  6
CENTER2
 62
     7
100
AcDbLine
 10
116.4499994412
 20
361.9403795343
 30
0.0
 11
165.9351098376
 21
361.9403795343
 31
0.0
  0
LINE
  5
72
330
6D
100
AcDbEntity
  8
Default
  6
CENTER2
 62
     7
100
AcDbLine
 10
91.45
 20
386.9403789756
 30
0.0
 11
91.45
 21
436.425489372
 31
0.0
  0
LINE
  5
73
330
6D
100
AcDbEntity
  8
Default
  6
CENTER2
 62
     7
100
AcDbLine
 10
66.4500005588
 20
361.9403795343
 30
0.0
 11
16.9648901624
 21
361.9403795343
 31
0.0
  0
LINE
  5
74
330
6D
100
AcDbEntity
  8
Default
  6
CENTER2
 62
     7
100
AcDbLine
 10
91.45
 20
336.9403800931
 30
0.0
 11
91.45
 21
287.4552696967
 31
0.0
  0
ENDBLK
  5
76
330
6D
100
AcDbEntity
  8
0
100
AcDbBlockEnd
  0
BLOCK
  5
2E7
330
77
100
AcDbEntity
  8
0
100
AcDbBlockBegin
  2
SE
 70
     0
 10
0.0
 20
0.0
 30
0.0
  3
SE
  1

  0
LINE
  5
7A
330
77
100
AcDbEntity
  8
410019031__STOP_
  6
Continuous
 62
     7
100
AcDbLine
 10
6.35
 20
378.9403795343
 30
0.0
 11
6.35
 21
344.9403795343
 31
0.0
  0
LINE
  5
7B
330
77
100
AcDbEntity
  8
410019031__STOP_
  6
Continuous
 62
     7
100
AcDbLine
 10
17.9745619977
 20
360.0403795343
 30
0.0
 11
7.5978993101
 21
360.0403795343
 31
0.0
  0
ARC
  5
7C
330
77
100
AcDbEntity
  8
410019031__STOP_
  6
Continuous
 62
     7
100
AcDbCircle
 10
31.0328174892
 20
370.6716295343
 30
0.0
 40
24.41027174411696
100
AcDbArc
 50
163.7486608761
 51
196.2513391239
  0
ARC
  5
7D
330
77
100
AcDbEntity
  8
410019031__STOP_
  6
Continuous
 62
     7
100
AcDbCircle
 10
0.2153425137
 20
361.9403795343
 30
0.0
 40
7.623132220585337
100
AcDbArc
 50
345.5673744438
 51
14.4326255562
  0
LINE
  5
7E
330
77
100
AcDbEntity
  8
410019031__STOP_
  6
Continuous
 62
     7
100
AcDbLine
 10
7.5978993101
 20
363.8403795343
 30
0.0
 11
17.9745619977
 21
363.8403795343
 31
0.0
  0
LINE
  5
7F
330
77
100
AcDbEntity
  8
410019031__STOP_
  6
Continuous
 62
     7
100
AcDbLine
 10
19.35
 20
377.5028795343
 30
0.0
 11
7.5978993101
 21
377.5028795343
 31
0.0
  0
LINE
  5
80
330
77
100
AcDbEntity
  8
410019031__STOP_
  6
Continuous
 62
     7
100
AcDbLine
 10
6.617025332
 20
379.4028795343
 30
0.0
 11
7.5978993101
 21
379.4028795343
 31
0.0
  0
SPLINE
  5
81
330
77
100
AcDbEntity
  8
410019031__STOP_
  6
Continuous
 62
     7
100
AcDbSpline
210
0.0
220
0.0
230
1.0
 70
     8
 71
     3
 72
    18
 73
    14
 74
     0
 42
0.0000000048754831
 43
0.0000000001
 40
0.0
 40
0.0
 40
0.0
 40
0.0
 40
0.2500000000000002
 40
0.2500000000000002
 40
0.3750000000000002
 40
0.3750000000000002
 40
0.5000000000000003
 40
0.5000000000000003
 40
0.6250000000000004
 40
0.6250000000000004
 40
0.7500000000000004
 40
0.7500000000000004
 40
1.0
 40
1.0
 40
1.0
 40
1.0
 10
7.597899310143625
 20
377.502879534344
 30
0.0
 10
7.675941628613375
 20
377.7872468498301
 30
0.0
 10
7.735196757347268
 20
378.047842957814
 30
0.0
 10
7.79613799222062
 20
378.401484101621
 30
0.0
 10
7.811655497403647
 20
378.5131437250389
 30
0.0
 10
7.832110214336607
 20
378.7163013364241
 30
0.0
 10
7.837247961222427
 20
378.8088231548583
 30
0.0
 10
7.83737049529118
 20
378.9757247898347
 30
0.0
 10
7.832261864734541
 20
379.0505805149715
 30
0.0
 10
7.811764488437067
 20
379.1786758783551
 30
0.0
 10
7.796520950212216
 20
379.2317859224954
 30
0.0
 10
7.736245997644165
 20
379.3596490608467
 30
0.0
 10
7.675959800161058
 20
379.4028795343441
 30
0.0
 10
7.597899310143319
 20
379.402879534344
 30
0.0
  0
LINE
  5
82
330
77
100
AcDbEntity
  8
410019031__STOP_
  6
Continuous
 62
     7
100
AcDbLine
 10
7.5978993101
 20
379.4028795343
 30
0.0
 11
19.35
 21
379.4028795343
 31
0.0
  0
LINE
  5
83
330
77
100
AcDbEntity
  8
410019031__STOP_
  6
Continuous
 62
     7
100
AcDbLine
 10
6.617025332
 20
344.4778795343
 30
0.0
 11
7.5978993101
 21
344.4778795343
 31
0.0
  0
LINE
  5
84
330
77
100
AcDbEntity
  8
410019031__STOP_
  6
Continuous
 62
     7
100
AcDbLine
 10
19.35
 20
344.4778795343
 30
0.0
 11
7.5978993101
 21
344.4778795343
 31
0.0
  0
ARC
  5
85
330
77
100
AcDbEntity
  8
410019031__STOP_
  6
Continuous
 62
     7
100
AcDbCircle
 10
31.0328174892
 20
353.2091295343
 30
0.0
 40
24.41027174411695
100
AcDbArc
 50
163.7486608761
 51
196.2513391239
  0
SPLINE
  5
86
330
77
100
AcDbEntity
  8
410019031__STOP_
  6
Continuous
 62
     7
100
AcDbSpline
210
0.0
220
0.0
230
1.0
 70
     8
 71
     3
 72
    18
 73
    14
 74
     0
 42
0.0000000048753753
 43
0.0000000001
 40
0.0
 40
0.0
 40
0.0
 40
0.0
 40
0.2499999999999984
 40
0.2499999999999984
 40
0.3749999999999982
 40
0.3749999999999982
 40
0.499999999999998
 40
0.499999999999998
 40
0.6249999999999978
 40
0.6249999999999978
 40
0.7499999999999976
 40
0.7499999999999976
 40
1.0
 40
1.0
 40
1.0
 40
1.0
 10
7.597899310143652
 20
344.477879534344
 30
0.0
 10
7.675941628613487
 20
344.477879534344
 30
0.0
 10
7.73519675734724
 20
344.5197317278491
 30
0.0
 10
7.796137992220592
 20
344.6477464313276
 30
0.0
 10
7.811655497403619
 20
344.7017604426245
 30
0.0
 10
7.83211021433658
 20
344.828877007983
 30
0.0
 10
7.837247961222427
 20
344.9022602135354
 30
0.0
 10
7.837370495291207
 20
345.0687057017109
 30
0.0
 10
7.832261864734569
 20
345.1625919787547
 30
0.0
 10
7.811764488437123
 20
345.366887855499
 30
0.0
 10
7.796520950212299
 20
345.4766263392796
 30
0.0
 10
7.736245997644331
 20
345.8276611123644
 30
0.0
 10
7.67595980016117
 20
346.0934460061369
 30
0.0
 10
7.597899310143625
 20
346.377879534344
 30
0.0
  0
LINE
  5
87
330
77
100
AcDbEntity
  8
410019031__STOP_
  6
Continuous
 62
     7
100
AcDbLine
 10
7.5978993101
 20
346.3778795343
 30
0.0
 11
19.35
 21
346.3778795343
 31
0.0
  0
LINE
  5
88
330
77
100
AcDbEntity
  8
410019031__STOP_
  6
Continuous
 62
     7
100
AcDbLine
 10
6.6170244995
 20
379.4028795343
 30
0.0
 11
6.35
 21
378.9403795343
 31
0.0
  0
LINE
  5
89
330
77
100
AcDbEntity
  8
410019031__STOP_
  6
Continuous
 62
     7
100
AcDbLine
 10
6.35
 20
344.9403795343
 30
0.0
 11
6.6170244995
 21
344.4778795343
 31
0.0
  0
SPLINE
  5
8B
330
77
100
AcDbEntity
  8
17378031__STOP_P
  6
Continuous
 62
     7
100
AcDbSpline
210
0.0
220
0.0
230
1.0
 70
     8
 71
     3
 72
    20
 73
    16
 74
     0
 42
0.0000000000411033
 43
0.0000000001
 40
0.8224150425972531
 40
0.8224150425972531
 40
0.8224150425972531
 40
0.8224150425972531
 40
0.828125
 40
0.828125
 40
0.84375
 40
0.84375
 40
0.859375
 40
0.859375
 40
0.875
 40
0.875
 40
0.890625
 40
0.890625
 40
0.90625
 40
0.90625
 40
0.9077649104108049
 40
0.9077649104108049
 40
0.9077649104108049
 40
0.9077649104108049
 10
81.12459617064198
 20
419.5913925948601
 30
0.0
 10
81.12317035558438
 20
419.6116816553965
 30
0.0
 10
81.19762477631582
 20
419.6320265521192
 30
0.0
 10
81.76679294864165
 20
419.7083755790853
 30
0.0
 10
82.75027540301258
 20
419.7632392086994
 30
0.0
 10
85.55196570281551
 20
419.8740098736413
 30
0.0
 10
87.38186233638743
 20
419.929892257168
 30
0.0
 10
91.24560186835366
 20
420.0399560189401
 30
0.0
 10
93.31085318757246
 20
420.0954634471622
 30
0.0
 10
97.02523024483516
 20
420.2065382258461
 30
0.0
 10
98.65394906215988
 20
420.2613871244158
 30
0.0
 10
101.0003104517776
 20
420.3720119835207
 30
0.0
 10
101.6952759692301
 20
420.4275574512278
 30
0.0
 10
101.818524658595
 20
420.4878635555864
 30
0.0
 10
101.8239194237833
 20
420.4931988815709
 30
0.0
 10
101.8238868638497
 20
420.498538560847
 30
0.0
  0
SPLINE
  5
8C
330
77
100
AcDbEntity
  8
17378031__STOP_P
  6
Continuous
 62
     7
100
AcDbSpline
210
0.0
220
0.0
230
1.0
 70
     8
 71
     3
 72
    36
 73
    32
 74
     0
 42
0.0000000000441427
 43
0.0000000001
 40
0.0344558179723858
 40
0.0344558179723858
 40
0.0344558179723858
 40
0.0344558179723858
 40
0.0355379063920628
 40
0.0355379063920628
 40
0.041189804672703
 40
0.041189804672703
 40
0.0468417029533431
 40
0.0468417029533431
 40
0.0524936012339833
 40
0.0524936012339833
 40
0.0581454995146234
 40
0.0581454995146234
 40
0.0637973977952635
 40
0.0637973977952635
 40
0.0694492960759037
 40
0.0694492960759037
 40
0.0751011943565438
 40
0.0751011943565438
 40
0.080753092637184
 40
0.080753092637184
 40
0.0864049909178241
 40
0.0864049909178241
 40
0.0920568891984643
 40
0.0920568891984643
 40
0.0977087874791044
 40
0.0977087874791044
 40
0.1033606857597446
 40
0.1033606857597446
 40
0.1090125840403847
 40
0.1090125840403847
 40
0.1134143877801751
 40
0.1134143877801751
 40
0.1134143877801751
 40
0.1134143877801751
 10
100.4014928269773
 20
421.3459788223986
 30
0.0
 10
100.401472617411
 20
421.3419106739257
 30
0.0
 10
100.3987813769592
 20
421.3378450567594
 30
0.0
 10
100.3653516765327
 20
421.3125696821155
 30
0.0
 10
100.2641971161921
 20
421.2912438984617
 30
0.0
 10
99.92123217799302
 20
421.2488162111465
 30
0.0
 10
99.67887454470696
 20
421.2274904061214
 30
0.0
 10
99.06593644076659
 20
421.185062750141
 30
0.0
 10
98.69425483603284
 20
421.1637369237274
 30
0.0
 10
97.84132165685197
 20
421.1213092991097
 30
0.0
 10
97.35846855604892
 20
421.0999834512942
 30
0.0
 10
96.30715429953884
 20
421.0575558580515
 30
0.0
 10
95.73666902905978
 20
421.0362299888216
 30
0.0
 10
94.53819331517731
 20
420.9938024269795
 30
0.0
 10
93.90785451013365
 20
420.97247653632
 30
0.0
 10
92.62054719692627
 20
420.9300490058962
 30
0.0
 10
91.96102018156496
 20
420.9087230937959
 30
0.0
 10
90.64748245519024
 20
420.8662955948084
 30
0.0
 10
89.99082740859481
 20
420.8449696612518
 30
0.0
 10
88.71488751658974
 20
420.8025421937267
 30
0.0
 10
88.09300099969869
 20
420.7812162387005
 30
0.0
 10
86.91661266864104
 20
420.738788802651
 30
0.0
 10
86.35967827126973
 20
420.7174628261424
 30
0.0
 10
85.3399125230122
 20
420.6750354215944
 30
0.0
 10
84.87493588962298
 20
420.6537094235873
 30
0.0
 10
84.06121231917744
 20
420.6112820505601
 30
0.0
 10
83.71071165646734
 20
420.5899560310402
 30
0.0
 10
83.14240349211774
 20
420.5475286895563
 30
0.0
 10
82.92331905486866
 20
420.5262026485167
 30
0.0
 10
82.66052439928461
 20
420.4884674036089
 30
0.0
 10
82.58829485778504
 20
420.4718776318787
 30
0.0
 10
82.55996750266372
 20
420.4553258883209
 30
0.0
  0
SPLINE
  5
8D
330
77
100
AcDbEntity
  8
17378031__STOP_P
  6
Continuous
 62
     7
100
AcDbSpline
210
0.0
220
0.0
230
1.0
 70
     8
 71
     3
 72
    26
 73
    22
 74
     0
 42
0.0000000000405133
 43
0.0000000001
 40
0.1952042810132896
 40
0.1952042810132896
 40
0.1952042810132896
 40
0.1952042810132896
 40
0.199442956530627
 40
0.199442956530627
 40
0.2050948548112671
 40
0.2050948548112671
 40
0.2107467530919073
 40
0.2107467530919073
 40
0.2163986513725474
 40
0.2163986513725474
 40
0.2220505496531876
 40
0.2220505496531876
 40
0.2277024479338277
 40
0.2277024479338277
 40
0.2333543462144679
 40
0.2333543462144679
 40
0.239006244495108
 40
0.239006244495108
 40
0.2446581427757482
 40
0.2446581427757482
 40
0.2477200665039539
 40
0.2477200665039539
 40
0.2477200665039539
 40
0.2477200665039539
 10
100.3058352180178
 20
419.5327591855298
 30
0.0
 10
100.3059579819507
 20
419.516818280297
 30
0.0
 10
100.2656234682538
 20
419.500845613692
 30
0.0
 10
100.0780154648872
 20
419.4637230933899
 30
0.0
 10
99.89928061877731
 20
419.4423966842576
 30
0.0
 10
99.4086967410641
 20
419.3999699140385
 30
0.0
 10
99.09598785938361
 20
419.3786434831275
 30
0.0
 10
98.35327582612558
 20
419.3362167448599
 30
0.0
 10
97.92188512974936
 20
419.3148902921438
 30
0.0
 10
96.96331566630879
 20
419.2724635858385
 30
0.0
 10
96.43428906443923
 20
419.2511371113142
 30
0.0
 10
95.30659116933612
 20
419.2087104369803
 30
0.0
 10
94.70570152528781
 20
419.1873839406362
 30
0.0
 10
93.4637845152807
 20
419.1449572983011
 30
0.0
 10
92.82027606427837
 20
419.1236307801486
 30
0.0
 10
91.52455596677352
 20
419.0812041697753
 30
0.0
 10
90.86972105385156
 20
419.0598776297717
 30
0.0
 10
89.58318152767337
 20
419.0174510514962
 30
0.0
 10
88.94883893302048
 20
418.9961244896224
 30
0.0
 10
88.01232576773748
 20
418.963418896367
 30
0.0
 10
87.69040363577149
 20
418.9518933201898
 30
0.0
 10
87.37826914447788
 20
418.94037052354
 30
0.0
  0
SPLINE
  5
8E
330
77
100
AcDbEntity
  8
17378031__STOP_P
  6
Continuous
 62
     7
100
AcDbSpline
210
0.0
220
0.0
230
1.0
 70
     8
 71
     3
 72
     8
 73
     4
 74
     0
 42
0.0000000007022203
 43
0.0000000001
 40
0.0
 40
0.0
 40
0.0
 40
0.0
 40
0.0011836681516045
 40
0.0011836681516045
 40
0.0011836681516045
 40
0.0011836681516045
 10
81.03423744334364
 20
421.4739673202525
 30
0.0
 10
81.02794036922582
 20
421.4697971598193
 30
0.0
 10
81.02494886960893
 20
421.4656302886571
 30
0.0
 10
81.02523387335894
 20
421.4614661686255
 30
0.0
  0
LINE
  5
8F
330
77
100
AcDbEntity
  8
17378031__STOP_P
  6
Continuous
 62
     7
100
AcDbLine
 10
81.503786298
 20
421.7346420937
 30
0.0
 11
81.0342374433
 21
421.4739673203
 31
0.0
  0
LINE
  5
90
330
77
100
AcDbEntity
  8
17378031__STOP_P
  6
Continuous
 62
     7
100
AcDbLine
 10
81.0342374433
 20
421.4739673203
 30
0.0
 11
81.3148771363
 21
421.4739673203
 31
0.0
  0
ARC
  5
91
330
77
100
AcDbEntity
  8
17378031__STOP_P
  6
Continuous
 62
     7
100
AcDbCircle
 10
101.0301893233
 20
-283.3163041693
 30
0.0
 40
705.0659687724152
100
AcDbArc
 50
90.3740199489
 51
91.602334373
  0
LINE
  5
92
330
77
100
AcDbEntity
  8
17378031__STOP_P
  6
Continuous
 62
     7
100
AcDbLine
 10
102.18
 20
421.7346420937
 30
0.0
 11
80.72
 21
421.7346420937
 31
0.0
  0
LINE
  5
93
330
77
100
AcDbEntity
  8
17378031__STOP_P
  6
Continuous
 62
     7
100
AcDbLine
 10
79.2679093201
 20
425.1803795343
 30
0.0
 11
84.4063267159
 21
425.1803795343
 31
0.0
  0
LINE
  5
94
330
77
100
AcDbEntity
  8
17378031__STOP_P
  6
Continuous
 62
     7
100
AcDbLine
 10
79.2679093201
 20
425.1803795343
 30
0.0
 11
78.9731652084
 21
425.1803795343
 31
0.0
  0
LINE
  5
95
330
77
100
AcDbEntity
  8
17378031__STOP_P
  6
Continuous
 62
     7
100
AcDbLine
 10
103.6320906799
 20
425.1803795343
 30
0.0
 11
103.9268347916
 21
425.1803795343
 31
0.0
  0
LINE
  5
96
330
77
100
AcDbEntity
  8
17378031__STOP_P
  6
Continuous
 62
     7
100
AcDbLine
 10
96.5884173958
 20
425.1803795343
 30
0.0
 11
96.5884173958
 21
429.8412897879
 31
0.0
  0
LINE
  5
97
330
77
100
AcDbEntity
  8
17378031__STOP_P
  6
Continuous
 62
     7
100
AcDbLine
 10
98.4936732841
 20
425.1803795343
 30
0.0
 11
103.6320906799
 21
425.1803795343
 31
0.0
  0
LINE
  5
98
330
77
100
AcDbEntity
  8
17378031__STOP_P
  6
Continuous
 62
     7
100
AcDbLine
 10
98.4936732841
 20
425.1803795343
 30
0.0
 11
96.5884173958
 21
425.1803795343
 31
0.0
  0
LINE
  5
99
330
77
100
AcDbEntity
  8
17378031__STOP_P
  6
Continuous
 62
     7
100
AcDbLine
 10
84.4063267159
 20
425.1803795343
 30
0.0
 11
84.4063267159
 21
429.8412897879
 31
0.0
  0
LINE
  5
9A
330
77
100
AcDbEntity
  8
17378031__STOP_P
  6
Continuous
 62
     7
100
AcDbLine
 10
86.3115826042
 20
425.1803795343
 30
0.0
 11
96.5884173958
 21
425.1803795343
 31
0.0
  0
LINE
  5
9B
330
77
100
AcDbEntity
  8
17378031__STOP_P
  6
Continuous
 62
     7
100
AcDbLine
 10
86.3115826042
 20
425.1803795343
 30
0.0
 11
84.4063267159
 21
425.1803795343
 31
0.0
  0
LINE
  5
9C
330
77
100
AcDbEntity
  8
17378031__STOP_P
  6
Continuous
 62
     7
100
AcDbLine
 10
86.3115826042
 20
429.8412897879
 30
0.0
 11
86.3115826042
 21
425.1803795343
 31
0.0
  0
SPLINE
  5
9D
330
77
100
AcDbEntity
  8
17378031__STOP_P
  6
Continuous
 62
     7
100
AcDbSpline
210
0.0
220
0.0
230
1.0
 70
     8
 71
     3
 72
    14
 73
    10
 74
     0
 42
0.0000000049985969
 43
0.0000000001
 40
0.0
 40
0.0
 40
0.0
 40
0.0
 40
0.25
 40
0.25
 40
0.5
 40
0.5
 40
0.75
 40
0.75
 40
1.0
 40
1.0
 40
1.0
 40
1.0
 10
86.31158260421233
 20
429.8412897879276
 30
0.0
 10
86.12811596621506
 20
429.763710458061
 30
0.0
 10
85.94244699210445
 20
429.7023865006786
 30
0.0
 10
85.56639762788727
 20
429.616739022668
 30
0.0
 10
85.38481189509835
 20
429.594605917787
 30
0.0
 10
85.04087396654072
 20
429.5943882319006
 30
0.0
 10
84.88473821074133
 20
429.6165544694255
 30
0.0
 10
84.61165450748999
 20
429.7018343230388
 30
0.0
 10
84.49809557878632
 20
429.7636803984048
 30
0.0
 10
84.40632671588656
 20
429.8412897879276
 30
0.0
  0
LINE
  5
9E
330
77
100
AcDbEntity
  8
17378031__STOP_P
  6
Continuous
 62
     7
100
AcDbLine
 10
98.4936732841
 20
429.8412897879
 30
0.0
 11
98.4936732841
 21
425.1803795343
 31
0.0
  0
ARC
  5
9F
330
77
100
AcDbEntity
  8
17378031__STOP_P
  6
Continuous
 62
     7
100
AcDbCircle
 10
82.1443566886
 20
426.8204442248
 30
0.0
 40
4.171265680824265
100
AcDbArc
 50
94.2240021473
 51
133.5973641814
  0
ARC
  5
A0
330
77
100
AcDbEntity
  8
17378031__STOP_P
  6
Continuous
 62
     7
100
AcDbCircle
 10
81.5297390722
 20
426.8201278352
 30
0.0
 40
4.171591544835263
100
AcDbArc
 50
46.4042371558
 51
85.7743965155
  0
SPLINE
  5
A1
330
77
100
AcDbEntity
  8
17378031__STOP_P
  6
Continuous
 62
     7
100
AcDbSpline
210
0.0
220
0.0
230
1.0
 70
     8
 71
     3
 72
    12
 73
     8
 74
     0
 42
0.0000000018853511
 43
0.0000000001
 40
0.0
 40
0.0
 40
0.0
 40
0.0
 40
0.5
 40
0.5
 40
0.75
 40
0.75
 40
1.0
 40
1.0
 40
1.0
 40
1.0
 10
86.31158260421233
 20
429.8412897879276
 30
0.0
 10
87.13093232749772
 20
430.1877538816328
 30
0.0
 10
87.96507257513157
 20
430.4726390493761
 30
0.0
 10
89.24744210347262
 20
430.7702386473456
 30
0.0
 10
89.68011119189768
 20
430.8477364419689
 30
0.0
 10
90.55742060475039
 20
430.952890941197
 30
0.0
 10
91.00570101891935
 20
430.980379534344
 30
0.0
 10
91.45
 20
430.980379534344
 30
0.0
  0
SPLINE
  5
A2
330
77
100
AcDbEntity
  8
17378031__STOP_P
  6
Continuous
 62
     7
100
AcDbSpline
210
0.0
220
0.0
230
1.0
 70
     8
 71
     3
 72
    10
 73
     6
 74
     0
 42
0.0000000018838303
 43
0.0000000001
 40
0.0
 40
0.0
 40
0.0
 40
0.0
 40
0.5
 40
0.5
 40
1.0
 40
1.0
 40
1.0
 40
1.0
 10
91.45
 20
430.980379534344
 30
0.0
 10
92.33813944452251
 20
430.980379534344
 30
0.0
 10
93.20895797980745
 20
430.8721339752358
 30
0.0
 10
94.92195862754836
 20
430.476681951592
 30
0.0
 10
95.76815672089585
 20
430.1881390798134
 30
0.0
 10
96.58841739578766
 20
429.8412897879276
 30
0.0
  0
ARC
  5
A3
330
77
100
AcDbEntity
  8
17378031__STOP_P
  6
Continuous
 62
     7
100
AcDbCircle
 10
101.2732532233
 20
427.0389280123
 30
0.0
 40
3.947061712143387
100
AcDbArc
 50
93.0552089405
 51
134.7661573882
  0
ARC
  5
A4
330
77
100
AcDbEntity
  8
17378031__STOP_P
  6
Continuous
 62
     7
100
AcDbCircle
 10
100.8055938771
 20
426.9331073653
 30
0.0
 40
4.055441921618972
100
AcDbArc
 50
45.8160743764
 51
86.3625592949
  0
SPLINE
  5
A5
330
77
100
AcDbEntity
  8
17378031__STOP_P
  6
Continuous
 62
     7
100
AcDbSpline
210
0.0
220
0.0
230
1.0
 70
     8
 71
     3
 72
    10
 73
     6
 74
     0
 42
0.0000000129904002
 43
0.0000000001
 40
0.5006161105889448
 40
0.5006161105889448
 40
0.5006161105889448
 40
0.5006161105889448
 40
0.75
 40
0.75
 40
1.0
 40
1.0
 40
1.0
 40
1.0
 10
103.9268347903585
 20
429.5944966759713
 30
0.0
 10
103.9268333285855
 20
429.594497629217
 30
0.0
 10
103.9000396651445
 20
429.6166596697715
 30
0.0
 10
103.7978357320082
 20
429.7018343153881
 30
0.0
 10
103.7238593317725
 20
429.7636805768726
 30
0.0
 10
103.6320906799011
 20
429.8412897879276
 30
0.0
  0
LINE
  5
A6
330
77
100
AcDbEntity
  8
17378031__STOP_P
  6
Continuous
 62
     7
100
AcDbLine
 10
102.55
 20
430.9803795343
 30
0.0
 11
101.062881982
 21
430.9803795343
 31
0.0
  0
SPLINE
  5
A7
330
77
100
AcDbEntity
  8
17378031__STOP_P
  6
Continuous
 62
     7
100
AcDbSpline
210
0.0
220
0.0
230
1.0
 70
     8
 71
     3
 72
    14
 73
    10
 74
     0
 42
0.0000000049985875
 43
0.0000000001
 40
0.0
 40
0.0
 40
0.0
 40
0.0
 40
0.25
 40
0.25
 40
0.5
 40
0.5
 40
0.75
 40
0.75
 40
1.0
 40
1.0
 40
1.0
 40
1.0
 10
98.49367328411343
 20
429.8412897879276
 30
0.0
 10
98.40193993956635
 20
429.7637104364546
 30
0.0
 10
98.28962159725502
 20
429.7023864662182
 30
0.0
 10
98.01634039968806
 20
429.6167389852851
 30
0.0
 10
97.86151470498874
 20
429.5946058927305
 30
0.0
 10
97.51783920098968
 20
429.5943882565919
 30
0.0
 10
97.33490370102498
 20
429.6165545297159
 30
0.0
 10
96.95948969393584
 20
429.7018344773464
 30
0.0
 10
96.77195473936737
 20
429.7636805600274
 30
0.0
 10
96.58841739578766
 20
429.8412897879276
 30
0.0
  0
LINE
  5
A8
330
77
100
AcDbEntity
  8
17378031__STOP_P
  6
Continuous
 62
     7
100
AcDbLine
 10
91.45
 20
430.9803795343
 30
0.0
 11
101.062881982
 21
430.9803795343
 31
0.0
  0
LINE
  5
A9
330
77
100
AcDbEntity
  8
17378031__STOP_P
  6
Continuous
 62
     7
100
AcDbLine
 10
80.35
 20
430.9803795343
 30
0.0
 11
81.837118018
 21
430.9803795343
 31
0.0
  0
SPLINE
  5
AA
330
77
100
AcDbEntity
  8
17378031__STOP_P
  6
Continuous
 62
     7
100
AcDbSpline
210
0.0
220
0.0
230
1.0
 70
     8
 71
     3
 72
    12
 73
     8
 74
     0
 42
0.0000000130224538
 43
0.0000000001
 40
0.0
 40
0.0
 40
0.0
 40
0.0
 40
0.25
 40
0.25
 40
0.5
 40
0.5
 40
0.500616110588942
 40
0.500616110588942
 40
0.500616110588942
 40
0.500616110588942
 10
79.2679093200989
 20
429.8412897879276
 30
0.0
 10
79.17617576668741
 20
429.7637102598168
 30
0.0
 10
79.1028251826988
 20
429.7023863758055
 30
0.0
 10
79.00005717347273
 20
429.6167391161703
 30
0.0
 10
78.97329694860011
 20
429.5946058998772
 30
0.0
 10
78.9731653659456
 20
429.5944968065219
 30
0.0
 10
78.97316520603015
 20
429.5944966736163
 30
0.0
 10
78.9731652096415
 20
429.5944966759713
 30
0.0
  0
LINE
  5
AB
330
77
100
AcDbEntity
  8
17378031__STOP_P
  6
Continuous
 62
     7
100
AcDbLine
 10
81.837118018
 20
430.9803795343
 30
0.0
 11
91.45
 21
430.9803795343
 31
0.0
  0
SPLINE
  5
AC
330
77
100
AcDbEntity
  8
17378031__STOP_P
  6
Continuous
 62
     7
100
AcDbSpline
210
0.0
220
0.0
230
1.0
 70
     8
 71
     3
 72
     8
 73
     4
 74
     0
 42
0.0000000060402114
 43
0.0000000001
 40
0.0
 40
0.0
 40
0.0
 40
0.0
 40
1.0
 40
1.0
 40
1.0
 40
1.0
 10
82.56016840370732
 20
420.4554428489739
 30
0.0
 10
82.0779844281302
 20
420.1871464171905
 30
0.0
 10
81.59572717327788
 20
419.9188664085836
 30
0.0
 10
81.11339663915038
 20
419.6506028231529
 30
0.0
  0
SPLINE
  5
AD
330
77
100
AcDbEntity
  8
17378031__STOP_P
  6
Continuous
 62
     7
100
AcDbSpline
210
0.0
220
0.0
230
1.0
 70
     8
 71
     3
 72
     8
 73
     4
 74
     0
 42
0.0000000060373521
 43
0.0000000001
 40
0.0
 40
0.0
 40
0.0
 40
0.0
 40
1.0
 40
1.0
 40
1.0
 40
1.0
 10
101.8373143273266
 20
420.556056991142
 30
0.0
 10
101.3547151528892
 20
420.8243096657132
 30
0.0
 10
100.8721570928077
 20
421.0925865286408
 30
0.0
 10
100.3896401470822
 20
421.360887579925
 30
0.0
  0
SPLINE
  5
AE
330
77
100
AcDbEntity
  8
17378031__STOP_P
  6
Continuous
 62
     7
100
AcDbSpline
210
0.0
220
0.0
230
1.0
 70
     8
 71
     3
 72
     8
 73
     4
 74
     0
 42
0.0000000060371842
 43
0.0000000001
 40
0.2434826838933783
 40
0.2434826838933783
 40
0.2434826838933783
 40
0.2434826838933783
 40
1.0
 40
1.0
 40
1.0
 40
1.0
 10
101.3848973519124
 20
418.9403689502597
 30
0.0
 10
101.0199029556347
 20
419.1435362670739
 30
0.0
 10
100.6549511271733
 20
419.3467170241685
 30
0.0
 10
100.2900418665282
 20
419.5499112215434
 30
0.0
  0
SPLINE
  5
AF
330
77
100
AcDbEntity
  8
17378031__STOP_P
  6
Continuous
 62
     7
100
AcDbSpline
210
0.0
220
0.0
230
1.0
 70
     8
 71
     3
 72
     8
 73
     4
 74
     0
 42
0.0000000057144628
 43
0.0000000001
 40
0.0
 40
0.0
 40
0.0
 40
0.0
 40
0.7560468537819056
 40
0.7560468537819056
 40
0.7560468537819056
 40
0.7560468537819056
 10
81.12989410636094
 20
419.5807672491215
 30
0.0
 10
81.51576551419437
 20
419.3673594028766
 30
0.0
 10
81.90168053639576
 20
419.1539053138385
 30
0.0
 10
82.28763917296506
 20
418.9404049820072
 30
0.0
  0
SPLINE
  5
B0
330
77
100
AcDbEntity
  8
17378031__STOP_P
  6
Continuous
 62
     7
100
AcDbSpline
210
0.0
220
0.0
230
1.0
 70
     8
 71
     3
 72
     8
 73
     4
 74
     0
 42
0.000000005729335
 43
0.0000000001
 40
0.0
 40
0.0
 40
0.0
 40
0.0
 40
0.992169102733491
 40
0.992169102733491
 40
0.992169102733491
 40
0.992169102733491
 10
81.03132484222901
 20
421.3971608202246
 30
0.0
 10
81.53632401768756
 20
421.1174816516553
 30
0.0
 10
82.04127900722347
 20
420.8377812380324
 30
0.0
 10
82.5461898108367
 20
420.5580595793558
 30
0.0
  0
LINE
  5
B1
330
77
100
AcDbEntity
  8
17378031__STOP_P
  6
Continuous
 62
     7
100
AcDbLine
 10
100.3890817571
 20
421.4578141291
 30
0.0
 11
100.870972146
 21
421.7249423927
 31
0.0
  0
SPLINE
  5
B2
330
77
100
AcDbEntity
  8
17378031__STOP_P
  6
Continuous
 62
     7
100
AcDbSpline
210
0.0
220
0.0
230
1.0
 70
     8
 71
     3
 72
     8
 73
     4
 74
     0
 42
0.0000000057301114
 43
0.0000000001
 40
0.0
 40
0.0
 40
0.0
 40
0.0
 40
1.0
 40
1.0
 40
1.0
 40
1.0
 10
100.2891177691218
 20
419.6418424735844
 30
0.0
 10
100.7979737921927
 20
419.9235985692039
 30
0.0
 10
101.3069195092613
 20
420.2053343370753
 30
0.0
 10
101.8159549203273
 20
420.4870497771984
 30
0.0
  0
LINE
  5
B3
330
77
100
AcDbEntity
  8
17378031__STOP_P
  6
Continuous
 62
     7
100
AcDbLine
 10
82.5461821288
 20
420.5663525802
 30
0.0
 11
82.5462870152
 21
420.4477198008
 31
0.0
  0
LINE
  5
B4
330
77
100
AcDbEntity
  8
17378031__STOP_P
  6
Continuous
 62
     7
100
AcDbLine
 10
100.4014929411
 20
421.3460282649
 30
0.0
 11
100.4015635843
 21
421.4647332312
 31
0.0
  0
LINE
  5
B5
330
77
100
AcDbEntity
  8
17378031__STOP_P
  6
Continuous
 62
     7
100
AcDbLine
 10
100.3058354706
 20
419.5326641671
 30
0.0
 11
100.3059741696
 21
419.6511747868
 31
0.0
  0
LINE
  5
B6
330
77
100
AcDbEntity
  8
17378031__STOP_P
  6
Continuous
 62
     7
100
AcDbLine
 10
81.1203174674
 20
419.6448542337
 30
0.0
 11
81.1231776464
 21
419.590278768
 31
0.0
  0
LINE
  5
B7
330
77
100
AcDbEntity
  8
17378031__STOP_P
  6
Continuous
 62
     7
100
AcDbLine
 10
81.0251721116
 20
421.4603357725
 30
0.0
 11
81.02805277
 21
421.405369536
 31
0.0
  0
LINE
  5
B8
330
77
100
AcDbEntity
  8
17378031__STOP_P
  6
Continuous
 62
     7
100
AcDbLine
 10
101.8243195867
 20
420.4965799643
 30
0.0
 11
101.8273172841
 21
420.5537794382
 31
0.0
  0
LINE
  5
B9
330
77
100
AcDbEntity
  8
17378031__STOP_P
  6
Continuous
 62
     7
100
AcDbLine
 10
102.18
 20
421.7346420937
 30
0.0
 11
102.18
 21
425.1803795343
 31
0.0
  0
LINE
  5
BA
330
77
100
AcDbEntity
  8
17378031__STOP_P
  6
Continuous
 62
     7
100
AcDbLine
 10
80.72
 20
425.1803795343
 30
0.0
 11
80.72
 21
421.7346420937
 31
0.0
  0
LINE
  5
BB
330
77
100
AcDbEntity
  8
17378031__STOP_P
  6
Continuous
 62
     7
100
AcDbLine
 10
103.9268347916
 20
425.1803795343
 30
0.0
 11
103.9268347916
 21
429.6003364421
 31
0.0
  0
LINE
  5
BC
330
77
100
AcDbEntity
  8
17378031__STOP_P
  6
Continuous
 62
     7
100
AcDbLine
 10
78.9731652084
 20
429.6003364421
 30
0.0
 11
78.9731652084
 21
425.1803795343
 31
0.0
  0
LINE
  5
BD
330
77
100
AcDbEntity
  8
17378031__STOP_P
  6
Continuous
 62
     7
100
AcDbLine
 10
103.9203390898
 20
429.6010350651
 30
0.0
 11
102.55
 21
430.9803795343
 31
0.0
  0
LINE
  5
BE
330
77
100
AcDbEntity
  8
17378031__STOP_P
  6
Continuous
 62
     7
100
AcDbLine
 10
80.35
 20
430.9803795343
 30
0.0
 11
78.9796609102
 21
429.6010350651
 31
0.0
  0
LINE
  5
C0
330
77
100
AcDbEntity
  8
410069031__BOX_S
  6
Continuous
 62
     7
100
AcDbLine
 10
71.45
 20
416.4403795343
 30
0.0
 11
111.45
 21
416.4403795343
 31
0.0
  0
LINE
  5
C1
330
77
100
AcDbEntity
  8
410069031__BOX_S
  6
Continuous
 62
     7
100
AcDbLine
 10
71.45
 20
418.9403795343
 30
0.0
 11
111.45
 21
418.9403795343
 31
0.0
  0
LINE
  5
C2
330
77
100
AcDbEntity
  8
410069031__BOX_S
  6
Continuous
 62
     7
100
AcDbLine
 10
71.45
 20
418.9403795343
 30
0.0
 11
71.45
 21
416.4403795343
 31
0.0
  0
LINE
  5
C3
330
77
100
AcDbEntity
  8
410069031__BOX_S
  6
Continuous
 62
     7
100
AcDbLine
 10
111.45
 20
416.4403795343
 30
0.0
 11
111.45
 21
418.9403795343
 31
0.0
  0
LINE
  5
C4
330
77
100
AcDbEntity
  8
410069031__BOX_S
  6
Continuous
 62
     7
100
AcDbLine
 10
111.45
 20
307.4403795343
 30
0.0
 11
71.45
 21
307.4403795343
 31
0.0
  0
LINE
  5
C5
330
77
100
AcDbEntity
  8
410069031__BOX_S
  6
Continuous
 62
     7
100
AcDbLine
 10
111.45
 20
304.9403795343
 30
0.0
 11
71.45
 21
304.9403795343
 31
0.0
  0
LINE
  5
C6
330
77
100
AcDbEntity
  8
410069031__BOX_S
  6
Continuous
 62
     7
100
AcDbLine
 10
111.45
 20
304.9403795343
 30
0.0
 11
111.45
 21
307.4403795343
 31
0.0
  0
LINE
  5
C7
330
77
100
AcDbEntity
  8
410069031__BOX_S
  6
Continuous
 62
     7
100
AcDbLine
 10
71.45
 20
307.4403795343
 30
0.0
 11
71.45
 21
304.9403795343
 31
0.0
  0
ARC
  5
C9
330
77
100
AcDbEntity
  8
410052031__BOX_0
  6
Continuous
 62
     7
100
AcDbCircle
 10
91.45
 20
361.9403795343
 30
0.0
 40
72.98510983764461
100
AcDbArc
 50
341.1100296196
 51
18.8899703804
  0
LINE
  5
CA
330
77
100
AcDbEntity
  8
410052031__BOX_0
  6
Continuous
 62
     7
100
AcDbLine
 10
65.5839664513
 20
309.9403795343
 30
0.0
 11
117.3160335487
 21
309.9403795343
 31
0.0
  0
ARC
  5
CB
330
77
100
AcDbEntity
  8
410052031__BOX_0
  6
Continuous
 62
     7
100
AcDbCircle
 10
117.3160335487
 20
354.9403795343
 30
0.0
 40
45.0
100
AcDbArc
 50
270.0
 51
297.3563066518
  0
ARC
  5
CC
330
77
100
AcDbEntity
  8
410052031__BOX_0
  6
Continuous
 62
     7
100
AcDbCircle
 10
115.69486869
 20
359.7247126282
 30
0.0
 40
50.00000000000001
100
AcDbArc
 50
296.486929468
 51
324.4072155966
  0
ARC
  5
CD
330
77
100
AcDbEntity
  8
410052031__BOX_0
  6
Continuous
 62
     7
100
AcDbCircle
 10
119.0722721665
 20
355.8249677398
 30
0.0
 40
44.99999999999998
100
AcDbArc
 50
325.9422297958
 51
336.416810104
  0
ARC
  5
CE
330
77
100
AcDbEntity
  8
410052031__BOX_0
  6
Continuous
 62
     7
100
AcDbCircle
 10
154.4309138217
 20
340.3895094823
 30
0.0
 40
6.419086178303079
100
AcDbArc
 50
336.416810104
 51
341.1100296195
  0
ARC
  5
CF
330
77
100
AcDbEntity
  8
410052031__BOX_0
  6
Continuous
 62
     7
100
AcDbCircle
 10
91.45
 20
361.9403795343
 30
0.0
 40
71.985109837645
100
AcDbArc
 50
341.1100296196
 51
352.0147816765
  0
ARC
  5
D0
330
77
100
AcDbEntity
  8
410052031__BOX_0
  6
Continuous
 62
     7
100
AcDbCircle
 10
154.4309138217
 20
340.3895094823
 30
0.0
 40
5.419086178303041
100
AcDbArc
 50
336.416810104
 51
341.1100296196
  0
ARC
  5
D1
330
77
100
AcDbEntity
  8
410052031__BOX_0
  6
Continuous
 62
     7
100
AcDbCircle
 10
119.0722721665
 20
355.8249677398
 30
0.0
 40
43.99999999999999
100
AcDbArc
 50
325.959664316
 51
336.416810104
  0
ARC
  5
D2
330
77
100
AcDbEntity
  8
410052031__BOX_0
  6
Continuous
 62
     7
100
AcDbCircle
 10
115.69486869
 20
359.7247126282
 30
0.0
 40
49.00000000000001
100
AcDbArc
 50
296.4780530617
 51
324.3915423288
  0
ARC
  5
D3
330
77
100
AcDbEntity
  8
410052031__BOX_0
  6
Continuous
 62
     7
100
AcDbCircle
 10
117.3160335487
 20
354.9403795343
 30
0.0
 40
43.99999999999999
100
AcDbArc
 50
270.0
 51
297.3661805268
  0
LINE
  5
D4
330
77
100
AcDbEntity
  8
410052031__BOX_0
  6
Continuous
 62
     7
100
AcDbLine
 10
101.45
 20
310.9403795343
 30
0.0
 11
117.3160335487
 21
310.9403795343
 31
0.0
  0
ARC
  5
D5
330
77
100
AcDbEntity
  8
410052031__BOX_0
  6
Continuous
 62
     7
100
AcDbCircle
 10
119.0722721665
 20
355.8249677398
 30
0.0
 40
43.0
100
AcDbArc
 50
295.811005109
 51
336.6607525689
  0
CIRCLE
  5
D6
330
77
100
AcDbEntity
  8
410052031__BOX_0
  6
Continuous
 62
     7
100
AcDbCircle
 10
126.45
 20
295.9403795343
 30
0.0
 40
4.0
  0
ARC
  5
D7
330
77
100
AcDbEntity
  8
410052031__BOX_0
  6
Continuous
 62
     7
100
AcDbCircle
 10
126.45
 20
295.9403795343
 30
0.0
 40
6.999999999999999
100
AcDbArc
 50
215.0
 51
350.0
  0
LINE
  5
D8
330
77
100
AcDbEntity
  8
410052031__BOX_0
  6
Continuous
 62
     7
100
AcDbLine
 10
133.3436542711
 20
294.7248422907
 30
0.0
 11
135.4774549436
 21
306.8262272515
 31
0.0
  0
LINE
  5
D9
330
77
100
AcDbEntity
  8
410052031__BOX_0
  6
Continuous
 62
     7
100
AcDbLine
 10
136.0286224562
 20
309.952053545
 30
0.0
 11
136.5921433841
 21
313.1479395388
 31
0.0
  0
CIRCLE
  5
DA
330
77
100
AcDbEntity
  8
410052031__BOX_0
  6
Continuous
 62
     7
100
AcDbCircle
 10
165.45
 20
322.9403795343
 30
0.0
 40
4.0
  0
LINE
  5
DB
330
77
100
AcDbEntity
  8
410052031__BOX_0
  6
Continuous
 62
     7
100
AcDbLine
 10
144.9343576805
 20
317.7085267995
 30
0.0
 11
147.8126260273
 21
317.4567109485
 31
0.0
  0
LINE
  5
DC
330
77
100
AcDbEntity
  8
410052031__BOX_0
  6
Continuous
 62
     7
100
AcDbLine
 10
150.4999523561
 20
317.2216003596
 30
0.0
 11
164.8399098008
 21
315.9670166477
 31
0.0
  0
ARC
  5
DD
330
77
100
AcDbEntity
  8
410052031__BOX_0
  6
Continuous
 62
     7
100
AcDbCircle
 10
165.45
 20
322.9403795343
 30
0.0
 40
7.000000000000003
100
AcDbArc
 50
265.0
 51
40.0
  0
LINE
  5
DE
330
77
100
AcDbEntity
  8
410052031__BOX_0
  6
Continuous
 62
     7
100
AcDbLine
 10
170.8123111018
 20
327.4398928021
 30
0.0
 11
161.0530736574
 21
339.0704990875
 31
0.0
  0
ARC
  5
DF
330
77
100
AcDbEntity
  8
410052031__BOX_0
  6
Continuous
 62
     7
100
AcDbCircle
 10
161.8191181005
 20
339.7132866972
 30
0.0
 40
1.000000000000004
100
AcDbArc
 50
198.0552334615
 51
220.0
  0
LINE
  5
E0
330
77
100
AcDbEntity
  8
410052031__BOX_0
  6
Continuous
 62
     7
100
AcDbLine
 10
111.45
 20
305.1584720661
 30
0.0
 11
120.71593569
 21
291.9253444799
 31
0.0
  0
LINE
  5
E1
330
77
100
AcDbEntity
  8
410052031__BOX_0
  6
Continuous
 62
     7
100
AcDbLine
 10
111.45
 20
307.4403795343
 30
0.0
 11
71.45
 21
307.4403795343
 31
0.0
  0
ARC
  5
E2
330
77
100
AcDbEntity
  8
410052031__BOX_0
  6
Continuous
 62
     7
100
AcDbCircle
 10
151.9346453384
 20
321.7388127642
 30
0.0
 40
0.9999999999999927
100
AcDbArc
 50
133.6523929935
 51
265.0
  0
LINE
  5
E3
330
77
100
AcDbEntity
  8
410052031__BOX_0
  6
Continuous
 62
     7
100
AcDbLine
 10
151.8474895956
 20
320.7426180662
 30
0.0
 11
156.766834535
 21
320.312231152
 31
0.0
  0
ARC
  5
E4
330
77
100
AcDbEntity
  8
410052031__BOX_0
  6
Continuous
 62
     7
100
AcDbCircle
 10
156.8539902778
 20
321.3084258501
 30
0.0
 40
1.000000000000005
100
AcDbArc
 50
265.0
 51
7.3892450264
  0
ARC
  5
E5
330
77
100
AcDbEntity
  8
410052031__BOX_0
  6
Continuous
 62
     7
100
AcDbCircle
 10
164.7875528465
 20
322.3373014342
 30
0.0
 40
6.999999999999996
100
AcDbArc
 50
160.9933988215
 51
187.3892450264
  0
ARC
  5
E6
330
77
100
AcDbEntity
  8
410052031__BOX_0
  6
Continuous
 62
     7
100
AcDbCircle
 10
157.6964448975
 20
324.7798795917
 30
0.0
 40
0.4999999999959233
100
AcDbArc
 50
340.9933988215
 51
57.5
  0
LINE
  5
E7
330
77
100
AcDbEntity
  8
410052031__BOX_0
  6
Continuous
 62
     7
100
AcDbLine
 10
157.9650947017
 20
325.2015753146
 30
0.0
 11
156.0890287257
 21
326.3967611552
 31
0.0
  0
ARC
  5
E8
330
77
100
AcDbEntity
  8
410052031__BOX_0
  6
Continuous
 62
     7
100
AcDbCircle
 10
155.5517291173
 20
325.5533697094
 30
0.0
 40
1.000000000000005
100
AcDbArc
 50
57.5
 51
139.3918115447
  0
ARC
  5
E9
330
77
100
AcDbEntity
  8
410052031__BOX_0
  6
Continuous
 62
     7
100
AcDbCircle
 10
115.69486869
 20
359.7247126282
 30
0.0
 40
51.50000000000001
100
AcDbArc
 50
313.6523929935
 51
319.3918115447
  0
ARC
  5
EA
330
77
100
AcDbEntity
  8
410052031__BOX_0
  6
Continuous
 62
     7
100
AcDbCircle
 10
117.3160335487
 20
354.9403795343
 30
0.0
 40
46.69396495767379
100
AcDbArc
 50
280.5745414312
 51
287.7954035498
  0
ARC
  5
EB
330
77
100
AcDbEntity
  8
410052031__BOX_0
  6
Continuous
 62
     7
100
AcDbCircle
 10
126.0685714514
 20
308.0564017418
 30
0.0
 40
0.9999999999999931
100
AcDbArc
 50
100.5745414312
 51
192.5
  0
LINE
  5
EC
330
77
100
AcDbEntity
  8
410052031__BOX_0
  6
Continuous
 62
     7
100
AcDbLine
 10
125.0922754442
 20
307.8399621279
 30
0.0
 11
126.1618881634
 21
303.0152509398
 31
0.0
  0
ARC
  5
ED
330
77
100
AcDbEntity
  8
410052031__BOX_0
  6
Continuous
 62
     7
100
AcDbCircle
 10
126.650036167
 20
303.1234707468
 30
0.0
 40
0.4999999999929066
100
AcDbArc
 50
192.5
 51
268.4048279016
  0
ARC
  5
EE
330
77
100
AcDbEntity
  8
410052031__BOX_0
  6
Continuous
 62
     7
100
AcDbCircle
 10
126.45
 20
295.9403795343
 30
0.0
 40
6.685875996344026
100
AcDbArc
 50
57.0251920137
 51
88.4048279016
  0
ARC
  5
EF
330
77
100
AcDbEntity
  8
410052031__BOX_0
  6
Continuous
 62
     7
100
AcDbCircle
 10
130.633193517
 20
302.3881374261
 30
0.0
 40
0.9999999999999948
100
AcDbArc
 50
237.0251920137
 51
350.0
  0
LINE
  5
F0
330
77
100
AcDbEntity
  8
410052031__BOX_0
  6
Continuous
 62
     7
100
AcDbLine
 10
131.6180012701
 20
302.2144892484
 30
0.0
 11
132.8770194161
 21
309.3547359704
 31
0.0
  0
ARC
  5
F1
330
77
100
AcDbEntity
  8
410052031__BOX_0
  6
Continuous
 62
     7
100
AcDbCircle
 10
131.892211663
 20
309.528384148
 30
0.0
 40
1.000000000000004
100
AcDbArc
 50
350.0
 51
4.1887002555
  0
ARC
  5
F2
330
77
100
AcDbEntity
  8
410052031__BOX_0
  6
Continuous
 62
     7
100
AcDbCircle
 10
131.892211663
 20
309.528384148
 30
0.0
 40
1.000000000000004
100
AcDbArc
 50
81.8112997445
 51
107.7954035498
  0
ARC
  5
F3
330
77
100
AcDbEntity
  8
410052031__BOX_0
  6
Continuous
 62
     7
100
AcDbCircle
 10
162.9912522799
 20
330.1330248948
 30
0.0
 40
1.000000000000007
100
AcDbArc
 50
282.9756871629
 51
40.0
  0
LINE
  5
F4
330
77
100
AcDbEntity
  8
410052031__BOX_0
  6
Continuous
 62
     7
100
AcDbLine
 10
163.757296723
 20
330.7758125045
 30
0.0
 11
161.4381970541
 21
333.5396078664
 31
0.0
  0
ARC
  5
F5
330
77
100
AcDbEntity
  8
410052031__BOX_0
  6
Continuous
 62
     7
100
AcDbCircle
 10
160.672152611
 20
332.8968202567
 30
0.0
 40
1.000000000000001
100
AcDbArc
 50
40.0
 51
151.1382489441
  0
ARC
  5
F6
330
77
100
AcDbEntity
  8
410052031__BOX_0
  6
Continuous
 62
     7
100
AcDbCircle
 10
119.0722721665
 20
355.8249677398
 30
0.0
 40
46.49999999999999
100
AcDbArc
 50
325.7743413721
 51
331.1382489441
  0
ARC
  5
F7
330
77
100
AcDbEntity
  8
410052031__BOX_0
  6
Continuous
 62
     7
100
AcDbCircle
 10
158.3466389758
 20
329.1084164704
 30
0.0
 40
0.9999999999999963
100
AcDbArc
 50
145.7743413721
 51
237.5
  0
LINE
  5
F8
330
77
100
AcDbEntity
  8
410052031__BOX_0
  6
Continuous
 62
     7
100
AcDbLine
 10
157.8093393674
 20
328.2650250246
 30
0.0
 11
159.3083437225
 21
327.3100539291
 31
0.0
  0
ARC
  5
F9
330
77
100
AcDbEntity
  8
410052031__BOX_0
  6
Continuous
 62
     7
100
AcDbCircle
 10
159.5769935267
 20
327.731749652
 30
0.0
 40
0.5000000000019649
100
AcDbArc
 50
237.5
 51
314.0066011784
  0
ARC
  5
FA
330
77
100
AcDbEntity
  8
410052031__BOX_0
  6
Continuous
 62
     7
100
AcDbCircle
 10
164.7875528465
 20
322.3373014342
 30
0.0
 40
6.999999999999997
100
AcDbArc
 50
102.9756871629
 51
134.0066011784
  0
LINE
  5
FB
330
77
100
AcDbEntity
  8
410052031__BOX_0
  6
Continuous
 62
     7
100
AcDbLine
 10
122.4449178768
 20
308.2308546311
 30
0.0
 11
123.7211481456
 21
302.474151905
 31
0.0
  0
ARC
  5
FC
330
77
100
AcDbEntity
  8
410052031__BOX_0
  6
Continuous
 62
     7
100
AcDbCircle
 10
123.233000142
 20
302.365932098
 30
0.0
 40
0.4999999999999993
100
AcDbArc
 50
296.5951720985
 51
12.5
  0
ARC
  5
FD
330
77
100
AcDbEntity
  8
410052031__BOX_0
  6
Continuous
 62
     7
100
AcDbCircle
 10
126.45
 20
295.9403795343
 30
0.0
 40
6.68587599634402
100
AcDbArc
 50
116.5951720984
 51
147.9748079864
  0
ARC
  5
FE
330
77
100
AcDbEntity
  8
410052031__BOX_0
  6
Continuous
 62
     7
100
AcDbCircle
 10
119.9337989085
 20
300.0161387478
 30
0.0
 40
1.000000000000004
100
AcDbArc
 50
215.0
 51
327.9748079864
  0
LINE
  5
FF
330
77
100
AcDbEntity
  8
410052031__BOX_0
  6
Continuous
 62
     7
100
AcDbLine
 10
119.1146468642
 20
299.4425623115
 30
0.0
 11
114.006391592
 21
306.7379068964
 31
0.0
  0
ARC
  5
100
330
77
100
AcDbEntity
  8
410052031__BOX_0
  6
Continuous
 62
     7
100
AcDbCircle
 10
114.8255436363
 20
307.3114833327
 30
0.0
 40
1.000000000000004
100
AcDbArc
 50
87.0067598895
 51
215.0
  0
ARC
  5
101
330
77
100
AcDbEntity
  8
410052031__BOX_0
  6
Continuous
 62
     7
100
AcDbCircle
 10
117.3160335487
 20
354.9403795343
 30
0.0
 40
46.69396495767359
100
AcDbArc
 50
267.0067598895
 51
275.8620228866
  0
ARC
  5
102
330
77
100
AcDbEntity
  8
410052031__BOX_0
  6
Continuous
 62
     7
100
AcDbCircle
 10
122.1191202456
 20
308.1586270351
 30
0.0
 40
0.3337078394181528
100
AcDbArc
 50
12.5
 51
95.8620228866
  0
ARC
  5
103
330
77
100
AcDbEntity
  8
410052031__BOX_0
  6
Continuous
 62
     7
100
AcDbCircle
 10
142.9454183489
 20
312.0103687324
 30
0.0
 40
5.03490680656561
100
AcDbArc
 50
178.0778100811
 51
276.109457686
  0
SPLINE
  5
104
330
77
100
AcDbEntity
  8
410052031__BOX_0
  6
Continuous
 62
     7
100
AcDbSpline
210
0.0
220
0.0
230
1.0
 70
     8
 71
     3
 72
    10
 73
     6
 74
     0
 42
0.0000000083357934
 43
0.0000000001
 40
0.0
 40
0.0
 40
0.0
 40
0.0
 40
0.5
 40
0.5
 40
1.0
 40
1.0
 40
1.0
 40
1.0
 10
144.4676958555841
 20
306.4847116357953
 30
0.0
 10
144.3732870668451
 20
306.6596283294776
 30
0.0
 10
144.2282886883296
 20
306.802400662885
 30
0.0
 10
143.8804505642217
 20
306.9859384730409
 30
0.0
 10
143.6789138949381
 20
307.0252127962623
 30
0.0
 10
143.4812744327534
 20
307.0040582337865
 30
0.0
  0
LINE
  5
105
330
77
100
AcDbEntity
  8
410052031__BOX_0
  6
Continuous
 62
     7
100
AcDbLine
 10
135.0234883951
 20
311.0299278616
 30
0.0
 11
142.5333854058
 21
302.9765492917
 31
0.0
  0
SPLINE
  5
106
330
77
100
AcDbEntity
  8
410052031__BOX_0
  6
Continuous
 62
     7
100
AcDbSpline
210
0.0
220
0.0
230
1.0
 70
     8
 71
     3
 72
    16
 73
    12
 74
     0
 42
0.000000005153215
 43
0.0000000001
 40
0.0
 40
0.0
 40
0.0
 40
0.0
 40
0.1249999999999974
 40
0.1249999999999974
 40
0.2499999999999948
 40
0.2499999999999948
 40
0.4999999999999966
 40
0.4999999999999966
 40
0.7499999999999982
 40
0.7499999999999982
 40
1.0
 40
1.0
 40
1.0
 40
1.0
 10
135.3693289353388
 20
312.6346146583571
 30
0.0
 10
135.2946346440205
 20
312.6034070387416
 30
0.0
 10
135.2251967638971
 20
312.563897496572
 30
0.0
 10
135.0964704668805
 20
312.4688484528986
 30
0.0
 10
135.0370814870528
 20
312.412767411138
 30
0.0
 10
134.8839361016324
 20
312.2286535694142
 30
0.0
 10
134.8114626751118
 20
312.080531765573
 30
0.0
 10
134.7434673791866
 20
311.7663413016681
 30
0.0
 10
134.7482157037305
 20
311.6009112858825
 30
0.0
 10
134.8331485637862
 20
311.2922842081647
 30
0.0
 10
134.913070741792
 20
311.1483362979507
 30
0.0
 10
135.0234883950594
 20
311.0299278615523
 30
0.0
  0
ARC
  5
107
330
77
100
AcDbEntity
  8
410052031__BOX_0
  6
Continuous
 62
     7
100
AcDbCircle
 10
115.69486869
 20
359.7247126282
 30
0.0
 40
51.03490680656562
100
AcDbArc
 50
292.675397208
 51
294.065764835
  0
SPLINE
  5
108
330
77
100
AcDbEntity
  8
410052031__BOX_0
  6
Continuous
 62
     7
100
AcDbSpline
210
0.0
220
0.0
230
1.0
 70
     8
 71
     3
 72
    22
 73
    18
 74
     0
 42
0.0000000049266955
 43
0.0000000001
 40
0.0
 40
0.0
 40
0.0
 40
0.0
 40
0.125
 40
0.125
 40
0.25
 40
0.25
 40
0.375
 40
0.375
 40
0.5
 40
0.5
 40
0.625
 40
0.625
 40
0.75
 40
0.75
 40
0.875
 40
0.875
 40
1.0
 40
1.0
 40
1.0
 40
1.0
 10
137.9133446823408
 20
312.1792508357738
 30
0.0
 10
137.9162010624874
 20
312.2643605959399
 30
0.0
 10
137.908299322088
 20
312.3480076593389
 30
0.0
 10
137.8716624573505
 20
312.5124692353019
 30
0.0
 10
137.8425332486245
 20
312.5931954598453
 30
0.0
 10
137.766115384045
 20
312.7426947183797
 30
0.0
 10
137.7177438740587
 20
312.8135858303438
 30
0.0
 10
137.6058991828807
 20
312.9396030124691
 30
0.0
 10
137.5427257498552
 20
312.9949992796774
 30
0.0
 10
137.4014100615883
 20
313.0900601245364
 30
0.0
 10
137.3262898730537
 20
313.1276923902342
 30
0.0
 10
137.1674078560503
 20
313.1837884534887
 30
0.0
 10
137.0835143152955
 20
313.2018706581981
 30
0.0
 10
136.9162374418614
 20
313.2163011986908
 30
0.0
 10
136.8304838401537
 20
313.2128533588059
 30
0.0
 10
136.664346481276
 20
313.1847978085056
 30
0.0
 10
136.583891425973
 20
313.1605880930936
 30
0.0
 10
136.5061358234925
 20
313.1258620731365
 30
0.0
  0
ARC
  5
109
330
77
100
AcDbEntity
  8
410052031__BOX_0
  6
Continuous
 62
     7
100
AcDbCircle
 10
142.9454183489
 20
312.0103687324
 30
0.0
 40
5.034906806565614
100
AcDbArc
 50
320.6051857986
 51
61.3851729156
  0
SPLINE
  5
10A
330
77
100
AcDbEntity
  8
410052031__BOX_0
  6
Continuous
 62
     7
100
AcDbSpline
210
0.0
220
0.0
230
1.0
 70
     8
 71
     3
 72
    22
 73
    18
 74
     0
 42
0.0000000049266955
 43
0.0000000001
 40
0.0
 40
0.0
 40
0.0
 40
0.0
 40
0.125
 40
0.125
 40
0.25
 40
0.25
 40
0.375
 40
0.375
 40
0.5
 40
0.5
 40
0.625
 40
0.625
 40
0.75
 40
0.75
 40
0.875
 40
0.875
 40
1.0
 40
1.0
 40
1.0
 40
1.0
 10
145.256409528754
 20
318.1233062097554
 30
0.0
 10
145.186992743094
 20
318.073979340285
 30
0.0
 10
145.1252613883228
 20
318.0169836513718
 30
0.0
 10
145.0166817182207
 20
317.8881414026079
 30
0.0
 10
144.970142532284
 20
317.8160349652922
 30
0.0
 10
144.8975794591632
 20
317.6646271757015
 30
0.0
 10
144.8705276207807
 20
317.5831805626719
 30
0.0
 10
144.8381168861551
 20
317.4178351381318
 30
0.0
 10
144.8323613861322
 20
317.3340108977229
 30
0.0
 10
144.8424362635121
 20
317.163995648931
 30
0.0
 10
144.8580507223403
 20
317.0814400990117
 30
0.0
 10
144.9097627742886
 20
316.9210776117446
 30
0.0
 10
144.9462436876568
 20
316.8433972714547
 30
0.0
 10
145.036180450837
 20
316.701618671118
 30
0.0
 10
145.0909111997806
 20
316.6355118414728
 30
0.0
 10
145.2139449588498
 20
316.5203969855804
 30
0.0
 10
145.281974681269
 20
316.4710909706149
 30
0.0
 10
145.3567311215282
 20
316.4303073364109
 30
0.0
  0
ARC
  5
10B
330
77
100
AcDbEntity
  8
410052031__BOX_0
  6
Continuous
 62
     7
100
AcDbCircle
 10
115.69486869
 20
359.7247126282
 30
0.0
 40
51.03490680656562
100
AcDbArc
 50
305.3972181617
 51
306.515105507
  0
SPLINE
  5
10C
330
77
100
AcDbEntity
  8
410052031__BOX_0
  6
Continuous
 62
     7
100
AcDbSpline
210
0.0
220
0.0
230
1.0
 70
     8
 71
     3
 72
    16
 73
    12
 74
     0
 42
0.0000000050973374
 43
0.0000000001
 40
0.0
 40
0.0
 40
0.0
 40
0.0
 40
0.1250000000000057
 40
0.1250000000000057
 40
0.2500000000000114
 40
0.2500000000000114
 40
0.5000000000000077
 40
0.5000000000000077
 40
0.7500000000000039
 40
0.7500000000000039
 40
1.0
 40
1.0
 40
1.0
 40
1.0
 10
147.6233545876266
 20
318.1630815776643
 30
0.0
 10
147.6021751953546
 20
318.2421241456971
 30
0.0
 10
147.5718740136411
 20
318.3169779497766
 30
0.0
 10
147.4936485529182
 20
318.4585929577756
 30
0.0
 10
147.4452294880208
 20
318.5254576181658
 30
0.0
 10
147.2805534196081
 20
318.7028621777371
 30
0.0
 10
147.1412820929869
 20
318.7944084014422
 30
0.0
 10
146.8341624185464
 20
318.9018765979986
 30
0.0
 10
146.6675856142206
 20
318.9171855460652
 30
0.0
 10
146.3479868136619
 20
318.8688090169434
 30
0.0
 10
146.1939439084582
 20
318.805341802704
 30
0.0
 10
146.0624089249879
 20
318.7079573587953
 30
0.0
  0
ARC
  5
10D
330
77
100
AcDbEntity
  8
410052031__BOX_0
  6
Continuous
 62
     7
100
AcDbCircle
 10
150.1646002356
 20
298.6349675269
 30
0.0
 40
7.534906806565613
100
AcDbArc
 50
133.8855044718
 51
143.9428328481
  0
SPLINE
  5
10E
330
77
100
AcDbEntity
  8
410052031__BOX_0
  6
Continuous
 62
     7
100
AcDbSpline
210
0.0
220
0.0
230
1.0
 70
     8
 71
     3
 72
    16
 73
    12
 74
     0
 42
0.0000000056391942
 43
0.0000000001
 40
0.0
 40
0.0
 40
0.0
 40
0.0
 40
0.125
 40
0.125
 40
0.25
 40
0.25
 40
0.5
 40
0.5
 40
0.75
 40
0.75
 40
1.0
 40
1.0
 40
1.0
 40
1.0
 10
142.5333854057999
 20
302.9765492917264
 30
0.0
 10
142.5839098043976
 20
302.9223685075773
 30
0.0
 10
142.6394367291675
 20
302.8747461192323
 30
0.0
 10
142.760113567481
 20
302.7921172423941
 30
0.0
 10
142.8260610578438
 20
302.7569271781089
 30
0.0
 10
143.0299823394308
 20
302.6755332227882
 30
0.0
 10
143.1788781784172
 20
302.6515755359751
 30
0.0
 10
143.4706758899486
 20
302.6691282781459
 30
0.0
 10
143.6150096067638
 20
302.7103594165406
 30
0.0
 10
143.8738551891111
 20
302.8518758837936
 30
0.0
 10
143.9859453739262
 20
302.9501729421076
 30
0.0
 10
144.0731545758755
 20
303.0699546022735
 30
0.0
  0
LINE
  5
10F
330
77
100
AcDbEntity
  8
410052031__BOX_0
  6
Continuous
 62
     7
100
AcDbLine
 10
145.128037149
 20
305.2612586364
 30
0.0
 11
144.4676958556
 21
306.4847116358
 31
0.0
  0
SPLINE
  5
110
330
77
100
AcDbEntity
  8
410052031__BOX_0
  6
Continuous
 62
     7
100
AcDbSpline
210
0.0
220
0.0
230
1.0
 70
     8
 71
     3
 72
    10
 73
     6
 74
     0
 42
0.0000000075604253
 43
0.0000000001
 40
0.0
 40
0.0
 40
0.0
 40
0.0
 40
0.5
 40
0.5
 40
1.0
 40
1.0
 40
1.0
 40
1.0
 10
144.9412558276269
 20
304.0655746550023
 30
0.0
 10
145.0987918478916
 20
304.2170982086477
 30
0.0
 10
145.2022412759054
 20
304.4163155399432
 30
0.0
 10
145.2696872045533
 20
304.8464752942883
 30
0.0
 10
145.2318555913989
 20
305.0689081261926
 30
0.0
 10
145.1280371490231
 20
305.2612586364173
 30
0.0
  0
LINE
  5
111
330
77
100
AcDbEntity
  8
410052031__BOX_0
  6
Continuous
 62
     7
100
AcDbLine
 10
150.5057635835
 20
307.4057847567
 30
0.0
 11
147.6233545876
 21
318.1630815777
 31
0.0
  0
SPLINE
  5
112
330
77
100
AcDbEntity
  8
410052031__BOX_0
  6
Continuous
 62
     7
100
AcDbSpline
210
0.0
220
0.0
230
1.0
 70
     8
 71
     3
 72
    16
 73
    12
 74
     0
 42
0.0000000056471689
 43
0.0000000001
 40
0.0
 40
0.0
 40
0.0
 40
0.0
 40
0.1249999999999961
 40
0.1249999999999961
 40
0.2499999999999922
 40
0.2499999999999922
 40
0.4999999999999948
 40
0.4999999999999948
 40
0.7499999999999973
 40
0.7499999999999973
 40
1.0
 40
1.0
 40
1.0
 40
1.0
 10
149.6130461149935
 20
306.1496603773084
 30
0.0
 10
149.6868281125943
 20
306.155075737006
 30
0.0
 10
149.7586392079698
 20
306.1684774862824
 30
0.0
 10
149.8984702968535
 20
306.2106430946633
 30
0.0
 10
149.9671361327115
 20
306.2399126871119
 30
0.0
 10
150.1581602290679
 20
306.3475663733714
 30
0.0
 10
150.2700644987772
 20
306.4483466370636
 30
0.0
 10
150.4392828688227
 20
306.686202773166
 30
0.0
 10
150.4977258333624
 20
306.8242613626586
 30
0.0
 10
150.5500883002042
 20
307.1140909010593
 30
0.0
 10
150.5440586922568
 20
307.2628654653093
 30
0.0
 10
150.5057635835428
 20
307.4057847567116
 30
0.0
  0
ARC
  5
113
330
77
100
AcDbEntity
  8
410052031__BOX_0
  6
Continuous
 62
     7
100
AcDbCircle
 10
150.1646002356
 20
298.6349675269
 30
0.0
 40
7.534906806565615
100
AcDbArc
 50
94.1977975116
 51
102.8291390128
  0
SPLINE
  5
114
330
77
100
AcDbEntity
  8
410052031__BOX_0
  6
Continuous
 62
     7
100
AcDbSpline
210
0.0
220
0.0
230
1.0
 70
     8
 71
     3
 72
    10
 73
     6
 74
     0
 42
0.0000000075604253
 43
0.0000000001
 40
0.0
 40
0.0
 40
0.0
 40
0.0
 40
0.5
 40
0.5
 40
1.0
 40
1.0
 40
1.0
 40
1.0
 10
147.3894798355795
 20
306.481840047749
 30
0.0
 10
147.4932982749448
 20
306.2894895431021
 30
0.0
 10
147.6575492639339
 20
306.1364831972827
 30
0.0
 10
148.0539516014096
 20
305.9563400475569
 30
0.0
 10
148.2783933769112
 20
305.9332427517729
 30
0.0
 10
148.4915163571274
 20
305.9817771011018
 30
0.0
  0
LINE
  5
115
330
77
100
AcDbEntity
  8
410052031__BOX_0
  6
Continuous
 62
     7
100
AcDbLine
 10
146.7291385421
 20
307.7052930471
 30
0.0
 11
147.3894798356
 21
306.4818400477
 31
0.0
  0
SPLINE
  5
116
330
77
100
AcDbEntity
  8
410052031__BOX_0
  6
Continuous
 62
     7
100
AcDbSpline
210
0.0
220
0.0
230
1.0
 70
     8
 71
     3
 72
    10
 73
     6
 74
     0
 42
0.0000000083357934
 43
0.0000000001
 40
0.0
 40
0.0
 40
0.0
 40
0.0
 40
0.5
 40
0.5
 40
1.0
 40
1.0
 40
1.0
 40
1.0
 10
146.8363491121576
 20
308.8149119032848
 30
0.0
 10
146.7101986582278
 20
308.6613054838447
 30
0.0
 10
146.632953498121
 20
308.4730459443819
 30
0.0
 10
146.5947756531967
 20
308.0816127566005
 30
0.0
 10
146.6347297493318
 20
307.8802097483497
 30
0.0
 10
146.7291385421404
 20
307.705293047127
 30
0.0
  0
LINE
  5
117
330
77
100
AcDbEntity
  8
410052031__BOX_0
  6
Continuous
 62
     7
100
AcDbLine
 10
163.45
 20
341.9403795343
 30
0.0
 11
163.45
 21
349.9893855166
 31
0.0
  0
LINE
  5
118
330
77
100
AcDbEntity
  8
410052031__BOX_0
  6
Continuous
 62
     7
100
AcDbLine
 10
163.45
 20
373.8913735521
 30
0.0
 11
163.45
 21
381.9403795343
 31
0.0
  0
LINE
  5
119
330
77
100
AcDbEntity
  8
410052031__BOX_0
  6
Continuous
 62
     7
100
AcDbLine
 10
111.45
 20
308.9403795343
 30
0.0
 11
71.45
 21
308.9403795343
 31
0.0
  0
LINE
  5
11A
330
77
100
AcDbEntity
  8
410052031__BOX_0
  6
Continuous
 62
     7
100
AcDbLine
 10
162.35
 20
381.9403795343
 30
0.0
 11
162.35
 21
379.2613569321
 31
0.0
  0
LINE
  5
11B
330
77
100
AcDbEntity
  8
410052031__BOX_0
  6
Continuous
 62
     7
100
AcDbLine
 10
162.35
 20
344.6194021366
 30
0.0
 11
162.35
 21
341.9403795343
 31
0.0
  0
ARC
  5
11C
330
77
100
AcDbEntity
  8
410052031__BOX_0
  6
Continuous
 62
     7
100
AcDbCircle
 10
91.45
 20
361.9403795343
 30
0.0
 40
70.985109837645
100
AcDbArc
 50
340.9654863944
 51
351.9015404184
  0
ARC
  5
11D
330
77
100
AcDbEntity
  8
410052031__BOX_0
  6
Continuous
 62
     7
100
AcDbCircle
 10
115.69486869
 20
359.7247126282
 30
0.0
 40
48.00000000000001
100
AcDbArc
 50
296.4687960604
 51
297.4136967811
  0
ARC
  5
11E
330
77
100
AcDbEntity
  8
410052031__BOX_0
  6
Continuous
 62
     7
100
AcDbCircle
 10
117.3160335487
 20
354.9403795343
 30
0.0
 40
43.0
100
AcDbArc
 50
270.0
 51
297.3765016845
  0
LINE
  5
11F
330
77
100
AcDbEntity
  8
410052031__BOX_0
  6
Continuous
 62
     7
100
AcDbLine
 10
117.3160335487
 20
311.9403795343
 30
0.0
 11
101.45
 21
311.9403795343
 31
0.0
  0
LINE
  5
120
330
77
100
AcDbEntity
  8
410052031__BOX_0
  6
Continuous
 62
     7
100
AcDbLine
 10
149.254517023
 20
321.8696283003
 30
0.0
 11
153.6013329223
 21
305.6470905128
 31
0.0
  0
LINE
  5
121
330
77
100
AcDbEntity
  8
410052031__BOX_0
  6
Continuous
 62
     7
100
AcDbLine
 10
149.0838079516
 20
322.5067232281
 30
0.0
 11
149.254517023
 21
321.8696283003
 31
0.0
  0
ARC
  5
122
330
77
100
AcDbEntity
  8
410052031__BOX_0
  6
Continuous
 62
     7
100
AcDbCircle
 10
154.5672587486
 20
305.9059095579
 30
0.0
 40
0.9999999999999892
100
AcDbArc
 50
195.0
 51
238.8045001714
  0
ARC
  5
123
330
77
100
AcDbEntity
  8
410052031__BOX_0
  6
Continuous
 62
     7
100
AcDbCircle
 10
150.1646002356
 20
298.6349675269
 30
0.0
 40
7.499999999999996
100
AcDbArc
 50
179.3962032728
 51
58.8045001714
  0
ARC
  5
124
330
77
100
AcDbEntity
  8
410052031__BOX_0
  6
Continuous
 62
     7
100
AcDbCircle
 10
130.3740419994
 20
310.8326884216
 30
0.0
 40
0.9999999999997164
100
AcDbArc
 50
43.0
 51
106.4912998914
  0
ARC
  5
125
330
77
100
AcDbEntity
  8
410052031__BOX_0
  6
Continuous
 62
     7
100
AcDbCircle
 10
141.6650722129
 20
298.7245409166
 30
0.0
 40
0.9999999999999959
100
AcDbArc
 50
359.3962032728
 51
43.0
  0
LINE
  5
126
330
77
100
AcDbEntity
  8
410052031__BOX_0
  6
Continuous
 62
     7
100
AcDbLine
 10
142.3964259145
 20
299.4065392767
 30
0.0
 11
131.122664407
 21
311.4961683617
 31
0.0
  0
LINE
  5
127
330
77
100
AcDbEntity
  8
410052031__BOX_0
  6
Continuous
 62
     7
100
AcDbLine
 10
131.122664407
 20
311.4961683617
 30
0.0
 11
131.105395701
 21
311.5146867816
 31
0.0
  0
CIRCLE
  5
128
330
77
100
AcDbEntity
  8
410052031__BOX_0
  6
Continuous
 62
     7
100
AcDbCircle
 10
150.1646002356
 20
298.6349675269
 30
0.0
 40
2.2
  0
CIRCLE
  5
129
330
77
100
AcDbEntity
  8
410052031__BOX_0
  6
Continuous
 62
     7
100
AcDbCircle
 10
142.9454183489
 20
312.0103687324
 30
0.0
 40
2.2
  0
LINE
  5
12A
330
77
100
AcDbEntity
  8
410052031__BOX_0
  6
Continuous
 62
     7
100
AcDbLine
 10
163.4281636216
 20
360.9403795343
 30
0.0
 11
163.442056724
 21
361.9403795343
 31
0.0
  0
ARC
  5
12B
330
77
100
AcDbEntity
  8
410052031__BOX_0
  6
Continuous
 62
     7
100
AcDbCircle
 10
91.45
 20
361.9403795343
 30
0.0
 40
70.985109837645
100
AcDbArc
 50
351.9015404184
 51
8.0984595816
  0
LINE
  5
12C
330
77
100
AcDbEntity
  8
410052031__BOX_0
  6
Continuous
 62
     7
100
AcDbLine
 10
161.727206964
 20
351.9403795343
 30
0.0
 11
162.7371379587
 21
351.9403795343
 31
0.0
  0
ARC
  5
12D
330
77
100
AcDbEntity
  8
410052031__BOX_0
  6
Continuous
 62
     7
100
AcDbCircle
 10
91.45
 20
361.9403795343
 30
0.0
 40
71.985109837645
100
AcDbArc
 50
352.0147816765
 51
359.2040350756
  0
LINE
  5
12E
330
77
100
AcDbEntity
  8
410052031__BOX_0
  6
Continuous
 62
     7
100
AcDbLine
 10
81.45
 20
311.9403795343
 30
0.0
 11
101.45
 21
311.9403795343
 31
0.0
  0
LINE
  5
12F
330
77
100
AcDbEntity
  8
410052031__BOX_0
  6
Continuous
 62
     7
100
AcDbLine
 10
101.45
 20
311.9403795343
 30
0.0
 11
101.45
 21
310.9403795343
 31
0.0
  0
LINE
  5
130
330
77
100
AcDbEntity
  8
410052031__BOX_0
  6
Continuous
 62
     7
100
AcDbLine
 10
101.45
 20
310.9403795343
 30
0.0
 11
81.45
 21
310.9403795343
 31
0.0
  0
ARC
  5
131
330
77
100
AcDbEntity
  8
410052031__BOX_0
  6
Continuous
 62
     7
100
AcDbCircle
 10
119.0722721665
 20
368.0557913289
 30
0.0
 40
43.0
100
AcDbArc
 50
23.3392474311
 51
64.188994891
  0
LINE
  5
132
330
77
100
AcDbEntity
  8
410052031__BOX_0
  6
Continuous
 62
     7
100
AcDbLine
 10
65.5839664513
 20
413.9403795343
 30
0.0
 11
117.3160335487
 21
413.9403795343
 31
0.0
  0
CIRCLE
  5
133
330
77
100
AcDbEntity
  8
410052031__BOX_0
  6
Continuous
 62
     7
100
AcDbCircle
 10
126.45
 20
427.9403795343
 30
0.0
 40
4.0
  0
ARC
  5
134
330
77
100
AcDbEntity
  8
410052031__BOX_0
  6
Continuous
 62
     7
100
AcDbCircle
 10
117.3160335487
 20
368.9403795344
 30
0.0
 40
46.69396495767378
100
AcDbArc
 50
72.2045964502
 51
79.4254585688
  0
ARC
  5
135
330
77
100
AcDbEntity
  8
410052031__BOX_0
  6
Continuous
 62
     7
100
AcDbCircle
 10
126.0685714514
 20
415.8243573269
 30
0.0
 40
0.9999999999999931
100
AcDbArc
 50
167.5
 51
259.4254585688
  0
LINE
  5
136
330
77
100
AcDbEntity
  8
410052031__BOX_0
  6
Continuous
 62
     7
100
AcDbLine
 10
125.0922754442
 20
416.0407969408
 30
0.0
 11
126.1618881634
 21
420.8655081288
 31
0.0
  0
ARC
  5
137
330
77
100
AcDbEntity
  8
410052031__BOX_0
  6
Continuous
 62
     7
100
AcDbCircle
 10
126.650036167
 20
420.7572883219
 30
0.0
 40
0.4999999999929066
100
AcDbArc
 50
91.5951720984
 51
167.5
  0
ARC
  5
138
330
77
100
AcDbEntity
  8
410052031__BOX_0
  6
Continuous
 62
     7
100
AcDbCircle
 10
126.45
 20
427.9403795343
 30
0.0
 40
6.685875996343999
100
AcDbArc
 50
271.5951720984
 51
302.9748079863
  0
ARC
  5
139
330
77
100
AcDbEntity
  8
410052031__BOX_0
  6
Continuous
 62
     7
100
AcDbCircle
 10
130.633193517
 20
421.4926216426
 30
0.0
 40
0.9999999999999948
100
AcDbArc
 50
10.0
 51
122.9748079863
  0
LINE
  5
13A
330
77
100
AcDbEntity
  8
410052031__BOX_0
  6
Continuous
 62
     7
100
AcDbLine
 10
131.6180012701
 20
421.6662698203
 30
0.0
 11
132.8770194161
 21
414.5260230983
 31
0.0
  0
ARC
  5
13B
330
77
100
AcDbEntity
  8
410052031__BOX_0
  6
Continuous
 62
     7
100
AcDbCircle
 10
131.892211663
 20
414.3523749207
 30
0.0
 40
1.000000000000004
100
AcDbArc
 50
355.8112997445
 51
10.0
  0
ARC
  5
13C
330
77
100
AcDbEntity
  8
410052031__BOX_0
  6
Continuous
 62
     7
100
AcDbCircle
 10
131.892211663
 20
414.3523749207
 30
0.0
 40
1.000000000000004
100
AcDbArc
 50
252.2045964502
 51
278.1887002555
  0
LINE
  5
13D
330
77
100
AcDbEntity
  8
410052031__BOX_0
  6
Continuous
 62
     7
100
AcDbLine
 10
163.757296723
 20
393.1049465642
 30
0.0
 11
161.4381970541
 21
390.3411512023
 31
0.0
  0
ARC
  5
13E
330
77
100
AcDbEntity
  8
410052031__BOX_0
  6
Continuous
 62
     7
100
AcDbCircle
 10
160.672152611
 20
390.9839388119
 30
0.0
 40
1.000000000000001
100
AcDbArc
 50
208.8617510559
 51
320.0
  0
ARC
  5
13F
330
77
100
AcDbEntity
  8
410052031__BOX_0
  6
Continuous
 62
     7
100
AcDbCircle
 10
119.0722721665
 20
368.0557913289
 30
0.0
 40
46.5
100
AcDbArc
 50
28.8617510559
 51
34.2256586279
  0
ARC
  5
140
330
77
100
AcDbEntity
  8
410052031__BOX_0
  6
Continuous
 62
     7
100
AcDbCircle
 10
158.3466389758
 20
394.7723425983
 30
0.0
 40
0.9999999999999963
100
AcDbArc
 50
122.5
 51
214.2256586279
  0
LINE
  5
141
330
77
100
AcDbEntity
  8
410052031__BOX_0
  6
Continuous
 62
     7
100
AcDbLine
 10
157.8093393674
 20
395.6157340441
 30
0.0
 11
159.3083437225
 21
396.5707051396
 31
0.0
  0
ARC
  5
142
330
77
100
AcDbEntity
  8
410052031__BOX_0
  6
Continuous
 62
     7
100
AcDbCircle
 10
159.5769935267
 20
396.1490094167
 30
0.0
 40
0.5000000000019649
100
AcDbArc
 50
45.9933988216
 51
122.5
  0
ARC
  5
143
330
77
100
AcDbEntity
  8
410052031__BOX_0
  6
Continuous
 62
     7
100
AcDbCircle
 10
164.7875528465
 20
401.5434576345
 30
0.0
 40
7.000000000000008
100
AcDbArc
 50
225.9933988216
 51
257.0243128371
  0
ARC
  5
144
330
77
100
AcDbEntity
  8
410052031__BOX_0
  6
Continuous
 62
     7
100
AcDbCircle
 10
162.9912522799
 20
393.7477341739
 30
0.0
 40
1.000000000000007
100
AcDbArc
 50
320.0
 51
77.0243128371
  0
LINE
  5
145
330
77
100
AcDbEntity
  8
410052031__BOX_0
  6
Continuous
 62
     7
100
AcDbLine
 10
151.8474895956
 20
403.1381410025
 30
0.0
 11
156.766834535
 21
403.5685279167
 31
0.0
  0
ARC
  5
146
330
77
100
AcDbEntity
  8
410052031__BOX_0
  6
Continuous
 62
     7
100
AcDbCircle
 10
156.8539902778
 20
402.5723332186
 30
0.0
 40
1.000000000000005
100
AcDbArc
 50
352.6107549736
 51
95.0
  0
ARC
  5
147
330
77
100
AcDbEntity
  8
410052031__BOX_0
  6
Continuous
 62
     7
100
AcDbCircle
 10
164.7875528465
 20
401.5434576345
 30
0.0
 40
6.999999999999995
100
AcDbArc
 50
172.6107549736
 51
199.0066011785
  0
ARC
  5
148
330
77
100
AcDbEntity
  8
410052031__BOX_0
  6
Continuous
 62
     7
100
AcDbCircle
 10
157.6964448975
 20
399.100879477
 30
0.0
 40
0.4999999999959233
100
AcDbArc
 50
302.5
 51
19.0066011785
  0
LINE
  5
149
330
77
100
AcDbEntity
  8
410052031__BOX_0
  6
Continuous
 62
     7
100
AcDbLine
 10
157.9650947017
 20
398.6791837541
 30
0.0
 11
156.0890287257
 21
397.4839979135
 31
0.0
  0
ARC
  5
14A
330
77
100
AcDbEntity
  8
410052031__BOX_0
  6
Continuous
 62
     7
100
AcDbCircle
 10
155.5517291173
 20
398.3273893593
 30
0.0
 40
1.000000000000005
100
AcDbArc
 50
220.6081884553
 51
302.5
  0
ARC
  5
14B
330
77
100
AcDbEntity
  8
410052031__BOX_0
  6
Continuous
 62
     7
100
AcDbCircle
 10
115.69486869
 20
364.1560464405
 30
0.0
 40
51.50000000000001
100
AcDbArc
 50
40.6081884553
 51
46.3476070065
  0
ARC
  5
14C
330
77
100
AcDbEntity
  8
410052031__BOX_0
  6
Continuous
 62
     7
100
AcDbCircle
 10
151.9346453384
 20
402.1419463044
 30
0.0
 40
0.9999999999999927
100
AcDbArc
 50
95.0
 51
226.3476070065
  0
CIRCLE
  5
14D
330
77
100
AcDbEntity
  8
410052031__BOX_0
  6
Continuous
 62
     7
100
AcDbCircle
 10
165.45
 20
400.9403795343
 30
0.0
 40
4.0
  0
LINE
  5
14E
330
77
100
AcDbEntity
  8
410052031__BOX_0
  6
Continuous
 62
     7
100
AcDbLine
 10
144.9343576805
 20
406.1722322692
 30
0.0
 11
147.8126260273
 21
406.4240481202
 31
0.0
  0
LINE
  5
14F
330
77
100
AcDbEntity
  8
410052031__BOX_0
  6
Continuous
 62
     7
100
AcDbLine
 10
150.4999523561
 20
406.6591587091
 30
0.0
 11
164.8399098008
 21
407.913742421
 31
0.0
  0
ARC
  5
150
330
77
100
AcDbEntity
  8
410052031__BOX_0
  6
Continuous
 62
     7
100
AcDbCircle
 10
165.45
 20
400.9403795343
 30
0.0
 40
7.000000000000003
100
AcDbArc
 50
320.0
 51
95.0
  0
LINE
  5
151
330
77
100
AcDbEntity
  8
410052031__BOX_0
  6
Continuous
 62
     7
100
AcDbLine
 10
170.8123111018
 20
396.4408662665
 30
0.0
 11
161.0530736574
 21
384.8102599812
 31
0.0
  0
ARC
  5
152
330
77
100
AcDbEntity
  8
410052031__BOX_0
  6
Continuous
 62
     7
100
AcDbCircle
 10
161.8191181005
 20
384.1674723715
 30
0.0
 40
1.000000000000004
100
AcDbArc
 50
140.0
 51
161.9447665385
  0
LINE
  5
153
330
77
100
AcDbEntity
  8
410052031__BOX_0
  6
Continuous
 62
     7
100
AcDbLine
 10
133.3436542711
 20
429.155916778
 30
0.0
 11
135.4774549436
 21
417.0545318172
 31
0.0
  0
LINE
  5
154
330
77
100
AcDbEntity
  8
410052031__BOX_0
  6
Continuous
 62
     7
100
AcDbLine
 10
136.0286224562
 20
413.9287055237
 30
0.0
 11
136.5921433841
 21
410.7328195299
 31
0.0
  0
ARC
  5
155
330
77
100
AcDbEntity
  8
410052031__BOX_0
  6
Continuous
 62
     7
100
AcDbCircle
 10
115.69486869
 20
364.1560464405
 30
0.0
 40
49.0
100
AcDbArc
 50
35.6084576712
 51
63.5219469383
  0
ARC
  5
156
330
77
100
AcDbEntity
  8
410052031__BOX_0
  6
Continuous
 62
     7
100
AcDbCircle
 10
119.0722721665
 20
368.0557913289
 30
0.0
 40
44.0
100
AcDbArc
 50
23.583189896
 51
34.040335684
  0
ARC
  5
157
330
77
100
AcDbEntity
  8
410052031__BOX_0
  6
Continuous
 62
     7
100
AcDbCircle
 10
154.4309138217
 20
383.4912495864
 30
0.0
 40
5.419086178303041
100
AcDbArc
 50
18.8899703805
 51
23.583189896
  0
ARC
  5
158
330
77
100
AcDbEntity
  8
410052031__BOX_0
  6
Continuous
 62
     7
100
AcDbCircle
 10
91.45
 20
361.9403795343
 30
0.0
 40
71.985109837645
100
AcDbArc
 50
7.9852183235
 51
18.8899703804
  0
ARC
  5
159
330
77
100
AcDbEntity
  8
410052031__BOX_0
  6
Continuous
 62
     7
100
AcDbCircle
 10
91.45
 20
361.9403795343
 30
0.0
 40
71.985109837645
100
AcDbArc
 50
0.7959649244
 51
7.9852183235
  0
LINE
  5
15A
330
77
100
AcDbEntity
  8
410052031__BOX_0
  6
Continuous
 62
     7
100
AcDbLine
 10
163.4281636216
 20
362.9403795343
 30
0.0
 11
163.442056724
 21
361.9403795343
 31
0.0
  0
ARC
  5
15B
330
77
100
AcDbEntity
  8
410052031__BOX_0
  6
Continuous
 62
     7
100
AcDbCircle
 10
154.4309138217
 20
383.4912495864
 30
0.0
 40
6.419086178303079
100
AcDbArc
 50
18.8899703805
 51
23.583189896
  0
ARC
  5
15C
330
77
100
AcDbEntity
  8
410052031__BOX_0
  6
Continuous
 62
     7
100
AcDbCircle
 10
119.0722721665
 20
368.0557913289
 30
0.0
 40
44.99999999999999
100
AcDbArc
 50
23.583189896
 51
34.0577702042
  0
ARC
  5
15D
330
77
100
AcDbEntity
  8
410052031__BOX_0
  6
Continuous
 62
     7
100
AcDbCircle
 10
115.69486869
 20
364.1560464405
 30
0.0
 40
50.0
100
AcDbArc
 50
35.5927844034
 51
63.513070532
  0
ARC
  5
15E
330
77
100
AcDbEntity
  8
410052031__BOX_0
  6
Continuous
 62
     7
100
AcDbCircle
 10
117.3160335487
 20
368.9403795343
 30
0.0
 40
43.99999999999999
100
AcDbArc
 50
62.6338194732
 51
90.0
  0
ARC
  5
15F
330
77
100
AcDbEntity
  8
410052031__BOX_0
  6
Continuous
 62
     7
100
AcDbCircle
 10
126.45
 20
427.9403795343
 30
0.0
 40
7.000000000000005
100
AcDbArc
 50
10.0
 51
145.0
  0
ARC
  5
160
330
77
100
AcDbEntity
  8
410052031__BOX_0
  6
Continuous
 62
     7
100
AcDbCircle
 10
117.3160335487
 20
368.9403795343
 30
0.0
 40
45.0
100
AcDbArc
 50
62.6436933482
 51
90.0
  0
LINE
  5
161
330
77
100
AcDbEntity
  8
410052031__BOX_0
  6
Continuous
 62
     7
100
AcDbLine
 10
111.45
 20
418.7222870026
 30
0.0
 11
120.71593569
 21
431.9554145888
 31
0.0
  0
LINE
  5
162
330
77
100
AcDbEntity
  8
410052031__BOX_0
  6
Continuous
 62
     7
100
AcDbLine
 10
101.45
 20
412.9403795343
 30
0.0
 11
117.3160335487
 21
412.9403795343
 31
0.0
  0
LINE
  5
163
330
77
100
AcDbEntity
  8
410052031__BOX_0
  6
Continuous
 62
     7
100
AcDbLine
 10
111.45
 20
416.4403795343
 30
0.0
 11
71.45
 21
416.4403795343
 31
0.0
  0
LINE
  5
164
330
77
100
AcDbEntity
  8
410052031__BOX_0
  6
Continuous
 62
     7
100
AcDbLine
 10
122.4449178768
 20
415.6499044376
 30
0.0
 11
123.7211481456
 21
421.4066071637
 31
0.0
  0
ARC
  5
165
330
77
100
AcDbEntity
  8
410052031__BOX_0
  6
Continuous
 62
     7
100
AcDbCircle
 10
123.233000142
 20
421.5148269707
 30
0.0
 40
0.4999999999999993
100
AcDbArc
 50
347.5
 51
63.4048279016
  0
ARC
  5
166
330
77
100
AcDbEntity
  8
410052031__BOX_0
  6
Continuous
 62
     7
100
AcDbCircle
 10
126.45
 20
427.9403795343
 30
0.0
 40
6.685875996343995
100
AcDbArc
 50
212.0251920136
 51
243.4048279016
  0
ARC
  5
167
330
77
100
AcDbEntity
  8
410052031__BOX_0
  6
Continuous
 62
     7
100
AcDbCircle
 10
119.9337989085
 20
423.8646203209
 30
0.0
 40
1.000000000000004
100
AcDbArc
 50
32.0251920136
 51
145.0
  0
LINE
  5
168
330
77
100
AcDbEntity
  8
410052031__BOX_0
  6
Continuous
 62
     7
100
AcDbLine
 10
119.1146468642
 20
424.4381967572
 30
0.0
 11
114.006391592
 21
417.1428521723
 31
0.0
  0
ARC
  5
169
330
77
100
AcDbEntity
  8
410052031__BOX_0
  6
Continuous
 62
     7
100
AcDbCircle
 10
114.8255436363
 20
416.569275736
 30
0.0
 40
0.9999999999999961
100
AcDbArc
 50
145.0
 51
272.9932401105
  0
ARC
  5
16A
330
77
100
AcDbEntity
  8
410052031__BOX_0
  6
Continuous
 62
     7
100
AcDbCircle
 10
117.3160335487
 20
368.9403795344
 30
0.0
 40
46.69396495767359
100
AcDbArc
 50
84.1379771134
 51
92.9932401105
  0
ARC
  5
16B
330
77
100
AcDbEntity
  8
410052031__BOX_0
  6
Continuous
 62
     7
100
AcDbCircle
 10
122.1191202456
 20
415.7221320335
 30
0.0
 40
0.3337078394181528
100
AcDbArc
 50
264.1379771134
 51
347.5
  0
ARC
  5
16C
330
77
100
AcDbEntity
  8
410052031__BOX_0
  6
Continuous
 62
     7
100
AcDbCircle
 10
150.1646002356
 20
425.2457915418
 30
0.0
 40
7.534906806565615
100
AcDbArc
 50
257.1708609872
 51
265.8022024884
  0
LINE
  5
16D
330
77
100
AcDbEntity
  8
410052031__BOX_0
  6
Continuous
 62
     7
100
AcDbLine
 10
150.5057635835
 20
416.474974312
 30
0.0
 11
147.6233545876
 21
405.717677491
 31
0.0
  0
ARC
  5
16E
330
77
100
AcDbEntity
  8
410052031__BOX_0
  6
Continuous
 62
     7
100
AcDbCircle
 10
115.69486869
 20
364.1560464405
 30
0.0
 40
51.03490680656561
100
AcDbArc
 50
53.484894493
 51
54.6027818383
  0
ARC
  5
16F
330
77
100
AcDbEntity
  8
410052031__BOX_0
  6
Continuous
 62
     7
100
AcDbCircle
 10
142.9454183489
 20
411.8703903363
 30
0.0
 40
5.034906806565614
100
AcDbArc
 50
298.6148270844
 51
39.3948142014
  0
LINE
  5
170
330
77
100
AcDbEntity
  8
410052031__BOX_0
  6
Continuous
 62
     7
100
AcDbLine
 10
146.7291385421
 20
416.1754660216
 30
0.0
 11
147.3894798356
 21
417.3989190209
 31
0.0
  0
ARC
  5
171
330
77
100
AcDbEntity
  8
410052031__BOX_0
  6
Continuous
 62
     7
100
AcDbCircle
 10
115.69486869
 20
364.1560464405
 30
0.0
 40
51.03490680656562
100
AcDbArc
 50
65.934235165
 51
67.324602792
  0
LINE
  5
172
330
77
100
AcDbEntity
  8
410052031__BOX_0
  6
Continuous
 62
     7
100
AcDbLine
 10
135.0234883951
 20
412.8508312071
 30
0.0
 11
142.5333854058
 21
420.904209777
 31
0.0
  0
ARC
  5
173
330
77
100
AcDbEntity
  8
410052031__BOX_0
  6
Continuous
 62
     7
100
AcDbCircle
 10
150.1646002356
 20
425.2457915418
 30
0.0
 40
7.534906806565613
100
AcDbArc
 50
216.0571671519
 51
226.1144955282
  0
LINE
  5
174
330
77
100
AcDbEntity
  8
410052031__BOX_0
  6
Continuous
 62
     7
100
AcDbLine
 10
145.128037149
 20
418.6195004323
 30
0.0
 11
144.4676958556
 21
417.3960474329
 31
0.0
  0
ARC
  5
175
330
77
100
AcDbEntity
  8
410052031__BOX_0
  6
Continuous
 62
     7
100
AcDbCircle
 10
142.9454183489
 20
411.8703903363
 30
0.0
 40
5.03490680656561
100
AcDbArc
 50
83.890542314
 51
181.9221899189
  0
SPLINE
  5
176
330
77
100
AcDbEntity
  8
410052031__BOX_0
  6
Continuous
 62
     7
100
AcDbSpline
210
0.0
220
0.0
230
1.0
 70
     8
 71
     3
 72
    10
 73
     6
 74
     0
 42
0.0000000083357934
 43
0.0000000001
 40
0.0
 40
0.0
 40
0.0
 40
0.0
 40
0.5
 40
0.5
 40
1.0
 40
1.0
 40
1.0
 40
1.0
 10
144.4676958555841
 20
417.3960474328927
 30
0.0
 10
144.3732870668451
 20
417.2211307392104
 30
0.0
 10
144.2282886883296
 20
417.078358405803
 30
0.0
 10
143.8804505642217
 20
416.8948205956471
 30
0.0
 10
143.678913894938
 20
416.8555462724257
 30
0.0
 10
143.4812744327534
 20
416.8767008349015
 30
0.0
  0
SPLINE
  5
177
330
77
100
AcDbEntity
  8
410052031__BOX_0
  6
Continuous
 62
     7
100
AcDbSpline
210
0.0
220
0.0
230
1.0
 70
     8
 71
     3
 72
    16
 73
    12
 74
     0
 42
0.000000005153215
 43
0.0000000001
 40
0.0
 40
0.0
 40
0.0
 40
0.0
 40
0.1249999999999974
 40
0.1249999999999974
 40
0.2499999999999948
 40
0.2499999999999948
 40
0.4999999999999966
 40
0.4999999999999966
 40
0.7499999999999982
 40
0.7499999999999982
 40
1.0
 40
1.0
 40
1.0
 40
1.0
 10
135.3693289353388
 20
411.2461444103309
 30
0.0
 10
135.2946346440204
 20
411.2773520299465
 30
0.0
 10
135.2251967638971
 20
411.316861572116
 30
0.0
 10
135.0964704668804
 20
411.4119106157894
 30
0.0
 10
135.0370814870528
 20
411.46799165755
 30
0.0
 10
134.8839361016324
 20
411.6521054992737
 30
0.0
 10
134.8114626751118
 20
411.800227303115
 30
0.0
 10
134.7434673791866
 20
412.1144177670199
 30
0.0
 10
134.7482157037305
 20
412.2798477828056
 30
0.0
 10
134.8331485637862
 20
412.5884748605233
 30
0.0
 10
134.913070741792
 20
412.7324227707373
 30
0.0
 10
135.0234883950594
 20
412.8508312071357
 30
0.0
  0
SPLINE
  5
178
330
77
100
AcDbEntity
  8
410052031__BOX_0
  6
Continuous
 62
     7
100
AcDbSpline
210
0.0
220
0.0
230
1.0
 70
     8
 71
     3
 72
    22
 73
    18
 74
     0
 42
0.0000000049266955
 43
0.0000000001
 40
0.0
 40
0.0
 40
0.0
 40
0.0
 40
0.125
 40
0.125
 40
0.25
 40
0.25
 40
0.375
 40
0.375
 40
0.5
 40
0.5
 40
0.625
 40
0.625
 40
0.75
 40
0.75
 40
0.875
 40
0.875
 40
1.0
 40
1.0
 40
1.0
 40
1.0
 10
137.9133446823408
 20
411.7015082329142
 30
0.0
 10
137.9162010624874
 20
411.6163984727481
 30
0.0
 10
137.908299322088
 20
411.5327514093491
 30
0.0
 10
137.8716624573505
 20
411.3682898333862
 30
0.0
 10
137.8425332486245
 20
411.2875636088427
 30
0.0
 10
137.766115384045
 20
411.1380643503084
 30
0.0
 10
137.7177438740586
 20
411.0671732383443
 30
0.0
 10
137.6058991828807
 20
410.9411560562189
 30
0.0
 10
137.5427257498552
 20
410.8857597890106
 30
0.0
 10
137.4014100615883
 20
410.7906989441516
 30
0.0
 10
137.3262898730537
 20
410.7530666784538
 30
0.0
 10
137.1674078560503
 20
410.6969706151993
 30
0.0
 10
137.0835143152955
 20
410.6788884104899
 30
0.0
 10
136.9162374418614
 20
410.6644578699973
 30
0.0
 10
136.8304838401537
 20
410.6679057098821
 30
0.0
 10
136.664346481276
 20
410.6959612601825
 30
0.0
 10
136.583891425973
 20
410.7201709755944
 30
0.0
 10
136.5061358234925
 20
410.7548969955515
 30
0.0
  0
SPLINE
  5
179
330
77
100
AcDbEntity
  8
410052031__BOX_0
  6
Continuous
 62
     7
100
AcDbSpline
210
0.0
220
0.0
230
1.0
 70
     8
 71
     3
 72
    22
 73
    18
 74
     0
 42
0.0000000049266955
 43
0.0000000001
 40
0.0
 40
0.0
 40
0.0
 40
0.0
 40
0.125
 40
0.125
 40
0.25
 40
0.25
 40
0.375
 40
0.375
 40
0.5
 40
0.5
 40
0.625
 40
0.625
 40
0.75
 40
0.75
 40
0.875
 40
0.875
 40
1.0
 40
1.0
 40
1.0
 40
1.0
 10
145.256409528754
 20
405.7574528589326
 30
0.0
 10
145.186992743094
 20
405.8067797284029
 30
0.0
 10
145.1252613883228
 20
405.8637754173162
 30
0.0
 10
145.0166817182207
 20
405.9926176660801
 30
0.0
 10
144.970142532284
 20
406.0647241033959
 30
0.0
 10
144.8975794591632
 20
406.2161318929865
 30
0.0
 10
144.8705276207807
 20
406.2975785060162
 30
0.0
 10
144.8381168861551
 20
406.4629239305562
 30
0.0
 10
144.8323613861322
 20
406.5467481709651
 30
0.0
 10
144.8424362635121
 20
406.716763419757
 30
0.0
 10
144.8580507223403
 20
406.7993189696763
 30
0.0
 10
144.9097627742886
 20
406.9596814569433
 30
0.0
 10
144.9462436876568
 20
407.0373617972332
 30
0.0
 10
145.036180450837
 20
407.1791403975701
 30
0.0
 10
145.0909111997806
 20
407.2452472272151
 30
0.0
 10
145.2139449588498
 20
407.3603620831076
 30
0.0
 10
145.281974681269
 20
407.4096680980732
 30
0.0
 10
145.3567311215282
 20
407.4504517322771
 30
0.0
  0
SPLINE
  5
17A
330
77
100
AcDbEntity
  8
410052031__BOX_0
  6
Continuous
 62
     7
100
AcDbSpline
210
0.0
220
0.0
230
1.0
 70
     8
 71
     3
 72
    16
 73
    12
 74
     0
 42
0.0000000050973374
 43
0.0000000001
 40
0.0
 40
0.0
 40
0.0
 40
0.0
 40
0.1250000000000057
 40
0.1250000000000057
 40
0.2500000000000114
 40
0.2500000000000114
 40
0.5000000000000077
 40
0.5000000000000077
 40
0.7500000000000039
 40
0.7500000000000039
 40
1.0
 40
1.0
 40
1.0
 40
1.0
 10
147.6233545876266
 20
405.7176774910238
 30
0.0
 10
147.6021751953546
 20
405.6386349229909
 30
0.0
 10
147.5718740136411
 20
405.5637811189113
 30
0.0
 10
147.4936485529182
 20
405.4221661109125
 30
0.0
 10
147.4452294880208
 20
405.3553014505223
 30
0.0
 10
147.2805534196081
 20
405.1778968909509
 30
0.0
 10
147.1412820929869
 20
405.0863506672458
 30
0.0
 10
146.8341624185464
 20
404.9788824706894
 30
0.0
 10
146.6675856142206
 20
404.9635735226228
 30
0.0
 10
146.3479868136619
 20
405.0119500517446
 30
0.0
 10
146.1939439084582
 20
405.075417265984
 30
0.0
 10
146.0624089249879
 20
405.1728017098927
 30
0.0
  0
SPLINE
  5
17B
330
77
100
AcDbEntity
  8
410052031__BOX_0
  6
Continuous
 62
     7
100
AcDbSpline
210
0.0
220
0.0
230
1.0
 70
     8
 71
     3
 72
    16
 73
    12
 74
     0
 42
0.0000000056391942
 43
0.0000000001
 40
0.0
 40
0.0
 40
0.0
 40
0.0
 40
0.125
 40
0.125
 40
0.25
 40
0.25
 40
0.5
 40
0.5
 40
0.75
 40
0.75
 40
1.0
 40
1.0
 40
1.0
 40
1.0
 10
142.5333854057999
 20
420.9042097769616
 30
0.0
 10
142.5839098043976
 20
420.9583905611107
 30
0.0
 10
142.6394367291675
 20
421.0060129494557
 30
0.0
 10
142.760113567481
 20
421.088641826294
 30
0.0
 10
142.8260610578438
 20
421.1238318905791
 30
0.0
 10
143.0299823394308
 20
421.2052258458997
 30
0.0
 10
143.1788781784172
 20
421.2291835327129
 30
0.0
 10
143.4706758899486
 20
421.2116307905421
 30
0.0
 10
143.6150096067637
 20
421.1703996521474
 30
0.0
 10
143.8738551891111
 20
421.0288831848944
 30
0.0
 10
143.9859453739261
 20
420.9305861265804
 30
0.0
 10
144.0731545758755
 20
420.8108044664145
 30
0.0
  0
SPLINE
  5
17C
330
77
100
AcDbEntity
  8
410052031__BOX_0
  6
Continuous
 62
     7
100
AcDbSpline
210
0.0
220
0.0
230
1.0
 70
     8
 71
     3
 72
    10
 73
     6
 74
     0
 42
0.0000000075604253
 43
0.0000000001
 40
0.0
 40
0.0
 40
0.0
 40
0.0
 40
0.5
 40
0.5
 40
1.0
 40
1.0
 40
1.0
 40
1.0
 10
144.9412558276269
 20
419.8151844136858
 30
0.0
 10
145.0987918478916
 20
419.6636608600402
 30
0.0
 10
145.2022412759054
 20
419.4644435287447
 30
0.0
 10
145.2696872045533
 20
419.0342837743997
 30
0.0
 10
145.2318555913989
 20
418.8118509424954
 30
0.0
 10
145.1280371490231
 20
418.6195004322707
 30
0.0
  0
SPLINE
  5
17D
330
77
100
AcDbEntity
  8
410052031__BOX_0
  6
Continuous
 62
     7
100
AcDbSpline
210
0.0
220
0.0
230
1.0
 70
     8
 71
     3
 72
    16
 73
    12
 74
     0
 42
0.0000000056471689
 43
0.0000000001
 40
0.0
 40
0.0
 40
0.0
 40
0.0
 40
0.1249999999999961
 40
0.1249999999999961
 40
0.2499999999999922
 40
0.2499999999999922
 40
0.4999999999999948
 40
0.4999999999999948
 40
0.7499999999999973
 40
0.7499999999999973
 40
1.0
 40
1.0
 40
1.0
 40
1.0
 10
149.6130461149935
 20
417.7310986913796
 30
0.0
 10
149.6868281125943
 20
417.7256833316821
 30
0.0
 10
149.7586392079698
 20
417.7122815824057
 30
0.0
 10
149.8984702968535
 20
417.6701159740248
 30
0.0
 10
149.9671361327115
 20
417.6408463815762
 30
0.0
 10
150.1581602290679
 20
417.5331926953167
 30
0.0
 10
150.2700644987771
 20
417.4324124316244
 30
0.0
 10
150.4392828688226
 20
417.1945562955219
 30
0.0
 10
150.4977258333624
 20
417.0564977060294
 30
0.0
 10
150.5500883002042
 20
416.7666681676287
 30
0.0
 10
150.5440586922568
 20
416.6178936033787
 30
0.0
 10
150.5057635835427
 20
416.4749743119764
 30
0.0
  0
SPLINE
  5
17E
330
77
100
AcDbEntity
  8
410052031__BOX_0
  6
Continuous
 62
     7
100
AcDbSpline
210
0.0
220
0.0
230
1.0
 70
     8
 71
     3
 72
    10
 73
     6
 74
     0
 42
0.0000000075604253
 43
0.0000000001
 40
0.0
 40
0.0
 40
0.0
 40
0.0
 40
0.5
 40
0.5
 40
1.0
 40
1.0
 40
1.0
 40
1.0
 10
147.3894798355795
 20
417.3989190209389
 30
0.0
 10
147.4932982749448
 20
417.591269525586
 30
0.0
 10
147.6575492639338
 20
417.7442758714053
 30
0.0
 10
148.0539516014095
 20
417.9244190211311
 30
0.0
 10
148.2783933769112
 20
417.9475163169151
 30
0.0
 10
148.4915163571274
 20
417.8989819675862
 30
0.0
  0
SPLINE
  5
17F
330
77
100
AcDbEntity
  8
410052031__BOX_0
  6
Continuous
 62
     7
100
AcDbSpline
210
0.0
220
0.0
230
1.0
 70
     8
 71
     3
 72
    10
 73
     6
 74
     0
 42
0.0000000083357934
 43
0.0000000001
 40
0.0
 40
0.0
 40
0.0
 40
0.0
 40
0.5
 40
0.5
 40
1.0
 40
1.0
 40
1.0
 40
1.0
 10
146.8363491121576
 20
415.0658471654032
 30
0.0
 10
146.7101986582278
 20
415.2194535848432
 30
0.0
 10
146.632953498121
 20
415.4077131243062
 30
0.0
 10
146.5947756531967
 20
415.7991463120875
 30
0.0
 10
146.6347297493317
 20
416.0005493203383
 30
0.0
 10
146.7291385421404
 20
416.175466021561
 30
0.0
  0
LINE
  5
180
330
77
100
AcDbEntity
  8
410052031__BOX_0
  6
Continuous
 62
     7
100
AcDbLine
 10
111.45
 20
414.9403795343
 30
0.0
 11
71.45
 21
414.9403795343
 31
0.0
  0
LINE
  5
181
330
77
100
AcDbEntity
  8
410052031__BOX_0
  6
Continuous
 62
     7
100
AcDbLine
 10
117.3160335487
 20
411.9403795343
 30
0.0
 11
114.2929193705
 21
411.9403795343
 31
0.0
  0
ARC
  5
182
330
77
100
AcDbEntity
  8
410052031__BOX_0
  6
Continuous
 62
     7
100
AcDbCircle
 10
117.3160335487
 20
368.9403795343
 30
0.0
 40
42.99999999999999
100
AcDbArc
 50
62.6234983155
 51
90.0
  0
ARC
  5
183
330
77
100
AcDbEntity
  8
410052031__BOX_0
  6
Continuous
 62
     7
100
AcDbCircle
 10
115.69486869
 20
364.1560464405
 30
0.0
 40
47.99999999999999
100
AcDbArc
 50
62.5863032189
 51
63.5312039396
  0
ARC
  5
184
330
77
100
AcDbEntity
  8
410052031__BOX_0
  6
Continuous
 62
     7
100
AcDbCircle
 10
91.45
 20
361.9403795343
 30
0.0
 40
70.985109837645
100
AcDbArc
 50
8.0984595816
 51
19.0345136056
  0
ARC
  5
185
330
77
100
AcDbEntity
  8
410052031__BOX_0
  6
Continuous
 62
     7
100
AcDbCircle
 10
130.3740419994
 20
413.0480706471
 30
0.0
 40
0.9999999999997164
100
AcDbArc
 50
253.5087001086
 51
317.0
  0
LINE
  5
186
330
77
100
AcDbEntity
  8
410052031__BOX_0
  6
Continuous
 62
     7
100
AcDbLine
 10
131.122664407
 20
412.384590707
 30
0.0
 11
131.105395701
 21
412.3660722871
 31
0.0
  0
LINE
  5
187
330
77
100
AcDbEntity
  8
410052031__BOX_0
  6
Continuous
 62
     7
100
AcDbLine
 10
142.3964259145
 20
424.474219792
 30
0.0
 11
131.122664407
 21
412.384590707
 31
0.0
  0
ARC
  5
188
330
77
100
AcDbEntity
  8
410052031__BOX_0
  6
Continuous
 62
     7
100
AcDbCircle
 10
141.6650722129
 20
425.156218152
 30
0.0
 40
0.9999999999999959
100
AcDbArc
 50
317.0
 51
0.6037967272
  0
ARC
  5
189
330
77
100
AcDbEntity
  8
410052031__BOX_0
  6
Continuous
 62
     7
100
AcDbCircle
 10
150.1646002356
 20
425.2457915418
 30
0.0
 40
7.499999999999989
100
AcDbArc
 50
301.1954998286
 51
180.6037967272
  0
ARC
  5
18A
330
77
100
AcDbEntity
  8
410052031__BOX_0
  6
Continuous
 62
     7
100
AcDbCircle
 10
154.5672587486
 20
417.9748495108
 30
0.0
 40
0.9999999999999757
100
AcDbArc
 50
121.1954998286
 51
165.0
  0
LINE
  5
18B
330
77
100
AcDbEntity
  8
410052031__BOX_0
  6
Continuous
 62
     7
100
AcDbLine
 10
149.254517023
 20
402.0111307684
 30
0.0
 11
153.6013329223
 21
418.2336685559
 31
0.0
  0
LINE
  5
18C
330
77
100
AcDbEntity
  8
410052031__BOX_0
  6
Continuous
 62
     7
100
AcDbLine
 10
149.0838079516
 20
401.3740358406
 30
0.0
 11
149.254517023
 21
402.0111307684
 31
0.0
  0
CIRCLE
  5
18D
330
77
100
AcDbEntity
  8
410052031__BOX_0
  6
Continuous
 62
     7
100
AcDbCircle
 10
150.1646002356
 20
425.2457915418
 30
0.0
 40
2.2
  0
CIRCLE
  5
18E
330
77
100
AcDbEntity
  8
410052031__BOX_0
  6
Continuous
 62
     7
100
AcDbCircle
 10
142.9454183489
 20
411.8703903363
 30
0.0
 40
2.2
  0
LINE
  5
18F
330
77
100
AcDbEntity
  8
410052031__BOX_0
  6
Continuous
 62
     7
100
AcDbLine
 10
161.727206964
 20
371.9403795343
 30
0.0
 11
162.7371379587
 21
371.9403795343
 31
0.0
  0
LINE
  5
190
330
77
100
AcDbEntity
  8
410052031__BOX_0
  6
Continuous
 62
     7
100
AcDbLine
 10
81.45
 20
411.9403795343
 30
0.0
 11
101.45
 21
411.9403795343
 31
0.0
  0
LINE
  5
191
330
77
100
AcDbEntity
  8
410052031__BOX_0
  6
Continuous
 62
     7
100
AcDbLine
 10
101.45
 20
411.9403795343
 30
0.0
 11
101.45
 21
412.9403795343
 31
0.0
  0
LINE
  5
192
330
77
100
AcDbEntity
  8
410052031__BOX_0
  6
Continuous
 62
     7
100
AcDbLine
 10
101.45
 20
412.9403795343
 30
0.0
 11
81.45
 21
412.9403795343
 31
0.0
  0
ARC
  5
193
330
77
100
AcDbEntity
  8
410052031__BOX_0
  6
Continuous
 62
     7
100
AcDbCircle
 10
63.8277278335
 20
355.8249677398
 30
0.0
 40
43.0
100
AcDbArc
 50
203.3392474311
 51
244.188994891
  0
CIRCLE
  5
194
330
77
100
AcDbEntity
  8
410052031__BOX_0
  6
Continuous
 62
     7
100
AcDbCircle
 10
56.45
 20
295.9403795343
 30
0.0
 40
4.0
  0
ARC
  5
195
330
77
100
AcDbEntity
  8
410052031__BOX_0
  6
Continuous
 62
     7
100
AcDbCircle
 10
65.5839664513
 20
354.9403795343
 30
0.0
 40
46.69396495767379
100
AcDbArc
 50
252.2045964502
 51
259.4254585688
  0
ARC
  5
196
330
77
100
AcDbEntity
  8
410052031__BOX_0
  6
Continuous
 62
     7
100
AcDbCircle
 10
56.8314285486
 20
308.0564017418
 30
0.0
 40
0.9999999999999931
100
AcDbArc
 50
347.5
 51
79.4254585688
  0
LINE
  5
197
330
77
100
AcDbEntity
  8
410052031__BOX_0
  6
Continuous
 62
     7
100
AcDbLine
 10
57.8077245558
 20
307.8399621279
 30
0.0
 11
56.7381118366
 21
303.0152509398
 31
0.0
  0
ARC
  5
198
330
77
100
AcDbEntity
  8
410052031__BOX_0
  6
Continuous
 62
     7
100
AcDbCircle
 10
56.249963833
 20
303.1234707468
 30
0.0
 40
0.4999999999929066
100
AcDbArc
 50
271.5951720984
 51
347.5
  0
ARC
  5
199
330
77
100
AcDbEntity
  8
410052031__BOX_0
  6
Continuous
 62
     7
100
AcDbCircle
 10
56.45
 20
295.9403795343
 30
0.0
 40
6.685875996344013
100
AcDbArc
 50
91.5951720984
 51
122.9748079863
  0
ARC
  5
19A
330
77
100
AcDbEntity
  8
410052031__BOX_0
  6
Continuous
 62
     7
100
AcDbCircle
 10
52.266806483
 20
302.3881374261
 30
0.0
 40
0.9999999999999948
100
AcDbArc
 50
190.0
 51
302.9748079863
  0
LINE
  5
19B
330
77
100
AcDbEntity
  8
410052031__BOX_0
  6
Continuous
 62
     7
100
AcDbLine
 10
51.2819987299
 20
302.2144892484
 30
0.0
 11
50.0229805839
 21
309.3547359704
 31
0.0
  0
ARC
  5
19C
330
77
100
AcDbEntity
  8
410052031__BOX_0
  6
Continuous
 62
     7
100
AcDbCircle
 10
51.007788337
 20
309.528384148
 30
0.0
 40
1.000000000000004
100
AcDbArc
 50
175.8112997445
 51
190.0
  0
ARC
  5
19D
330
77
100
AcDbEntity
  8
410052031__BOX_0
  6
Continuous
 62
     7
100
AcDbCircle
 10
51.007788337
 20
309.528384148
 30
0.0
 40
1.000000000000004
100
AcDbArc
 50
72.2045964502
 51
98.1887002555
  0
LINE
  5
19E
330
77
100
AcDbEntity
  8
410052031__BOX_0
  6
Continuous
 62
     7
100
AcDbLine
 10
19.142703277
 20
330.7758125045
 30
0.0
 11
21.4618029459
 21
333.5396078664
 31
0.0
  0
ARC
  5
19F
330
77
100
AcDbEntity
  8
410052031__BOX_0
  6
Continuous
 62
     7
100
AcDbCircle
 10
22.227847389
 20
332.8968202567
 30
0.0
 40
1.000000000000001
100
AcDbArc
 50
28.8617510559
 51
140.0
  0
ARC
  5
1A0
330
77
100
AcDbEntity
  8
410052031__BOX_0
  6
Continuous
 62
     7
100
AcDbCircle
 10
63.8277278335
 20
355.8249677398
 30
0.0
 40
46.50000000000001
100
AcDbArc
 50
208.8617510559
 51
214.2256586279
  0
ARC
  5
1A1
330
77
100
AcDbEntity
  8
410052031__BOX_0
  6
Continuous
 62
     7
100
AcDbCircle
 10
24.5533610242
 20
329.1084164704
 30
0.0
 40
0.9999999999999963
100
AcDbArc
 50
302.5
 51
34.2256586279
  0
LINE
  5
1A2
330
77
100
AcDbEntity
  8
410052031__BOX_0
  6
Continuous
 62
     7
100
AcDbLine
 10
25.0906606326
 20
328.2650250246
 30
0.0
 11
23.5916562775
 21
327.3100539291
 31
0.0
  0
ARC
  5
1A3
330
77
100
AcDbEntity
  8
410052031__BOX_0
  6
Continuous
 62
     7
100
AcDbCircle
 10
23.3230064733
 20
327.731749652
 30
0.0
 40
0.5000000000019649
100
AcDbArc
 50
225.9933988216
 51
302.5
  0
ARC
  5
1A4
330
77
100
AcDbEntity
  8
410052031__BOX_0
  6
Continuous
 62
     7
100
AcDbCircle
 10
18.1124471535
 20
322.3373014342
 30
0.0
 40
7.000000000000008
100
AcDbArc
 50
45.9933988216
 51
77.0243128371
  0
ARC
  5
1A5
330
77
100
AcDbEntity
  8
410052031__BOX_0
  6
Continuous
 62
     7
100
AcDbCircle
 10
19.9087477201
 20
330.1330248948
 30
0.0
 40
1.000000000000007
100
AcDbArc
 50
140.0
 51
257.0243128371
  0
LINE
  5
1A6
330
77
100
AcDbEntity
  8
410052031__BOX_0
  6
Continuous
 62
     7
100
AcDbLine
 10
31.0525104044
 20
320.7426180662
 30
0.0
 11
26.133165465
 21
320.312231152
 31
0.0
  0
ARC
  5
1A7
330
77
100
AcDbEntity
  8
410052031__BOX_0
  6
Continuous
 62
     7
100
AcDbCircle
 10
26.0460097222
 20
321.3084258501
 30
0.0
 40
1.000000000000005
100
AcDbArc
 50
172.6107549736
 51
275.0
  0
ARC
  5
1A8
330
77
100
AcDbEntity
  8
410052031__BOX_0
  6
Continuous
 62
     7
100
AcDbCircle
 10
18.1124471535
 20
322.3373014342
 30
0.0
 40
6.999999999999995
100
AcDbArc
 50
352.6107549736
 51
19.0066011785
  0
ARC
  5
1A9
330
77
100
AcDbEntity
  8
410052031__BOX_0
  6
Continuous
 62
     7
100
AcDbCircle
 10
25.2035551025
 20
324.7798795917
 30
0.0
 40
0.4999999999959233
100
AcDbArc
 50
122.5
 51
199.0066011785
  0
LINE
  5
1AA
330
77
100
AcDbEntity
  8
410052031__BOX_0
  6
Continuous
 62
     7
100
AcDbLine
 10
24.9349052983
 20
325.2015753146
 30
0.0
 11
26.8109712743
 21
326.3967611552
 31
0.0
  0
ARC
  5
1AB
330
77
100
AcDbEntity
  8
410052031__BOX_0
  6
Continuous
 62
     7
100
AcDbCircle
 10
27.3482708827
 20
325.5533697094
 30
0.0
 40
1.000000000000005
100
AcDbArc
 50
40.6081884553
 51
122.5
  0
ARC
  5
1AC
330
77
100
AcDbEntity
  8
410052031__BOX_0
  6
Continuous
 62
     7
100
AcDbCircle
 10
67.20513131
 20
359.7247126282
 30
0.0
 40
51.50000000000001
100
AcDbArc
 50
220.6081884553
 51
226.3476070065
  0
ARC
  5
1AD
330
77
100
AcDbEntity
  8
410052031__BOX_0
  6
Continuous
 62
     7
100
AcDbCircle
 10
30.9653546616
 20
321.7388127642
 30
0.0
 40
0.9999999999999927
100
AcDbArc
 50
275.0
 51
46.3476070065
  0
CIRCLE
  5
1AE
330
77
100
AcDbEntity
  8
410052031__BOX_0
  6
Continuous
 62
     7
100
AcDbCircle
 10
17.45
 20
322.9403795343
 30
0.0
 40
4.0
  0
LINE
  5
1AF
330
77
100
AcDbEntity
  8
410052031__BOX_0
  6
Continuous
 62
     7
100
AcDbLine
 10
37.9656423195
 20
317.7085267995
 30
0.0
 11
35.0873739727
 21
317.4567109485
 31
0.0
  0
LINE
  5
1B0
330
77
100
AcDbEntity
  8
410052031__BOX_0
  6
Continuous
 62
     7
100
AcDbLine
 10
32.4000476439
 20
317.2216003596
 30
0.0
 11
18.0600901992
 21
315.9670166477
 31
0.0
  0
ARC
  5
1B1
330
77
100
AcDbEntity
  8
410052031__BOX_0
  6
Continuous
 62
     7
100
AcDbCircle
 10
17.45
 20
322.9403795343
 30
0.0
 40
7.000000000000003
100
AcDbArc
 50
140.0
 51
275.0
  0
LINE
  5
1B2
330
77
100
AcDbEntity
  8
410052031__BOX_0
  6
Continuous
 62
     7
100
AcDbLine
 10
12.0876888982
 20
327.4398928021
 30
0.0
 11
21.8469263426
 21
339.0704990875
 31
0.0
  0
ARC
  5
1B3
330
77
100
AcDbEntity
  8
410052031__BOX_0
  6
Continuous
 62
     7
100
AcDbCircle
 10
21.0808818995
 20
339.7132866972
 30
0.0
 40
1.000000000000004
100
AcDbArc
 50
320.0
 51
341.9447665385
  0
LINE
  5
1B4
330
77
100
AcDbEntity
  8
410052031__BOX_0
  6
Continuous
 62
     7
100
AcDbLine
 10
49.5563457289
 20
294.7248422907
 30
0.0
 11
47.4225450564
 21
306.8262272515
 31
0.0
  0
LINE
  5
1B5
330
77
100
AcDbEntity
  8
410052031__BOX_0
  6
Continuous
 62
     7
100
AcDbLine
 10
46.8713775438
 20
309.952053545
 30
0.0
 11
46.3078566159
 21
313.1479395388
 31
0.0
  0
ARC
  5
1B6
330
77
100
AcDbEntity
  8
410052031__BOX_0
  6
Continuous
 62
     7
100
AcDbCircle
 10
67.20513131
 20
359.7247126282
 30
0.0
 40
49.00000000000001
100
AcDbArc
 50
215.6084576712
 51
243.5219469383
  0
ARC
  5
1B7
330
77
100
AcDbEntity
  8
410052031__BOX_0
  6
Continuous
 62
     7
100
AcDbCircle
 10
63.8277278335
 20
355.8249677398
 30
0.0
 40
43.99999999999999
100
AcDbArc
 50
203.583189896
 51
214.040335684
  0
ARC
  5
1B8
330
77
100
AcDbEntity
  8
410052031__BOX_0
  6
Continuous
 62
     7
100
AcDbCircle
 10
28.4690861783
 20
340.3895094823
 30
0.0
 40
5.419086178303043
100
AcDbArc
 50
198.8899703804
 51
203.583189896
  0
ARC
  5
1B9
330
77
100
AcDbEntity
  8
410052031__BOX_0
  6
Continuous
 62
     7
100
AcDbCircle
 10
91.45
 20
361.9403795343
 30
0.0
 40
71.985109837645
100
AcDbArc
 50
187.9852183235
 51
198.8899703804
  0
ARC
  5
1BA
330
77
100
AcDbEntity
  8
410052031__BOX_0
  6
Continuous
 62
     7
100
AcDbCircle
 10
91.45
 20
361.9403795343
 30
0.0
 40
71.985109837645
100
AcDbArc
 50
180.7959649244
 51
187.9852183235
  0
LINE
  5
1BB
330
77
100
AcDbEntity
  8
410052031__BOX_0
  6
Continuous
 62
     7
100
AcDbLine
 10
19.4718363784
 20
360.9403795343
 30
0.0
 11
19.457943276
 21
361.9403795343
 31
0.0
  0
ARC
  5
1BC
330
77
100
AcDbEntity
  8
410052031__BOX_0
  6
Continuous
 62
     7
100
AcDbCircle
 10
91.45
 20
361.9403795343
 30
0.0
 40
72.98510983764461
100
AcDbArc
 50
161.1100296196
 51
198.8899703804
  0
ARC
  5
1BD
330
77
100
AcDbEntity
  8
410052031__BOX_0
  6
Continuous
 62
     7
100
AcDbCircle
 10
28.4690861783
 20
340.3895094823
 30
0.0
 40
6.41908617830308
100
AcDbArc
 50
198.8899703804
 51
203.583189896
  0
ARC
  5
1BE
330
77
100
AcDbEntity
  8
410052031__BOX_0
  6
Continuous
 62
     7
100
AcDbCircle
 10
63.8277278335
 20
355.8249677398
 30
0.0
 40
44.99999999999999
100
AcDbArc
 50
203.583189896
 51
214.0577702042
  0
ARC
  5
1BF
330
77
100
AcDbEntity
  8
410052031__BOX_0
  6
Continuous
 62
     7
100
AcDbCircle
 10
67.20513131
 20
359.7247126282
 30
0.0
 40
50.00000000000001
100
AcDbArc
 50
215.5927844034
 51
243.513070532
  0
ARC
  5
1C0
330
77
100
AcDbEntity
  8
410052031__BOX_0
  6
Continuous
 62
     7
100
AcDbCircle
 10
65.5839664513
 20
354.9403795343
 30
0.0
 40
43.99999999999999
100
AcDbArc
 50
242.6338194732
 51
270.0
  0
ARC
  5
1C1
330
77
100
AcDbEntity
  8
410052031__BOX_0
  6
Continuous
 62
     7
100
AcDbCircle
 10
56.45
 20
295.9403795343
 30
0.0
 40
7.000000000000005
100
AcDbArc
 50
190.0
 51
325.0
  0
ARC
  5
1C2
330
77
100
AcDbEntity
  8
410052031__BOX_0
  6
Continuous
 62
     7
100
AcDbCircle
 10
65.5839664513
 20
354.9403795343
 30
0.0
 40
45.0
100
AcDbArc
 50
242.6436933482
 51
270.0
  0
ARC
  5
1C3
330
77
100
AcDbEntity
  8
410052031__BOX_0
  6
Continuous
 62
     7
100
AcDbCircle
 10
65.5839664513
 20
368.9403795343
 30
0.0
 40
45.0
100
AcDbArc
 50
90.0
 51
117.3563066518
  0
ARC
  5
1C4
330
77
100
AcDbEntity
  8
410052031__BOX_0
  6
Continuous
 62
     7
100
AcDbCircle
 10
67.20513131
 20
364.1560464405
 30
0.0
 40
50.0
100
AcDbArc
 50
116.486929468
 51
144.4072155966
  0
ARC
  5
1C5
330
77
100
AcDbEntity
  8
410052031__BOX_0
  6
Continuous
 62
     7
100
AcDbCircle
 10
63.8277278335
 20
368.0557913289
 30
0.0
 40
44.99999999999999
100
AcDbArc
 50
145.9422297958
 51
156.416810104
  0
ARC
  5
1C6
330
77
100
AcDbEntity
  8
410052031__BOX_0
  6
Continuous
 62
     7
100
AcDbCircle
 10
28.4690861783
 20
383.4912495864
 30
0.0
 40
6.419086178303077
100
AcDbArc
 50
156.416810104
 51
161.1100296196
  0
LINE
  5
1C7
330
77
100
AcDbEntity
  8
410052031__BOX_0
  6
Continuous
 62
     7
100
AcDbLine
 10
71.45
 20
305.1584720661
 30
0.0
 11
62.18406431
 21
291.9253444799
 31
0.0
  0
LINE
  5
1C8
330
77
100
AcDbEntity
  8
410052031__BOX_0
  6
Continuous
 62
     7
100
AcDbLine
 10
81.45
 20
310.9403795343
 30
0.0
 11
65.5839664513
 21
310.9403795343
 31
0.0
  0
LINE
  5
1C9
330
77
100
AcDbEntity
  8
410052031__BOX_0
  6
Continuous
 62
     7
100
AcDbLine
 10
60.4550821232
 20
308.2308546311
 30
0.0
 11
59.1788518544
 21
302.474151905
 31
0.0
  0
ARC
  5
1CA
330
77
100
AcDbEntity
  8
410052031__BOX_0
  6
Continuous
 62
     7
100
AcDbCircle
 10
59.666999858
 20
302.365932098
 30
0.0
 40
0.4999999999999993
100
AcDbArc
 50
167.5
 51
243.4048279015
  0
ARC
  5
1CB
330
77
100
AcDbEntity
  8
410052031__BOX_0
  6
Continuous
 62
     7
100
AcDbCircle
 10
56.45
 20
295.9403795343
 30
0.0
 40
6.685875996344008
100
AcDbArc
 50
32.0251920136
 51
63.4048279016
  0
ARC
  5
1CC
330
77
100
AcDbEntity
  8
410052031__BOX_0
  6
Continuous
 62
     7
100
AcDbCircle
 10
62.9662010915
 20
300.0161387478
 30
0.0
 40
1.000000000000004
100
AcDbArc
 50
212.0251920136
 51
325.0
  0
LINE
  5
1CD
330
77
100
AcDbEntity
  8
410052031__BOX_0
  6
Continuous
 62
     7
100
AcDbLine
 10
63.7853531358
 20
299.4425623115
 30
0.0
 11
68.893608408
 21
306.7379068964
 31
0.0
  0
ARC
  5
1CE
330
77
100
AcDbEntity
  8
410052031__BOX_0
  6
Continuous
 62
     7
100
AcDbCircle
 10
68.0744563637
 20
307.3114833327
 30
0.0
 40
1.0
100
AcDbArc
 50
325.0
 51
92.9932401105
  0
ARC
  5
1CF
330
77
100
AcDbEntity
  8
410052031__BOX_0
  6
Continuous
 62
     7
100
AcDbCircle
 10
65.5839664513
 20
354.9403795343
 30
0.0
 40
46.69396495767359
100
AcDbArc
 50
264.1379771134
 51
272.9932401105
  0
ARC
  5
1D0
330
77
100
AcDbEntity
  8
410052031__BOX_0
  6
Continuous
 62
     7
100
AcDbCircle
 10
60.7808797544
 20
308.1586270351
 30
0.0
 40
0.3337078394181528
100
AcDbArc
 50
84.1379771134
 51
167.5
  0
ARC
  5
1D1
330
77
100
AcDbEntity
  8
410052031__BOX_0
  6
Continuous
 62
     7
100
AcDbCircle
 10
32.7353997644
 20
298.6349675269
 30
0.0
 40
7.534906806565628
100
AcDbArc
 50
77.1708609872
 51
85.8022024884
  0
LINE
  5
1D2
330
77
100
AcDbEntity
  8
410052031__BOX_0
  6
Continuous
 62
     7
100
AcDbLine
 10
32.3942364165
 20
307.4057847567
 30
0.0
 11
35.2766454124
 21
318.1630815777
 31
0.0
  0
ARC
  5
1D3
330
77
100
AcDbEntity
  8
410052031__BOX_0
  6
Continuous
 62
     7
100
AcDbCircle
 10
67.20513131
 20
359.7247126282
 30
0.0
 40
51.03490680656562
100
AcDbArc
 50
233.484894493
 51
234.6027818383
  0
ARC
  5
1D4
330
77
100
AcDbEntity
  8
410052031__BOX_0
  6
Continuous
 62
     7
100
AcDbCircle
 10
39.9545816511
 20
312.0103687324
 30
0.0
 40
5.034906806565614
100
AcDbArc
 50
118.6148270844
 51
219.3948142014
  0
LINE
  5
1D5
330
77
100
AcDbEntity
  8
410052031__BOX_0
  6
Continuous
 62
     7
100
AcDbLine
 10
36.1708614579
 20
307.7052930471
 30
0.0
 11
35.5105201644
 21
306.4818400477
 31
0.0
  0
ARC
  5
1D6
330
77
100
AcDbEntity
  8
410052031__BOX_0
  6
Continuous
 62
     7
100
AcDbCircle
 10
67.20513131
 20
359.7247126282
 30
0.0
 40
51.03490680656562
100
AcDbArc
 50
245.934235165
 51
247.324602792
  0
LINE
  5
1D7
330
77
100
AcDbEntity
  8
410052031__BOX_0
  6
Continuous
 62
     7
100
AcDbLine
 10
47.8765116049
 20
311.0299278616
 30
0.0
 11
40.3666145942
 21
302.9765492917
 31
0.0
  0
ARC
  5
1D8
330
77
100
AcDbEntity
  8
410052031__BOX_0
  6
Continuous
 62
     7
100
AcDbCircle
 10
32.7353997644
 20
298.6349675269
 30
0.0
 40
7.534906806565622
100
AcDbArc
 50
36.0571671519
 51
46.1144955282
  0
LINE
  5
1D9
330
77
100
AcDbEntity
  8
410052031__BOX_0
  6
Continuous
 62
     7
100
AcDbLine
 10
37.771962851
 20
305.2612586364
 30
0.0
 11
38.4323041444
 21
306.4847116358
 31
0.0
  0
ARC
  5
1DA
330
77
100
AcDbEntity
  8
410052031__BOX_0
  6
Continuous
 62
     7
100
AcDbCircle
 10
39.9545816511
 20
312.0103687324
 30
0.0
 40
5.03490680656561
100
AcDbArc
 50
263.890542314
 51
1.9221899189
  0
SPLINE
  5
1DB
330
77
100
AcDbEntity
  8
410052031__BOX_0
  6
Continuous
 62
     7
100
AcDbSpline
210
0.0
220
0.0
230
1.0
 70
     8
 71
     3
 72
    10
 73
     6
 74
     0
 42
0.0000000083357934
 43
0.0000000001
 40
0.0
 40
0.0
 40
0.0
 40
0.0
 40
0.5
 40
0.5
 40
1.0
 40
1.0
 40
1.0
 40
1.0
 10
38.43230414441595
 20
306.4847116357953
 30
0.0
 10
38.5267129331549
 20
306.6596283294776
 30
0.0
 10
38.67171131167042
 20
306.802400662885
 30
0.0
 10
39.01954943577829
 20
306.9859384730409
 30
0.0
 10
39.22108610506197
 20
307.0252127962623
 30
0.0
 10
39.41872556724663
 20
307.0040582337865
 30
0.0
  0
SPLINE
  5
1DC
330
77
100
AcDbEntity
  8
410052031__BOX_0
  6
Continuous
 62
     7
100
AcDbSpline
210
0.0
220
0.0
230
1.0
 70
     8
 71
     3
 72
    16
 73
    12
 74
     0
 42
0.000000005153215
 43
0.0000000001
 40
0.0
 40
0.0
 40
0.0
 40
0.0
 40
0.1249999999999974
 40
0.1249999999999974
 40
0.2499999999999948
 40
0.2499999999999948
 40
0.4999999999999966
 40
0.4999999999999966
 40
0.7499999999999982
 40
0.7499999999999982
 40
1.0
 40
1.0
 40
1.0
 40
1.0
 10
47.53067106466118
 20
312.6346146583571
 30
0.0
 10
47.60536535597956
 20
312.6034070387416
 30
0.0
 10
47.67480323610289
 20
312.563897496572
 30
0.0
 10
47.80352953311954
 20
312.4688484528986
 30
0.0
 10
47.8629185129472
 20
312.412767411138
 30
0.0
 10
48.01606389836758
 20
312.2286535694142
 30
0.0
 10
48.08853732488816
 20
312.080531765573
 30
0.0
 10
48.15653262081338
 20
311.7663413016681
 30
0.0
 10
48.15178429626955
 20
311.6009112858824
 30
0.0
 10
48.06685143621387
 20
311.2922842081647
 30
0.0
 10
47.98692925820803
 20
311.1483362979506
 30
0.0
 10
47.87651160494056
 20
311.0299278615523
 30
0.0
  0
SPLINE
  5
1DD
330
77
100
AcDbEntity
  8
410052031__BOX_0
  6
Continuous
 62
     7
100
AcDbSpline
210
0.0
220
0.0
230
1.0
 70
     8
 71
     3
 72
    22
 73
    18
 74
     0
 42
0.0000000049266955
 43
0.0000000001
 40
0.0
 40
0.0
 40
0.0
 40
0.0
 40
0.125
 40
0.125
 40
0.25
 40
0.25
 40
0.375
 40
0.375
 40
0.5
 40
0.5
 40
0.625
 40
0.625
 40
0.75
 40
0.75
 40
0.875
 40
0.875
 40
1.0
 40
1.0
 40
1.0
 40
1.0
 10
44.98665531765918
 20
312.1792508357738
 30
0.0
 10
44.98379893751266
 20
312.2643605959399
 30
0.0
 10
44.99170067791201
 20
312.3480076593389
 30
0.0
 10
45.02833754264952
 20
312.5124692353018
 30
0.0
 10
45.05746675137551
 20
312.5931954598453
 30
0.0
 10
45.133884615955
 20
312.7426947183796
 30
0.0
 10
45.18225612594136
 20
312.8135858303438
 30
0.0
 10
45.29410081711926
 20
312.9396030124691
 30
0.0
 10
45.35727425014479
 20
312.9949992796774
 30
0.0
 10
45.49858993841173
 20
313.0900601245364
 30
0.0
 10
45.57371012694632
 20
313.1276923902342
 30
0.0
 10
45.73259214394976
 20
313.1837884534887
 30
0.0
 10
45.81648568470452
 20
313.2018706581981
 30
0.0
 10
45.98376255813861
 20
313.2163011986907
 30
0.0
 10
46.06951615984629
 20
313.2128533588059
 30
0.0
 10
46.23565351872399
 20
313.1847978085055
 30
0.0
 10
46.31610857402703
 20
313.1605880930936
 30
0.0
 10
46.39386417650753
 20
313.1258620731365
 30
0.0
  0
SPLINE
  5
1DE
330
77
100
AcDbEntity
  8
410052031__BOX_0
  6
Continuous
 62
     7
100
AcDbSpline
210
0.0
220
0.0
230
1.0
 70
     8
 71
     3
 72
    22
 73
    18
 74
     0
 42
0.0000000049266955
 43
0.0000000001
 40
0.0
 40
0.0
 40
0.0
 40
0.0
 40
0.125
 40
0.125
 40
0.25
 40
0.25
 40
0.375
 40
0.375
 40
0.5
 40
0.5
 40
0.625
 40
0.625
 40
0.75
 40
0.75
 40
0.875
 40
0.875
 40
1.0
 40
1.0
 40
1.0
 40
1.0
 10
37.64359047124603
 20
318.1233062097554
 30
0.0
 10
37.71300725690605
 20
318.073979340285
 30
0.0
 10
37.77473861167724
 20
318.0169836513718
 30
0.0
 10
37.88331828177932
 20
317.8881414026079
 30
0.0
 10
37.92985746771599
 20
317.8160349652921
 30
0.0
 10
38.00242054083679
 20
317.6646271757015
 30
0.0
 10
38.02947237921932
 20
317.5831805626718
 30
0.0
 10
38.06188311384495
 20
317.4178351381317
 30
0.0
 10
38.06763861386779
 20
317.3340108977229
 30
0.0
 10
38.05756373648795
 20
317.163995648931
 30
0.0
 10
38.0419492776597
 20
317.0814400990117
 30
0.0
 10
37.99023722571138
 20
316.9210776117446
 30
0.0
 10
37.95375631234315
 20
316.8433972714547
 30
0.0
 10
37.86381954916296
 20
316.701618671118
 30
0.0
 10
37.80908880021944
 20
316.6355118414728
 30
0.0
 10
37.68605504115023
 20
316.5203969855803
 30
0.0
 10
37.61802531873103
 20
316.4710909706148
 30
0.0
 10
37.54326887847181
 20
316.4303073364109
 30
0.0
  0
SPLINE
  5
1DF
330
77
100
AcDbEntity
  8
410052031__BOX_0
  6
Continuous
 62
     7
100
AcDbSpline
210
0.0
220
0.0
230
1.0
 70
     8
 71
     3
 72
    16
 73
    12
 74
     0
 42
0.0000000050973374
 43
0.0000000001
 40
0.0
 40
0.0
 40
0.0
 40
0.0
 40
0.1250000000000057
 40
0.1250000000000057
 40
0.2500000000000114
 40
0.2500000000000114
 40
0.5000000000000077
 40
0.5000000000000077
 40
0.7500000000000039
 40
0.7500000000000039
 40
1.0
 40
1.0
 40
1.0
 40
1.0
 10
35.27664541237339
 20
318.1630815776643
 30
0.0
 10
35.29782480464544
 20
318.242124145697
 30
0.0
 10
35.3281259863589
 20
318.3169779497766
 30
0.0
 10
35.40635144708185
 20
318.4585929577756
 30
0.0
 10
35.45477051197921
 20
318.5254576181657
 30
0.0
 10
35.61944658039197
 20
318.7028621777371
 30
0.0
 10
35.7587179070131
 20
318.7944084014422
 30
0.0
 10
36.06583758145361
 20
318.9018765979986
 30
0.0
 10
36.23241438577941
 20
318.9171855460652
 30
0.0
 10
36.55201318633812
 20
318.8688090169434
 30
0.0
 10
36.7060560915418
 20
318.805341802704
 30
0.0
 10
36.83759107501209
 20
318.7079573587953
 30
0.0
  0
SPLINE
  5
1E0
330
77
100
AcDbEntity
  8
410052031__BOX_0
  6
Continuous
 62
     7
100
AcDbSpline
210
0.0
220
0.0
230
1.0
 70
     8
 71
     3
 72
    16
 73
    12
 74
     0
 42
0.0000000056391942
 43
0.0000000001
 40
0.0
 40
0.0
 40
0.0
 40
0.0
 40
0.125
 40
0.125
 40
0.25
 40
0.25
 40
0.5
 40
0.5
 40
0.75
 40
0.75
 40
1.0
 40
1.0
 40
1.0
 40
1.0
 10
40.36661459420014
 20
302.9765492917264
 30
0.0
 10
40.31609019560242
 20
302.9223685075773
 30
0.0
 10
40.26056327083247
 20
302.8747461192323
 30
0.0
 10
40.13988643251898
 20
302.7921172423941
 30
0.0
 10
40.07393894215618
 20
302.7569271781089
 30
0.0
 10
39.87001766056923
 20
302.6755332227882
 30
0.0
 10
39.72112182158281
 20
302.6515755359751
 30
0.0
 10
39.4293241100514
 20
302.6691282781459
 30
0.0
 10
39.28499039323626
 20
302.7103594165406
 30
0.0
 10
39.02614481088893
 20
302.8518758837936
 30
0.0
 10
38.91405462607386
 20
302.9501729421076
 30
0.0
 10
38.82684542412449
 20
303.0699546022735
 30
0.0
  0
SPLINE
  5
1E1
330
77
100
AcDbEntity
  8
410052031__BOX_0
  6
Continuous
 62
     7
100
AcDbSpline
210
0.0
220
0.0
230
1.0
 70
     8
 71
     3
 72
    10
 73
     6
 74
     0
 42
0.0000000075604253
 43
0.0000000001
 40
0.0
 40
0.0
 40
0.0
 40
0.0
 40
0.5
 40
0.5
 40
1.0
 40
1.0
 40
1.0
 40
1.0
 10
37.95874417237308
 20
304.0655746550023
 30
0.0
 10
37.80120815210841
 20
304.2170982086477
 30
0.0
 10
37.6977587240946
 20
304.4163155399432
 30
0.0
 10
37.63031279544672
 20
304.8464752942883
 30
0.0
 10
37.66814440860112
 20
305.0689081261926
 30
0.0
 10
37.7719628509769
 20
305.2612586364172
 30
0.0
  0
SPLINE
  5
1E2
330
77
100
AcDbEntity
  8
410052031__BOX_0
  6
Continuous
 62
     7
100
AcDbSpline
210
0.0
220
0.0
230
1.0
 70
     8
 71
     3
 72
    16
 73
    12
 74
     0
 42
0.0000000056471689
 43
0.0000000001
 40
0.0
 40
0.0
 40
0.0
 40
0.0
 40
0.1249999999999961
 40
0.1249999999999961
 40
0.2499999999999922
 40
0.2499999999999922
 40
0.4999999999999948
 40
0.4999999999999948
 40
0.7499999999999973
 40
0.7499999999999973
 40
1.0
 40
1.0
 40
1.0
 40
1.0
 10
33.28695388500652
 20
306.1496603773084
 30
0.0
 10
33.21317188740573
 20
306.1550757370059
 30
0.0
 10
33.14136079203021
 20
306.1684774862823
 30
0.0
 10
33.0015297031465
 20
306.2106430946632
 30
0.0
 10
32.93286386728853
 20
306.2399126871118
 30
0.0
 10
32.74183977093208
 20
306.3475663733713
 30
0.0
 10
32.62993550122287
 20
306.4483466370636
 30
0.0
 10
32.46071713117737
 20
306.686202773166
 30
0.0
 10
32.4022741666376
 20
306.8242613626586
 30
0.0
 10
32.34991169979585
 20
307.1140909010593
 30
0.0
 10
32.35594130774322
 20
307.2628654653093
 30
0.0
 10
32.39423641645725
 20
307.4057847567116
 30
0.0
  0
SPLINE
  5
1E3
330
77
100
AcDbEntity
  8
410052031__BOX_0
  6
Continuous
 62
     7
100
AcDbSpline
210
0.0
220
0.0
230
1.0
 70
     8
 71
     3
 72
    10
 73
     6
 74
     0
 42
0.0000000075604253
 43
0.0000000001
 40
0.0
 40
0.0
 40
0.0
 40
0.0
 40
0.5
 40
0.5
 40
1.0
 40
1.0
 40
1.0
 40
1.0
 10
35.51052016442055
 20
306.481840047749
 30
0.0
 10
35.40670172505523
 20
306.2894895431021
 30
0.0
 10
35.24245073606615
 20
306.1364831972827
 30
0.0
 10
34.84604839859048
 20
305.9563400475569
 30
0.0
 10
34.62160662308882
 20
305.9332427517729
 30
0.0
 10
34.40848364287265
 20
305.9817771011018
 30
0.0
  0
SPLINE
  5
1E4
330
77
100
AcDbEntity
  8
410052031__BOX_0
  6
Continuous
 62
     7
100
AcDbSpline
210
0.0
220
0.0
230
1.0
 70
     8
 71
     3
 72
    10
 73
     6
 74
     0
 42
0.0000000083357934
 43
0.0000000001
 40
0.0
 40
0.0
 40
0.0
 40
0.0
 40
0.5
 40
0.5
 40
1.0
 40
1.0
 40
1.0
 40
1.0
 10
36.06365088784236
 20
308.8149119032848
 30
0.0
 10
36.18980134177221
 20
308.6613054838447
 30
0.0
 10
36.26704650187902
 20
308.4730459443819
 30
0.0
 10
36.30522434680335
 20
308.0816127566005
 30
0.0
 10
36.26527025066827
 20
307.8802097483496
 30
0.0
 10
36.17086145785961
 20
307.705293047127
 30
0.0
  0
LINE
  5
1E5
330
77
100
AcDbEntity
  8
410052031__BOX_0
  6
Continuous
 62
     7
100
AcDbLine
 10
19.45
 20
341.9403795343
 30
0.0
 11
19.45
 21
349.9893855166
 31
0.0
  0
LINE
  5
1E6
330
77
100
AcDbEntity
  8
410052031__BOX_0
  6
Continuous
 62
     7
100
AcDbLine
 10
19.45
 20
373.8913735521
 30
0.0
 11
19.45
 21
381.9403795343
 31
0.0
  0
LINE
  5
1E7
330
77
100
AcDbEntity
  8
410052031__BOX_0
  6
Continuous
 62
     7
100
AcDbLine
 10
20.55
 20
381.9403795343
 30
0.0
 11
20.55
 21
379.2613569321
 31
0.0
  0
LINE
  5
1E8
330
77
100
AcDbEntity
  8
410052031__BOX_0
  6
Continuous
 62
     7
100
AcDbLine
 10
20.55
 20
344.6194021366
 30
0.0
 11
20.55
 21
341.9403795343
 31
0.0
  0
LINE
  5
1E9
330
77
100
AcDbEntity
  8
410052031__BOX_0
  6
Continuous
 62
     7
100
AcDbLine
 10
65.5839664513
 20
311.9403795343
 30
0.0
 11
81.45
 21
311.9403795343
 31
0.0
  0
ARC
  5
1EA
330
77
100
AcDbEntity
  8
410052031__BOX_0
  6
Continuous
 62
     7
100
AcDbCircle
 10
65.5839664513
 20
354.9403795343
 30
0.0
 40
43.0
100
AcDbArc
 50
242.6234983155
 51
270.0
  0
ARC
  5
1EB
330
77
100
AcDbEntity
  8
410052031__BOX_0
  6
Continuous
 62
     7
100
AcDbCircle
 10
67.20513131
 20
359.7247126282
 30
0.0
 40
48.0
100
AcDbArc
 50
242.5863032189
 51
243.5312039396
  0
ARC
  5
1EC
330
77
100
AcDbEntity
  8
410052031__BOX_0
  6
Continuous
 62
     7
100
AcDbCircle
 10
91.45
 20
361.9403795343
 30
0.0
 40
70.985109837645
100
AcDbArc
 50
171.9015404184
 51
188.0984595816
  0
ARC
  5
1ED
330
77
100
AcDbEntity
  8
410052031__BOX_0
  6
Continuous
 62
     7
100
AcDbCircle
 10
91.45
 20
361.9403795343
 30
0.0
 40
70.985109837645
100
AcDbArc
 50
188.0984595816
 51
199.0345136056
  0
ARC
  5
1EE
330
77
100
AcDbEntity
  8
410052031__BOX_0
  6
Continuous
 62
     7
100
AcDbCircle
 10
52.5259580006
 20
310.8326884216
 30
0.0
 40
0.9999999999997164
100
AcDbArc
 50
73.5087001086
 51
137.0
  0
LINE
  5
1EF
330
77
100
AcDbEntity
  8
410052031__BOX_0
  6
Continuous
 62
     7
100
AcDbLine
 10
51.777335593
 20
311.4961683617
 30
0.0
 11
51.794604299
 21
311.5146867816
 31
0.0
  0
LINE
  5
1F0
330
77
100
AcDbEntity
  8
410052031__BOX_0
  6
Continuous
 62
     7
100
AcDbLine
 10
40.5035740855
 20
299.4065392767
 30
0.0
 11
51.777335593
 21
311.4961683617
 31
0.0
  0
ARC
  5
1F1
330
77
100
AcDbEntity
  8
410052031__BOX_0
  6
Continuous
 62
     7
100
AcDbCircle
 10
41.2349277871
 20
298.7245409166
 30
0.0
 40
0.9999999999999959
100
AcDbArc
 50
137.0
 51
180.6037967272
  0
ARC
  5
1F2
330
77
100
AcDbEntity
  8
410052031__BOX_0
  6
Continuous
 62
     7
100
AcDbCircle
 10
32.7353997644
 20
298.6349675269
 30
0.0
 40
7.500000000000008
100
AcDbArc
 50
121.1954998286
 51
0.6037967272
  0
ARC
  5
1F3
330
77
100
AcDbEntity
  8
410052031__BOX_0
  6
Continuous
 62
     7
100
AcDbCircle
 10
28.3327412514
 20
305.9059095579
 30
0.0
 40
0.9999999999999892
100
AcDbArc
 50
301.1954998286
 51
345.0
  0
LINE
  5
1F4
330
77
100
AcDbEntity
  8
410052031__BOX_0
  6
Continuous
 62
     7
100
AcDbLine
 10
33.645482977
 20
321.8696283003
 30
0.0
 11
29.2986670777
 21
305.6470905128
 31
0.0
  0
LINE
  5
1F5
330
77
100
AcDbEntity
  8
410052031__BOX_0
  6
Continuous
 62
     7
100
AcDbLine
 10
33.8161920484
 20
322.5067232281
 30
0.0
 11
33.645482977
 21
321.8696283003
 31
0.0
  0
CIRCLE
  5
1F6
330
77
100
AcDbEntity
  8
410052031__BOX_0
  6
Continuous
 62
     7
100
AcDbCircle
 10
32.7353997644
 20
298.6349675269
 30
0.0
 40
2.2
  0
CIRCLE
  5
1F7
330
77
100
AcDbEntity
  8
410052031__BOX_0
  6
Continuous
 62
     7
100
AcDbCircle
 10
39.9545816511
 20
312.0103687324
 30
0.0
 40
2.2
  0
LINE
  5
1F8
330
77
100
AcDbEntity
  8
410052031__BOX_0
  6
Continuous
 62
     7
100
AcDbLine
 10
21.172793036
 20
351.9403795343
 30
0.0
 11
20.1628620413
 21
351.9403795343
 31
0.0
  0
LINE
  5
1F9
330
77
100
AcDbEntity
  8
410052031__BOX_0
  6
Continuous
 62
     7
100
AcDbLine
 10
21.172793036
 20
371.9403795343
 30
0.0
 11
20.1628620413
 21
371.9403795343
 31
0.0
  0
ARC
  5
1FA
330
77
100
AcDbEntity
  8
410052031__BOX_0
  6
Continuous
 62
     7
100
AcDbCircle
 10
91.45
 20
361.9403795343
 30
0.0
 40
71.985109837645
100
AcDbArc
 50
172.0147816765
 51
179.2040350756
  0
LINE
  5
1FB
330
77
100
AcDbEntity
  8
410052031__BOX_0
  6
Continuous
 62
     7
100
AcDbLine
 10
19.4718363784
 20
362.9403795343
 30
0.0
 11
19.457943276
 21
361.9403795343
 31
0.0
  0
LINE
  5
1FC
330
77
100
AcDbEntity
  8
410052031__BOX_0
  6
Continuous
 62
     7
100
AcDbLine
 10
81.45
 20
311.9403795343
 30
0.0
 11
81.45
 21
310.9403795343
 31
0.0
  0
LINE
  5
1FD
330
77
100
AcDbEntity
  8
410052031__BOX_0
  6
Continuous
 62
     7
100
AcDbLine
 10
65.5839664513
 20
411.9403795343
 30
0.0
 11
68.6070806295
 21
411.9403795343
 31
0.0
  0
LINE
  5
1FE
330
77
100
AcDbEntity
  8
410052031__BOX_0
  6
Continuous
 62
     7
100
AcDbLine
 10
81.45
 20
412.9403795343
 30
0.0
 11
65.5839664513
 21
412.9403795343
 31
0.0
  0
ARC
  5
1FF
330
77
100
AcDbEntity
  8
410052031__BOX_0
  6
Continuous
 62
     7
100
AcDbCircle
 10
65.5839664513
 20
368.9403795343
 30
0.0
 40
43.99999999999999
100
AcDbArc
 50
90.0
 51
117.3661805268
  0
ARC
  5
200
330
77
100
AcDbEntity
  8
410052031__BOX_0
  6
Continuous
 62
     7
100
AcDbCircle
 10
67.20513131
 20
364.1560464405
 30
0.0
 40
49.0
100
AcDbArc
 50
116.4780530617
 51
144.3915423288
  0
ARC
  5
201
330
77
100
AcDbEntity
  8
410052031__BOX_0
  6
Continuous
 62
     7
100
AcDbCircle
 10
63.8277278335
 20
368.0557913289
 30
0.0
 40
43.99999999999999
100
AcDbArc
 50
145.959664316
 51
156.416810104
  0
ARC
  5
202
330
77
100
AcDbEntity
  8
410052031__BOX_0
  6
Continuous
 62
     7
100
AcDbCircle
 10
28.4690861783
 20
383.4912495864
 30
0.0
 40
5.41908617830304
100
AcDbArc
 50
156.416810104
 51
161.1100296196
  0
ARC
  5
203
330
77
100
AcDbEntity
  8
410052031__BOX_0
  6
Continuous
 62
     7
100
AcDbCircle
 10
91.45
 20
361.9403795343
 30
0.0
 40
71.985109837645
100
AcDbArc
 50
161.1100296196
 51
172.0147816765
  0
ARC
  5
204
330
77
100
AcDbEntity
  8
410052031__BOX_0
  6
Continuous
 62
     7
100
AcDbCircle
 10
91.45
 20
361.9403795343
 30
0.0
 40
70.985109837645
100
AcDbArc
 50
160.9654863944
 51
171.9015404184
  0
ARC
  5
205
330
77
100
AcDbEntity
  8
410052031__BOX_0
  6
Continuous
 62
     7
100
AcDbCircle
 10
67.20513131
 20
364.1560464405
 30
0.0
 40
47.99999999999999
100
AcDbArc
 50
116.4687960604
 51
117.4136967811
  0
ARC
  5
206
330
77
100
AcDbEntity
  8
410052031__BOX_0
  6
Continuous
 62
     7
100
AcDbCircle
 10
65.5839664513
 20
368.9403795343
 30
0.0
 40
42.99999999999999
100
AcDbArc
 50
90.0
 51
117.3765016845
  0
LINE
  5
207
330
77
100
AcDbEntity
  8
410052031__BOX_0
  6
Continuous
 62
     7
100
AcDbLine
 10
71.45
 20
418.7222870026
 30
0.0
 11
62.18406431
 21
431.9554145888
 31
0.0
  0
ARC
  5
208
330
77
100
AcDbEntity
  8
410052031__BOX_0
  6
Continuous
 62
     7
100
AcDbCircle
 10
56.45
 20
427.9403795343
 30
0.0
 40
6.999999999999999
100
AcDbArc
 50
35.0
 51
170.0
  0
LINE
  5
209
330
77
100
AcDbEntity
  8
410052031__BOX_0
  6
Continuous
 62
     7
100
AcDbLine
 10
49.5563457289
 20
429.155916778
 30
0.0
 11
47.4225450564
 21
417.0545318172
 31
0.0
  0
LINE
  5
20A
330
77
100
AcDbEntity
  8
410052031__BOX_0
  6
Continuous
 62
     7
100
AcDbLine
 10
46.8713775438
 20
413.9287055237
 30
0.0
 11
46.3078566159
 21
410.7328195299
 31
0.0
  0
ARC
  5
20B
330
77
100
AcDbEntity
  8
410052031__BOX_0
  6
Continuous
 62
     7
100
AcDbCircle
 10
60.7808797544
 20
415.7221320335
 30
0.0
 40
0.3337078394181528
100
AcDbArc
 50
192.5
 51
275.8620228866
  0
LINE
  5
20C
330
77
100
AcDbEntity
  8
410052031__BOX_0
  6
Continuous
 62
     7
100
AcDbLine
 10
60.4550821232
 20
415.6499044376
 30
0.0
 11
59.1788518544
 21
421.4066071637
 31
0.0
  0
ARC
  5
20D
330
77
100
AcDbEntity
  8
410052031__BOX_0
  6
Continuous
 62
     7
100
AcDbCircle
 10
59.666999858
 20
421.5148269707
 30
0.0
 40
0.4999999999999993
100
AcDbArc
 50
116.5951720984
 51
192.5
  0
ARC
  5
20E
330
77
100
AcDbEntity
  8
410052031__BOX_0
  6
Continuous
 62
     7
100
AcDbCircle
 10
56.45
 20
427.9403795343
 30
0.0
 40
6.685875996344008
100
AcDbArc
 50
296.5951720984
 51
327.9748079864
  0
ARC
  5
20F
330
77
100
AcDbEntity
  8
410052031__BOX_0
  6
Continuous
 62
     7
100
AcDbCircle
 10
62.9662010915
 20
423.8646203209
 30
0.0
 40
1.000000000000004
100
AcDbArc
 50
35.0
 51
147.9748079864
  0
LINE
  5
210
330
77
100
AcDbEntity
  8
410052031__BOX_0
  6
Continuous
 62
     7
100
AcDbLine
 10
63.7853531358
 20
424.4381967572
 30
0.0
 11
68.893608408
 21
417.1428521723
 31
0.0
  0
ARC
  5
211
330
77
100
AcDbEntity
  8
410052031__BOX_0
  6
Continuous
 62
     7
100
AcDbCircle
 10
68.0744563637
 20
416.569275736
 30
0.0
 40
1.0
100
AcDbArc
 50
267.0067598895
 51
35.0
  0
ARC
  5
212
330
77
100
AcDbEntity
  8
410052031__BOX_0
  6
Continuous
 62
     7
100
AcDbCircle
 10
65.5839664513
 20
368.9403795344
 30
0.0
 40
46.69396495767359
100
AcDbArc
 50
87.0067598895
 51
95.8620228866
  0
CIRCLE
  5
213
330
77
100
AcDbEntity
  8
410052031__BOX_0
  6
Continuous
 62
     7
100
AcDbCircle
 10
39.9545816511
 20
411.8703903363
 30
0.0
 40
2.2
  0
CIRCLE
  5
214
330
77
100
AcDbEntity
  8
410052031__BOX_0
  6
Continuous
 62
     7
100
AcDbCircle
 10
32.7353997644
 20
425.2457915418
 30
0.0
 40
2.2
  0
LINE
  5
215
330
77
100
AcDbEntity
  8
410052031__BOX_0
  6
Continuous
 62
     7
100
AcDbLine
 10
40.5035740855
 20
424.474219792
 30
0.0
 11
51.777335593
 21
412.384590707
 31
0.0
  0
LINE
  5
216
330
77
100
AcDbEntity
  8
410052031__BOX_0
  6
Continuous
 62
     7
100
AcDbLine
 10
51.777335593
 20
412.384590707
 30
0.0
 11
51.794604299
 21
412.3660722871
 31
0.0
  0
ARC
  5
217
330
77
100
AcDbEntity
  8
410052031__BOX_0
  6
Continuous
 62
     7
100
AcDbCircle
 10
41.2349277871
 20
425.156218152
 30
0.0
 40
0.9999999999999959
100
AcDbArc
 50
179.3962032728
 51
223.0
  0
ARC
  5
218
330
77
100
AcDbEntity
  8
410052031__BOX_0
  6
Continuous
 62
     7
100
AcDbCircle
 10
32.7353997644
 20
425.2457915418
 30
0.0
 40
7.499999999999992
100
AcDbArc
 50
359.3962032728
 51
238.8045001714
  0
ARC
  5
219
330
77
100
AcDbEntity
  8
410052031__BOX_0
  6
Continuous
 62
     7
100
AcDbCircle
 10
28.3327412514
 20
417.9748495108
 30
0.0
 40
1.000000000000003
100
AcDbArc
 50
15.0
 51
58.8045001714
  0
LINE
  5
21A
330
77
100
AcDbEntity
  8
410052031__BOX_0
  6
Continuous
 62
     7
100
AcDbLine
 10
33.8161920484
 20
401.3740358406
 30
0.0
 11
33.645482977
 21
402.0111307684
 31
0.0
  0
LINE
  5
21B
330
77
100
AcDbEntity
  8
410052031__BOX_0
  6
Continuous
 62
     7
100
AcDbLine
 10
33.645482977
 20
402.0111307684
 30
0.0
 11
29.2986670777
 21
418.2336685559
 31
0.0
  0
CIRCLE
  5
21C
330
77
100
AcDbEntity
  8
410052031__BOX_0
  6
Continuous
 62
     7
100
AcDbCircle
 10
17.45
 20
400.9403795343
 30
0.0
 40
4.0
  0
LINE
  5
21D
330
77
100
AcDbEntity
  8
410052031__BOX_0
  6
Continuous
 62
     7
100
AcDbLine
 10
37.9656423195
 20
406.1722322692
 30
0.0
 11
35.0873739727
 21
406.4240481202
 31
0.0
  0
LINE
  5
21E
330
77
100
AcDbEntity
  8
410052031__BOX_0
  6
Continuous
 62
     7
100
AcDbLine
 10
32.4000476439
 20
406.6591587091
 30
0.0
 11
18.0600901992
 21
407.913742421
 31
0.0
  0
ARC
  5
21F
330
77
100
AcDbEntity
  8
410052031__BOX_0
  6
Continuous
 62
     7
100
AcDbCircle
 10
17.45
 20
400.9403795343
 30
0.0
 40
7.000000000000003
100
AcDbArc
 50
85.0
 51
220.0
  0
LINE
  5
220
330
77
100
AcDbEntity
  8
410052031__BOX_0
  6
Continuous
 62
     7
100
AcDbLine
 10
12.0876888982
 20
396.4408662665
 30
0.0
 11
21.8469263426
 21
384.8102599812
 31
0.0
  0
ARC
  5
221
330
77
100
AcDbEntity
  8
410052031__BOX_0
  6
Continuous
 62
     7
100
AcDbCircle
 10
21.0808818995
 20
384.1674723715
 30
0.0
 40
1.000000000000004
100
AcDbArc
 50
18.0552334615
 51
40.0
  0
ARC
  5
222
330
77
100
AcDbEntity
  8
410052031__BOX_0
  6
Continuous
 62
     7
100
AcDbCircle
 10
52.5259580006
 20
413.0480706471
 30
0.0
 40
0.9999999999997164
100
AcDbArc
 50
223.0
 51
286.4912998914
  0
ARC
  5
223
330
77
100
AcDbEntity
  8
410052031__BOX_0
  6
Continuous
 62
     7
100
AcDbCircle
 10
32.7353997644
 20
425.2457915418
 30
0.0
 40
7.534906806565605
100
AcDbArc
 50
313.8855044718
 51
323.9428328481
  0
SPLINE
  5
224
330
77
100
AcDbEntity
  8
410052031__BOX_0
  6
Continuous
 62
     7
100
AcDbSpline
210
0.0
220
0.0
230
1.0
 70
     8
 71
     3
 72
    10
 73
     6
 74
     0
 42
0.0000000075604253
 43
0.0000000001
 40
0.0
 40
0.0
 40
0.0
 40
0.0
 40
0.5
 40
0.5
 40
1.0
 40
1.0
 40
1.0
 40
1.0
 10
37.95874417237307
 20
419.8151844136857
 30
0.0
 10
37.80120815210839
 20
419.6636608600402
 30
0.0
 10
37.69775872409458
 20
419.4644435287447
 30
0.0
 10
37.63031279544671
 20
419.0342837743997
 30
0.0
 10
37.66814440860111
 20
418.8118509424954
 30
0.0
 10
37.77196285097688
 20
418.6195004322707
 30
0.0
  0
LINE
  5
225
330
77
100
AcDbEntity
  8
410052031__BOX_0
  6
Continuous
 62
     7
100
AcDbLine
 10
37.771962851
 20
418.6195004323
 30
0.0
 11
38.4323041444
 21
417.3960474329
 31
0.0
  0
SPLINE
  5
226
330
77
100
AcDbEntity
  8
410052031__BOX_0
  6
Continuous
 62
     7
100
AcDbSpline
210
0.0
220
0.0
230
1.0
 70
     8
 71
     3
 72
    10
 73
     6
 74
     0
 42
0.0000000083357934
 43
0.0000000001
 40
0.0
 40
0.0
 40
0.0
 40
0.0
 40
0.5
 40
0.5
 40
1.0
 40
1.0
 40
1.0
 40
1.0
 10
38.43230414441594
 20
417.3960474328927
 30
0.0
 10
38.52671293315488
 20
417.2211307392104
 30
0.0
 10
38.67171131167041
 20
417.078358405803
 30
0.0
 10
39.01954943577827
 20
416.8948205956471
 30
0.0
 10
39.22108610506196
 20
416.8555462724257
 30
0.0
 10
39.41872556724661
 20
416.8767008349015
 30
0.0
  0
ARC
  5
227
330
77
100
AcDbEntity
  8
410052031__BOX_0
  6
Continuous
 62
     7
100
AcDbCircle
 10
39.9545816511
 20
411.8703903363
 30
0.0
 40
5.03490680656561
100
AcDbArc
 50
358.0778100811
 51
96.109457686
  0
SPLINE
  5
228
330
77
100
AcDbEntity
  8
410052031__BOX_0
  6
Continuous
 62
     7
100
AcDbSpline
210
0.0
220
0.0
230
1.0
 70
     8
 71
     3
 72
    22
 73
    18
 74
     0
 42
0.0000000049266955
 43
0.0000000001
 40
0.0
 40
0.0
 40
0.0
 40
0.0
 40
0.125
 40
0.125
 40
0.25
 40
0.25
 40
0.375
 40
0.375
 40
0.5
 40
0.5
 40
0.625
 40
0.625
 40
0.75
 40
0.75
 40
0.875
 40
0.875
 40
1.0
 40
1.0
 40
1.0
 40
1.0
 10
44.98665531765916
 20
411.7015082329142
 30
0.0
 10
44.98379893751265
 20
411.6163984727481
 30
0.0
 10
44.991700677912
 20
411.5327514093491
 30
0.0
 10
45.0283375426495
 20
411.3682898333862
 30
0.0
 10
45.05746675137549
 20
411.2875636088427
 30
0.0
 10
45.13388461595499
 20
411.1380643503084
 30
0.0
 10
45.18225612594135
 20
411.0671732383443
 30
0.0
 10
45.29410081711925
 20
410.9411560562189
 30
0.0
 10
45.35727425014478
 20
410.8857597890106
 30
0.0
 10
45.49858993841171
 20
410.7906989441516
 30
0.0
 10
45.57371012694631
 20
410.7530666784538
 30
0.0
 10
45.73259214394974
 20
410.6969706151993
 30
0.0
 10
45.81648568470451
 20
410.6788884104899
 30
0.0
 10
45.9837625581386
 20
410.6644578699973
 30
0.0
 10
46.06951615984628
 20
410.6679057098821
 30
0.0
 10
46.23565351872398
 20
410.6959612601825
 30
0.0
 10
46.31610857402702
 20
410.7201709755944
 30
0.0
 10
46.39386417650752
 20
410.7548969955515
 30
0.0
  0
ARC
  5
229
330
77
100
AcDbEntity
  8
410052031__BOX_0
  6
Continuous
 62
     7
100
AcDbCircle
 10
67.20513131
 20
364.1560464405
 30
0.0
 40
51.03490680656562
100
AcDbArc
 50
112.675397208
 51
114.065764835
  0
SPLINE
  5
22A
330
77
100
AcDbEntity
  8
410052031__BOX_0
  6
Continuous
 62
     7
100
AcDbSpline
210
0.0
220
0.0
230
1.0
 70
     8
 71
     3
 72
    16
 73
    12
 74
     0
 42
0.000000005153215
 43
0.0000000001
 40
0.0
 40
0.0
 40
0.0
 40
0.0
 40
0.1249999999999974
 40
0.1249999999999974
 40
0.2499999999999948
 40
0.2499999999999948
 40
0.4999999999999966
 40
0.4999999999999966
 40
0.7499999999999982
 40
0.7499999999999982
 40
1.0
 40
1.0
 40
1.0
 40
1.0
 10
47.53067106466116
 20
411.2461444103309
 30
0.0
 10
47.60536535597955
 20
411.2773520299464
 30
0.0
 10
47.67480323610287
 20
411.316861572116
 30
0.0
 10
47.80352953311953
 20
411.4119106157893
 30
0.0
 10
47.86291851294718
 20
411.46799165755
 30
0.0
 10
48.01606389836757
 20
411.6521054992737
 30
0.0
 10
48.08853732488815
 20
411.800227303115
 30
0.0
 10
48.15653262081337
 20
412.1144177670199
 30
0.0
 10
48.15178429626954
 20
412.2798477828056
 30
0.0
 10
48.06685143621386
 20
412.5884748605233
 30
0.0
 10
47.98692925820801
 20
412.7324227707373
 30
0.0
 10
47.87651160494055
 20
412.8508312071357
 30
0.0
  0
LINE
  5
22B
330
77
100
AcDbEntity
  8
410052031__BOX_0
  6
Continuous
 62
     7
100
AcDbLine
 10
47.8765116049
 20
412.8508312071
 30
0.0
 11
40.3666145942
 21
420.904209777
 31
0.0
  0
SPLINE
  5
22C
330
77
100
AcDbEntity
  8
410052031__BOX_0
  6
Continuous
 62
     7
100
AcDbSpline
210
0.0
220
0.0
230
1.0
 70
     8
 71
     3
 72
    16
 73
    12
 74
     0
 42
0.0000000056391942
 43
0.0000000001
 40
0.0
 40
0.0
 40
0.0
 40
0.0
 40
0.125
 40
0.125
 40
0.25
 40
0.25
 40
0.5
 40
0.5
 40
0.75
 40
0.75
 40
1.0
 40
1.0
 40
1.0
 40
1.0
 10
40.36661459420013
 20
420.9042097769616
 30
0.0
 10
40.31609019560241
 20
420.9583905611107
 30
0.0
 10
40.26056327083246
 20
421.0060129494557
 30
0.0
 10
40.13988643251897
 20
421.0886418262939
 30
0.0
 10
40.07393894215617
 20
421.1238318905791
 30
0.0
 10
39.87001766056922
 20
421.2052258458997
 30
0.0
 10
39.7211218215828
 20
421.2291835327129
 30
0.0
 10
39.4293241100514
 20
421.2116307905421
 30
0.0
 10
39.28499039323625
 20
421.1703996521474
 30
0.0
 10
39.02614481088892
 20
421.0288831848944
 30
0.0
 10
38.91405462607385
 20
420.9305861265804
 30
0.0
 10
38.82684542412447
 20
420.8108044664145
 30
0.0
  0
ARC
  5
22D
330
77
100
AcDbEntity
  8
410052031__BOX_0
  6
Continuous
 62
     7
100
AcDbCircle
 10
39.9545816511
 20
411.8703903363
 30
0.0
 40
5.034906806565614
100
AcDbArc
 50
140.6051857986
 51
241.3851729156
  0
SPLINE
  5
22E
330
77
100
AcDbEntity
  8
410052031__BOX_0
  6
Continuous
 62
     7
100
AcDbSpline
210
0.0
220
0.0
230
1.0
 70
     8
 71
     3
 72
    10
 73
     6
 74
     0
 42
0.0000000083357934
 43
0.0000000001
 40
0.0
 40
0.0
 40
0.0
 40
0.0
 40
0.5
 40
0.5
 40
1.0
 40
1.0
 40
1.0
 40
1.0
 10
36.06365088784234
 20
415.0658471654032
 30
0.0
 10
36.1898013417722
 20
415.2194535848432
 30
0.0
 10
36.26704650187901
 20
415.4077131243062
 30
0.0
 10
36.30522434680334
 20
415.7991463120875
 30
0.0
 10
36.26527025066826
 20
416.0005493203383
 30
0.0
 10
36.17086145785959
 20
416.1754660215609
 30
0.0
  0
LINE
  5
22F
330
77
100
AcDbEntity
  8
410052031__BOX_0
  6
Continuous
 62
     7
100
AcDbLine
 10
36.1708614579
 20
416.1754660216
 30
0.0
 11
35.5105201644
 21
417.3989190209
 31
0.0
  0
SPLINE
  5
230
330
77
100
AcDbEntity
  8
410052031__BOX_0
  6
Continuous
 62
     7
100
AcDbSpline
210
0.0
220
0.0
230
1.0
 70
     8
 71
     3
 72
    10
 73
     6
 74
     0
 42
0.0000000075604253
 43
0.0000000001
 40
0.0
 40
0.0
 40
0.0
 40
0.0
 40
0.5
 40
0.5
 40
1.0
 40
1.0
 40
1.0
 40
1.0
 10
35.51052016442053
 20
417.3989190209389
 30
0.0
 10
35.40670172505521
 20
417.5912695255859
 30
0.0
 10
35.24245073606614
 20
417.7442758714053
 30
0.0
 10
34.84604839859047
 20
417.9244190211311
 30
0.0
 10
34.6216066230888
 20
417.9475163169151
 30
0.0
 10
34.40848364287264
 20
417.8989819675862
 30
0.0
  0
ARC
  5
231
330
77
100
AcDbEntity
  8
410052031__BOX_0
  6
Continuous
 62
     7
100
AcDbCircle
 10
32.7353997644
 20
425.2457915418
 30
0.0
 40
7.5349068065656
100
AcDbArc
 50
274.1977975116
 51
282.8291390128
  0
SPLINE
  5
232
330
77
100
AcDbEntity
  8
410052031__BOX_0
  6
Continuous
 62
     7
100
AcDbSpline
210
0.0
220
0.0
230
1.0
 70
     8
 71
     3
 72
    16
 73
    12
 74
     0
 42
0.0000000056471689
 43
0.0000000001
 40
0.0
 40
0.0
 40
0.0
 40
0.0
 40
0.1249999999999961
 40
0.1249999999999961
 40
0.2499999999999922
 40
0.2499999999999922
 40
0.4999999999999948
 40
0.4999999999999948
 40
0.7499999999999973
 40
0.7499999999999973
 40
1.0
 40
1.0
 40
1.0
 40
1.0
 10
33.2869538850065
 20
417.7310986913796
 30
0.0
 10
33.21317188740571
 20
417.7256833316821
 30
0.0
 10
33.14136079203019
 20
417.7122815824057
 30
0.0
 10
33.00152970314648
 20
417.6701159740248
 30
0.0
 10
32.93286386728852
 20
417.6408463815762
 30
0.0
 10
32.74183977093207
 20
417.5331926953167
 30
0.0
 10
32.62993550122285
 20
417.4324124316244
 30
0.0
 10
32.46071713117735
 20
417.1945562955219
 30
0.0
 10
32.40227416663759
 20
417.0564977060293
 30
0.0
 10
32.34991169979583
 20
416.7666681676287
 30
0.0
 10
32.35594130774321
 20
416.6178936033787
 30
0.0
 10
32.39423641645724
 20
416.4749743119763
 30
0.0
  0
LINE
  5
233
330
77
100
AcDbEntity
  8
410052031__BOX_0
  6
Continuous
 62
     7
100
AcDbLine
 10
32.3942364165
 20
416.474974312
 30
0.0
 11
35.2766454124
 21
405.717677491
 31
0.0
  0
SPLINE
  5
234
330
77
100
AcDbEntity
  8
410052031__BOX_0
  6
Continuous
 62
     7
100
AcDbSpline
210
0.0
220
0.0
230
1.0
 70
     8
 71
     3
 72
    16
 73
    12
 74
     0
 42
0.0000000050973374
 43
0.0000000001
 40
0.0
 40
0.0
 40
0.0
 40
0.0
 40
0.1250000000000057
 40
0.1250000000000057
 40
0.2500000000000114
 40
0.2500000000000114
 40
0.5000000000000077
 40
0.5000000000000077
 40
0.7500000000000039
 40
0.7500000000000039
 40
1.0
 40
1.0
 40
1.0
 40
1.0
 10
35.27664541237338
 20
405.7176774910237
 30
0.0
 10
35.29782480464543
 20
405.6386349229909
 30
0.0
 10
35.32812598635888
 20
405.5637811189113
 30
0.0
 10
35.40635144708184
 20
405.4221661109124
 30
0.0
 10
35.4547705119792
 20
405.3553014505223
 30
0.0
 10
35.61944658039196
 20
405.1778968909509
 30
0.0
 10
35.75871790701309
 20
405.0863506672458
 30
0.0
 10
36.0658375814536
 20
404.9788824706894
 30
0.0
 10
36.23241438577939
 20
404.9635735226228
 30
0.0
 10
36.5520131863381
 20
405.0119500517446
 30
0.0
 10
36.70605609154178
 20
405.075417265984
 30
0.0
 10
36.83759107501207
 20
405.1728017098926
 30
0.0
  0
ARC
  5
235
330
77
100
AcDbEntity
  8
410052031__BOX_0
  6
Continuous
 62
     7
100
AcDbCircle
 10
67.20513131
 20
364.1560464405
 30
0.0
 40
51.03490680656562
100
AcDbArc
 50
125.3972181617
 51
126.515105507
  0
SPLINE
  5
236
330
77
100
AcDbEntity
  8
410052031__BOX_0
  6
Continuous
 62
     7
100
AcDbSpline
210
0.0
220
0.0
230
1.0
 70
     8
 71
     3
 72
    22
 73
    18
 74
     0
 42
0.0000000049266955
 43
0.0000000001
 40
0.0
 40
0.0
 40
0.0
 40
0.0
 40
0.125
 40
0.125
 40
0.25
 40
0.25
 40
0.375
 40
0.375
 40
0.5
 40
0.5
 40
0.625
 40
0.625
 40
0.75
 40
0.75
 40
0.875
 40
0.875
 40
1.0
 40
1.0
 40
1.0
 40
1.0
 10
37.64359047124601
 20
405.7574528589325
 30
0.0
 10
37.71300725690604
 20
405.8067797284029
 30
0.0
 10
37.77473861167722
 20
405.8637754173162
 30
0.0
 10
37.88331828177931
 20
405.9926176660801
 30
0.0
 10
37.92985746771598
 20
406.0647241033959
 30
0.0
 10
38.00242054083677
 20
406.2161318929865
 30
0.0
 10
38.02947237921931
 20
406.2975785060162
 30
0.0
 10
38.06188311384494
 20
406.4629239305562
 30
0.0
 10
38.06763861386776
 20
406.5467481709651
 30
0.0
 10
38.05756373648791
 20
406.716763419757
 30
0.0
 10
38.0419492776597
 20
406.7993189696763
 30
0.0
 10
37.99023722571138
 20
406.9596814569433
 30
0.0
 10
37.95375631234315
 20
407.0373617972332
 30
0.0
 10
37.86381954916295
 20
407.1791403975701
 30
0.0
 10
37.80908880021943
 20
407.2452472272151
 30
0.0
 10
37.68605504115021
 20
407.3603620831076
 30
0.0
 10
37.61802531873101
 20
407.4096680980732
 30
0.0
 10
37.54326887847179
 20
407.4504517322771
 30
0.0
  0
CIRCLE
  5
237
330
77
100
AcDbEntity
  8
410052031__BOX_0
  6
Continuous
 62
     7
100
AcDbCircle
 10
56.45
 20
427.9403795343
 30
0.0
 40
4.0
  0
ARC
  5
238
330
77
100
AcDbEntity
  8
410052031__BOX_0
  6
Continuous
 62
     7
100
AcDbCircle
 10
63.8277278335
 20
368.0557913289
 30
0.0
 40
43.0
100
AcDbArc
 50
115.811005109
 51
156.6607525689
  0
ARC
  5
239
330
77
100
AcDbEntity
  8
410052031__BOX_0
  6
Continuous
 62
     7
100
AcDbCircle
 10
30.9653546616
 20
402.1419463044
 30
0.0
 40
0.9999999999999927
100
AcDbArc
 50
313.6523929935
 51
85.0
  0
LINE
  5
23A
330
77
100
AcDbEntity
  8
410052031__BOX_0
  6
Continuous
 62
     7
100
AcDbLine
 10
31.0525104044
 20
403.1381410025
 30
0.0
 11
26.133165465
 21
403.5685279167
 31
0.0
  0
ARC
  5
23B
330
77
100
AcDbEntity
  8
410052031__BOX_0
  6
Continuous
 62
     7
100
AcDbCircle
 10
26.0460097222
 20
402.5723332186
 30
0.0
 40
1.000000000000005
100
AcDbArc
 50
85.0
 51
187.3892450264
  0
ARC
  5
23C
330
77
100
AcDbEntity
  8
410052031__BOX_0
  6
Continuous
 62
     7
100
AcDbCircle
 10
18.1124471535
 20
401.5434576345
 30
0.0
 40
6.999999999999996
100
AcDbArc
 50
340.9933988215
 51
7.3892450264
  0
ARC
  5
23D
330
77
100
AcDbEntity
  8
410052031__BOX_0
  6
Continuous
 62
     7
100
AcDbCircle
 10
25.2035551025
 20
399.100879477
 30
0.0
 40
0.4999999999959233
100
AcDbArc
 50
160.9933988215
 51
237.5
  0
LINE
  5
23E
330
77
100
AcDbEntity
  8
410052031__BOX_0
  6
Continuous
 62
     7
100
AcDbLine
 10
24.9349052983
 20
398.6791837541
 30
0.0
 11
26.8109712743
 21
397.4839979135
 31
0.0
  0
ARC
  5
23F
330
77
100
AcDbEntity
  8
410052031__BOX_0
  6
Continuous
 62
     7
100
AcDbCircle
 10
27.3482708827
 20
398.3273893593
 30
0.0
 40
1.000000000000005
100
AcDbArc
 50
237.5
 51
319.3918115447
  0
ARC
  5
240
330
77
100
AcDbEntity
  8
410052031__BOX_0
  6
Continuous
 62
     7
100
AcDbCircle
 10
67.20513131
 20
364.1560464405
 30
0.0
 40
51.50000000000001
100
AcDbArc
 50
133.6523929935
 51
139.3918115447
  0
ARC
  5
241
330
77
100
AcDbEntity
  8
410052031__BOX_0
  6
Continuous
 62
     7
100
AcDbCircle
 10
65.5839664513
 20
368.9403795344
 30
0.0
 40
46.69396495767378
100
AcDbArc
 50
100.5745414312
 51
107.7954035498
  0
ARC
  5
242
330
77
100
AcDbEntity
  8
410052031__BOX_0
  6
Continuous
 62
     7
100
AcDbCircle
 10
56.8314285486
 20
415.8243573269
 30
0.0
 40
0.9999999999999931
100
AcDbArc
 50
280.5745414312
 51
12.5
  0
LINE
  5
243
330
77
100
AcDbEntity
  8
410052031__BOX_0
  6
Continuous
 62
     7
100
AcDbLine
 10
57.8077245558
 20
416.0407969408
 30
0.0
 11
56.7381118366
 21
420.8655081288
 31
0.0
  0
ARC
  5
244
330
77
100
AcDbEntity
  8
410052031__BOX_0
  6
Continuous
 62
     7
100
AcDbCircle
 10
56.249963833
 20
420.7572883219
 30
0.0
 40
0.4999999999929066
100
AcDbArc
 50
12.5
 51
88.4048279016
  0
ARC
  5
245
330
77
100
AcDbEntity
  8
410052031__BOX_0
  6
Continuous
 62
     7
100
AcDbCircle
 10
56.45
 20
427.9403795343
 30
0.0
 40
6.685875996344013
100
AcDbArc
 50
237.0251920137
 51
268.4048279016
  0
ARC
  5
246
330
77
100
AcDbEntity
  8
410052031__BOX_0
  6
Continuous
 62
     7
100
AcDbCircle
 10
52.266806483
 20
421.4926216426
 30
0.0
 40
0.9999999999999948
100
AcDbArc
 50
57.0251920137
 51
170.0
  0
LINE
  5
247
330
77
100
AcDbEntity
  8
410052031__BOX_0
  6
Continuous
 62
     7
100
AcDbLine
 10
51.2819987299
 20
421.6662698203
 30
0.0
 11
50.0229805839
 21
414.5260230983
 31
0.0
  0
ARC
  5
248
330
77
100
AcDbEntity
  8
410052031__BOX_0
  6
Continuous
 62
     7
100
AcDbCircle
 10
51.007788337
 20
414.3523749207
 30
0.0
 40
1.000000000000004
100
AcDbArc
 50
170.0
 51
184.1887002555
  0
ARC
  5
249
330
77
100
AcDbEntity
  8
410052031__BOX_0
  6
Continuous
 62
     7
100
AcDbCircle
 10
51.007788337
 20
414.3523749207
 30
0.0
 40
1.000000000000004
100
AcDbArc
 50
261.8112997445
 51
287.7954035498
  0
ARC
  5
24A
330
77
100
AcDbEntity
  8
410052031__BOX_0
  6
Continuous
 62
     7
100
AcDbCircle
 10
19.9087477201
 20
393.7477341739
 30
0.0
 40
1.000000000000007
100
AcDbArc
 50
102.9756871629
 51
220.0
  0
LINE
  5
24B
330
77
100
AcDbEntity
  8
410052031__BOX_0
  6
Continuous
 62
     7
100
AcDbLine
 10
19.142703277
 20
393.1049465642
 30
0.0
 11
21.4618029459
 21
390.3411512023
 31
0.0
  0
ARC
  5
24C
330
77
100
AcDbEntity
  8
410052031__BOX_0
  6
Continuous
 62
     7
100
AcDbCircle
 10
22.227847389
 20
390.9839388119
 30
0.0
 40
1.000000000000001
100
AcDbArc
 50
220.0
 51
331.1382489441
  0
ARC
  5
24D
330
77
100
AcDbEntity
  8
410052031__BOX_0
  6
Continuous
 62
     7
100
AcDbCircle
 10
63.8277278335
 20
368.0557913289
 30
0.0
 40
46.5
100
AcDbArc
 50
145.7743413721
 51
151.1382489441
  0
ARC
  5
24E
330
77
100
AcDbEntity
  8
410052031__BOX_0
  6
Continuous
 62
     7
100
AcDbCircle
 10
24.5533610242
 20
394.7723425983
 30
0.0
 40
0.9999999999999963
100
AcDbArc
 50
325.7743413721
 51
57.5
  0
LINE
  5
24F
330
77
100
AcDbEntity
  8
410052031__BOX_0
  6
Continuous
 62
     7
100
AcDbLine
 10
25.0906606326
 20
395.6157340441
 30
0.0
 11
23.5916562775
 21
396.5707051396
 31
0.0
  0
ARC
  5
250
330
77
100
AcDbEntity
  8
410052031__BOX_0
  6
Continuous
 62
     7
100
AcDbCircle
 10
23.3230064733
 20
396.1490094167
 30
0.0
 40
0.5000000000019649
100
AcDbArc
 50
57.5
 51
134.0066011784
  0
ARC
  5
251
330
77
100
AcDbEntity
  8
410052031__BOX_0
  6
Continuous
 62
     7
100
AcDbCircle
 10
18.1124471535
 20
401.5434576345
 30
0.0
 40
6.999999999999997
100
AcDbArc
 50
282.9756871629
 51
314.0066011784
  0
LINE
  5
252
330
77
100
AcDbEntity
  8
410052031__BOX_0
  6
Continuous
 62
     7
100
AcDbLine
 10
81.45
 20
411.9403795343
 30
0.0
 11
81.45
 21
412.9403795343
 31
0.0
  0
LINE
  5
253
330
77
100
AcDbEntity
  8
410052031__BOX_0
  6
Continuous
 62
     7
100
AcDbLine
 10
18.5745839942
 20
365.9403795343
 30
0.0
 11
18.0589243189
 21
365.9403795343
 31
0.0
  0
LINE
  5
254
330
77
100
AcDbEntity
  8
410052031__BOX_0
  6
Continuous
 62
     7
100
AcDbLine
 10
18.4962021126
 20
359.8027098166
 30
0.0
 11
17.9810925778
 21
359.8027098166
 31
0.0
  0
LINE
  5
255
330
77
100
AcDbEntity
  8
410052031__BOX_0
  6
Continuous
 62
     7
100
AcDbLine
 10
18.5185233677
 20
364.7378738135
 30
0.0
 11
18.0032572854
 21
364.7378738135
 31
0.0
  0
LINE
  5
256
330
77
100
AcDbEntity
  8
410052031__BOX_0
  6
Continuous
 62
     7
100
AcDbLine
 10
18.9795029539
 20
353.2885984512
 30
0.0
 11
18.460982513
 21
353.2885984512
 31
0.0
  0
LINE
  5
257
330
77
100
AcDbEntity
  8
410052031__BOX_0
  6
Continuous
 62
     7
100
AcDbLine
 10
18.559387776
 20
358.2275763307
 30
0.0
 11
18.0438348502
 21
358.2275763307
 31
0.0
  0
LINE
  5
258
330
77
100
AcDbEntity
  8
410052031__BOX_0
  6
Continuous
 62
     7
100
AcDbLine
 10
164.4037197306
 20
359.8000441685
 30
0.0
 11
164.9188298134
 21
359.8000441685
 31
0.0
  0
LINE
  5
259
330
77
100
AcDbEntity
  8
410052031__BOX_0
  6
Continuous
 62
     7
100
AcDbLine
 10
163.918494751
 20
353.271842949
 30
0.0
 11
164.4370294169
 21
353.271842949
 31
0.0
  0
LINE
  5
25A
330
77
100
AcDbEntity
  8
410052031__BOX_0
  6
Continuous
 62
     7
100
AcDbLine
 10
164.3399540982
 20
358.2146783148
 30
0.0
 11
164.8555116463
 21
358.2146783148
 31
0.0
  0
ARC
  5
25B
330
77
100
AcDbEntity
  8
410052031__BOX_0
  6
Continuous
 62
     7
100
AcDbCircle
 10
91.45
 20
361.9403795343
 30
0.0
 40
73.49999992943728
100
AcDbArc
 50
3.1196790099
 51
3.431991344
  0
ARC
  5
25C
330
77
100
AcDbEntity
  8
410052031__BOX_0
  6
Continuous
 62
     7
100
AcDbCircle
 10
91.4500739384
 20
361.940396757
 30
0.0
 40
73.4999268303278
100
AcDbArc
 50
3.4272731325
 51
7.2967211072
  0
ARC
  5
25D
330
77
100
AcDbEntity
  8
410052031__BOX_0
  6
Continuous
 62
     7
100
AcDbCircle
 10
91.45
 20
361.9403795343
 30
0.0
 40
73.49999992946195
100
AcDbArc
 50
358.3312990247
 51
2.1851749012
  0
ARC
  5
25E
330
77
100
AcDbEntity
  8
410052031__BOX_0
  6
Continuous
 62
     7
100
AcDbCircle
 10
91.45
 20
361.9403795343
 30
0.0
 40
73.49999992946195
100
AcDbArc
 50
353.2268129313
 51
357.0944424848
  0
ARC
  5
25F
330
77
100
AcDbEntity
  8
410052031__BOX_0
  6
Continuous
 62
     7
100
AcDbCircle
 10
91.45
 20
361.9403795343
 30
0.0
 40
73.49999992946196
100
AcDbArc
 50
172.9665386778
 51
176.8803211017
  0
ARC
  5
260
330
77
100
AcDbEntity
  8
410052031__BOX_0
  6
Continuous
 62
     7
100
AcDbCircle
 10
91.4499992187
 20
361.9403769279
 30
0.0
 40
73.49999992938525
100
AcDbArc
 50
172.679842576
 51
172.6922067529
  0
ARC
  5
261
330
77
100
AcDbEntity
  8
410052031__BOX_0
  6
Continuous
 62
     7
100
AcDbCircle
 10
91.45
 20
361.9403795343
 30
0.0
 40
73.49999992946196
100
AcDbArc
 50
172.7037407202
 51
172.9883970215
  0
ARC
  5
262
330
77
100
AcDbEntity
  8
410052031__BOX_0
  6
Continuous
 62
     7
100
AcDbCircle
 10
91.4502001711
 20
361.9403747329
 30
0.0
 40
73.500200138224
100
AcDbArc
 50
181.2951696832
 51
181.6755463636
  0
LINE
  5
263
330
77
100
AcDbEntity
  8
410052031__BOX_0
  6
Continuous
 62
     7
100
AcDbLine
 10
18.0032652498
 20
364.7380832197
 30
0.0
 11
18.0019579236
 21
364.7035488707
 31
0.0
  0
ARC
  5
264
330
77
100
AcDbEntity
  8
410052031__BOX_0
  6
Continuous
 62
     7
100
AcDbCircle
 10
91.4500000001
 20
361.9403795343
 30
0.0
 40
73.49999992953701
100
AcDbArc
 50
177.8455067041
 51
181.2948657499
  0
SPLINE
  5
265
330
77
100
AcDbEntity
  8
410052031__BOX_0
  6
Continuous
 62
     7
100
AcDbSpline
210
0.0
220
0.0
230
1.0
 70
     8
 71
     3
 72
    21
 73
    17
 74
     0
 42
0.0000000208292772
 43
0.0000000001
 40
0.0
 40
0.0
 40
0.0
 40
0.0
 40
0.0625000000000045
 40
0.0625000000000045
 40
0.1250000000000089
 40
0.1250000000000089
 40
0.187500000000013
 40
0.187500000000013
 40
0.2500000000000172
 40
0.2500000000000172
 40
0.3125000000000212
 40
0.3125000000000212
 40
0.3750000000000254
 40
0.3750000000000254
 40
0.500000000000017
 40
1.0
 40
1.0
 40
1.0
 40
1.0
 10
17.9687691546627
 20
360.2794451331236
 30
0.0
 10
17.96998287289092
 20
360.2257491477523
 30
0.0
 10
17.97124516316764
 20
360.172608027609
 30
0.0
 10
17.97368703567098
 20
360.0738689827239
 30
0.0
 10
17.97484019198983
 20
360.0292779811278
 30
0.0
 10
17.97684439693775
 20
359.9537180917355
 30
0.0
 10
17.97770789845277
 20
359.9222134592615
 30
0.0
 10
17.97919190197394
 20
359.8688925359009
 30
0.0
 10
17.97979158470428
 20
359.8478462174039
 30
0.0
 10
17.9806625889849
 20
359.8174851290788
 30
0.0
 10
17.98092414501787
 20
359.8085032909793
 30
0.0
 10
17.98113900760717
 20
359.8011114860138
 30
0.0
 10
17.98109257782157
 20
359.8027098165713
 30
0.0
 10
17.98109257782155
 20
359.8027098165713
 30
0.0
 10
17.98109257782155
 20
359.8027098165713
 30
0.0
 10
17.98109257782152
 20
359.8027098165713
 30
0.0
 10
17.98109257782157
 20
359.8027098165713
 30
0.0
  0
SPLINE
  5
266
330
77
100
AcDbEntity
  8
410052031__BOX_0
  6
Continuous
 62
     7
100
AcDbSpline
210
0.0
220
0.0
230
1.0
 70
     8
 71
     3
 72
     8
 73
     4
 74
     0
 42
0.0000001305956312
 43
0.0000000001
 40
0.1398300324496059
 40
0.1398300324496059
 40
0.1398300324496059
 40
0.1398300324496059
 40
0.1583104304580817
 40
0.1583104304580817
 40
0.1583104304580817
 40
0.1583104304580817
 10
18.06305722435736
 20
357.865257490103
 30
0.0
 10
18.06305722435736
 20
357.865257490103
 30
0.0
 10
18.06299690535917
 20
357.8663431893002
 30
0.0
 10
18.06297872286519
 20
357.8666703964695
 30
0.0
  0
SPLINE
  5
267
330
77
100
AcDbEntity
  8
410052031__BOX_0
  6
Continuous
 62
     7
100
AcDbSpline
210
0.0
220
0.0
230
1.0
 70
     8
 71
     3
 72
     8
 73
     4
 74
     0
 42
0.0000001550702222
 43
0.0000000001
 40
0.8764035672369707
 40
0.8764035672369707
 40
0.8764035672369707
 40
0.8764035672369707
 40
0.9339309470420842
 40
0.9339309470420842
 40
0.9339309470420842
 40
0.9339309470420842
 10
18.42066482637093
 20
353.6357896108785
 30
0.0
 10
18.42053268447651
 20
353.6369522932449
 30
0.0
 10
18.42024589773542
 20
353.6394756441838
 30
0.0
 10
18.42024589773542
 20
353.6394756441838
 30
0.0
  0
ARC
  5
268
330
77
100
AcDbEntity
  8
410052031__BOX_0
  6
Continuous
 62
     7
100
AcDbCircle
 10
91.45
 20
361.9403795343
 30
0.0
 40
73.49999992946195
100
AcDbArc
 50
186.493652283
 51
186.7510524419
  0
ARC
  5
269
330
77
100
AcDbEntity
  8
410052031__BOX_0
  6
Continuous
 62
     7
100
AcDbCircle
 10
91.45
 20
361.9403795343
 30
0.0
 40
73.49999992946196
100
AcDbArc
 50
182.8954901706
 51
183.1693948163
  0
ARC
  5
26A
330
77
100
AcDbEntity
  8
410052031__BOX_0
  6
Continuous
 62
     7
100
AcDbCircle
 10
91.45
 20
361.9403795343
 30
0.0
 40
73.49999992946196
100
AcDbArc
 50
183.1693948163
 51
184.4834691398
  0
ARC
  5
26B
330
77
100
AcDbEntity
  8
410052031__BOX_0
  6
Continuous
 62
     7
100
AcDbCircle
 10
91.45
 20
361.9403795343
 30
0.0
 40
73.49999992946195
100
AcDbArc
 50
184.4834691398
 51
184.7578821259
  0
ARC
  5
26C
330
77
100
AcDbEntity
  8
410052031__BOX_0
  6
Continuous
 62
     7
100
AcDbCircle
 10
91.45
 20
361.9403795343
 30
0.0
 40
73.49999992946196
100
AcDbArc
 50
184.7578821259
 51
186.493652283
  0
LINE
  5
26D
330
77
100
AcDbEntity
  8
410052031__BOX_0
  6
Continuous
 62
     7
100
AcDbLine
 10
69.2929193705
 20
411.9403795343
 30
0.0
 11
81.45
 21
411.9403795343
 31
0.0
  0
LINE
  5
26E
330
77
100
AcDbEntity
  8
410052031__BOX_0
  6
Continuous
 62
     7
100
AcDbLine
 10
68.6070806295
 20
408.0974601639
 30
0.0
 11
69.2929193705
 21
408.0974601639
 31
0.0
  0
LINE
  5
26F
330
77
100
AcDbEntity
  8
410052031__BOX_0
  6
Continuous
 62
     7
100
AcDbLine
 10
69.2929193705
 20
408.0974601639
 30
0.0
 11
69.2929193705
 21
411.9403795343
 31
0.0
  0
LINE
  5
270
330
77
100
AcDbEntity
  8
410052031__BOX_0
  6
Continuous
 62
     7
100
AcDbLine
 10
68.6070806295
 20
411.9403795343
 30
0.0
 11
68.6070806295
 21
408.0974601639
 31
0.0
  0
LINE
  5
271
330
77
100
AcDbEntity
  8
410052031__BOX_0
  6
Continuous
 62
     7
100
AcDbLine
 10
113.6070806295
 20
411.9403795343
 30
0.0
 11
101.45
 21
411.9403795343
 31
0.0
  0
LINE
  5
272
330
77
100
AcDbEntity
  8
410052031__BOX_0
  6
Continuous
 62
     7
100
AcDbLine
 10
113.6070806295
 20
408.0974601639
 30
0.0
 11
113.6070806295
 21
411.9403795343
 31
0.0
  0
LINE
  5
273
330
77
100
AcDbEntity
  8
410052031__BOX_0
  6
Continuous
 62
     7
100
AcDbLine
 10
114.2929193705
 20
408.0974601639
 30
0.0
 11
113.6070806295
 21
408.0974601639
 31
0.0
  0
LINE
  5
274
330
77
100
AcDbEntity
  8
410052031__BOX_0
  6
Continuous
 62
     7
100
AcDbLine
 10
114.2929193705
 20
411.9403795343
 30
0.0
 11
114.2929193705
 21
408.0974601639
 31
0.0
  0
LINE
  5
275
330
77
100
AcDbEntity
  8
410052031__BOX_0
  6
Continuous
 62
     7
100
AcDbLine
 10
85.2371853547
 20
414.4403795343
 30
0.0
 11
85.2371853547
 21
413.9403795343
 31
0.0
  0
LINE
  5
276
330
77
100
AcDbEntity
  8
410052031__BOX_0
  6
Continuous
 62
     7
100
AcDbLine
 10
85.2371853547
 20
414.4403795343
 30
0.0
 11
85.150268833
 21
414.4403795343
 31
0.0
  0
LINE
  5
277
330
77
100
AcDbEntity
  8
410052031__BOX_0
  6
Continuous
 62
     7
100
AcDbLine
 10
88.9442791762
 20
414.4403795343
 30
0.0
 11
88.9442791762
 21
413.9403795343
 31
0.0
  0
LINE
  5
278
330
77
100
AcDbEntity
  8
410052031__BOX_0
  6
Continuous
 62
     7
100
AcDbLine
 10
88.9442791762
 20
414.4403795343
 30
0.0
 11
88.6376830206
 21
414.4403795343
 31
0.0
  0
LINE
  5
279
330
77
100
AcDbEntity
  8
410052031__BOX_0
  6
Continuous
 62
     7
100
AcDbLine
 10
94.5654930355
 20
414.4403795343
 30
0.0
 11
94.5094965675
 21
414.4403795343
 31
0.0
  0
LINE
  5
27A
330
77
100
AcDbEntity
  8
410052031__BOX_0
  6
Continuous
 62
     7
100
AcDbLine
 10
94.5094965675
 20
414.4403795343
 30
0.0
 11
94.5094965675
 21
413.9403795343
 31
0.0
  0
LINE
  5
27B
330
77
100
AcDbEntity
  8
410052031__BOX_0
  6
Continuous
 62
     7
100
AcDbLine
 10
94.5094965675
 20
414.4403795343
 30
0.0
 11
94.0884439359
 21
414.4403795343
 31
0.0
  0
LINE
  5
27C
330
77
100
AcDbEntity
  8
410052031__BOX_0
  6
Continuous
 62
     7
100
AcDbLine
 10
94.0884439359
 20
414.4403795343
 30
0.0
 11
94.0884439359
 21
413.9403795343
 31
0.0
  0
LINE
  5
27D
330
77
100
AcDbEntity
  8
410052031__BOX_0
  6
Continuous
 62
     7
100
AcDbLine
 10
94.0884439359
 20
414.4403795343
 30
0.0
 11
93.5484381693
 21
414.4403795343
 31
0.0
  0
LINE
  5
27E
330
77
100
AcDbEntity
  8
410052031__BOX_0
  6
Continuous
 62
     7
100
AcDbLine
 10
93.1273055378
 20
414.4403795343
 30
0.0
 11
92.7566361556
 21
414.4403795343
 31
0.0
  0
LINE
  5
27F
330
77
100
AcDbEntity
  8
410052031__BOX_0
  6
Continuous
 62
     7
100
AcDbLine
 10
92.7566361556
 20
414.4403795343
 30
0.0
 11
92.7566361556
 21
413.9403795343
 31
0.0
  0
LINE
  5
280
330
77
100
AcDbEntity
  8
410052031__BOX_0
  6
Continuous
 62
     7
100
AcDbLine
 10
85.150228833
 20
414.4403795343
 30
0.0
 11
85.150228833
 21
413.9403795343
 31
0.0
  0
LINE
  5
281
330
77
100
AcDbEntity
  8
410052031__BOX_0
  6
Continuous
 62
     7
100
AcDbLine
 10
85.150228833
 20
414.4403795343
 30
0.0
 11
84.7429061785
 21
414.4403795343
 31
0.0
  0
LINE
  5
282
330
77
100
AcDbEntity
  8
410052031__BOX_0
  6
Continuous
 62
     7
100
AcDbLine
 10
84.7429061785
 20
414.4403795343
 30
0.0
 11
84.7429061785
 21
413.9403795343
 31
0.0
  0
LINE
  5
283
330
77
100
AcDbEntity
  8
410052031__BOX_0
  6
Continuous
 62
     7
100
AcDbLine
 10
84.7429061785
 20
414.4403795343
 30
0.0
 11
84.3172768879
 21
414.4403795343
 31
0.0
  0
LINE
  5
284
330
77
100
AcDbEntity
  8
410052031__BOX_0
  6
Continuous
 62
     7
100
AcDbLine
 10
84.3172768879
 20
414.4403795343
 30
0.0
 11
84.3172768879
 21
413.9403795343
 31
0.0
  0
LINE
  5
285
330
77
100
AcDbEntity
  8
410052031__BOX_0
  6
Continuous
 62
     7
100
AcDbLine
 10
84.3172768879
 20
414.4403795343
 30
0.0
 11
82.8710526316
 21
414.4403795343
 31
0.0
  0
LINE
  5
286
330
77
100
AcDbEntity
  8
410052031__BOX_0
  6
Continuous
 62
     7
100
AcDbLine
 10
82.8710526316
 20
414.4403795343
 30
0.0
 11
82.8710526316
 21
413.9403795343
 31
0.0
  0
LINE
  5
287
330
77
100
AcDbEntity
  8
410052031__BOX_0
  6
Continuous
 62
     7
100
AcDbLine
 10
82.8710526316
 20
414.4403795343
 30
0.0
 11
82.4316933638
 21
414.4403795343
 31
0.0
  0
LINE
  5
288
330
77
100
AcDbEntity
  8
410052031__BOX_0
  6
Continuous
 62
     7
100
AcDbLine
 10
82.4316933638
 20
414.4403795343
 30
0.0
 11
82.4316933638
 21
413.9403795343
 31
0.0
  0
LINE
  5
289
330
77
100
AcDbEntity
  8
410052031__BOX_0
  6
Continuous
 62
     7
100
AcDbLine
 10
82.4316933638
 20
414.4403795343
 30
0.0
 11
82.0106407323
 21
414.4403795343
 31
0.0
  0
LINE
  5
28A
330
77
100
AcDbEntity
  8
410052031__BOX_0
  6
Continuous
 62
     7
100
AcDbLine
 10
82.0106407323
 20
414.4403795343
 30
0.0
 11
82.0106407323
 21
413.9403795343
 31
0.0
  0
LINE
  5
28B
330
77
100
AcDbEntity
  8
410052031__BOX_0
  6
Continuous
 62
     7
100
AcDbLine
 10
88.6376430206
 20
414.4403795343
 30
0.0
 11
88.6376430206
 21
413.9403795343
 31
0.0
  0
LINE
  5
28C
330
77
100
AcDbEntity
  8
410052031__BOX_0
  6
Continuous
 62
     7
100
AcDbLine
 10
88.6376430206
 20
414.4403795343
 30
0.0
 11
88.1754004577
 21
414.4403795343
 31
0.0
  0
LINE
  5
28D
330
77
100
AcDbEntity
  8
410052031__BOX_0
  6
Continuous
 62
     7
100
AcDbLine
 10
88.1754004577
 20
414.4403795343
 30
0.0
 11
88.1754004577
 21
413.9403795343
 31
0.0
  0
LINE
  5
28E
330
77
100
AcDbEntity
  8
410052031__BOX_0
  6
Continuous
 62
     7
100
AcDbLine
 10
88.1754004577
 20
414.4403795343
 30
0.0
 11
86.7886727689
 21
414.4403795343
 31
0.0
  0
LINE
  5
28F
330
77
100
AcDbEntity
  8
410052031__BOX_0
  6
Continuous
 62
     7
100
AcDbLine
 10
86.7886727689
 20
414.4403795343
 30
0.0
 11
86.7886727689
 21
413.9403795343
 31
0.0
  0
LINE
  5
290
330
77
100
AcDbEntity
  8
410052031__BOX_0
  6
Continuous
 62
     7
100
AcDbLine
 10
86.7886727689
 20
414.4403795343
 30
0.0
 11
86.1479405034
 21
414.4403795343
 31
0.0
  0
LINE
  5
291
330
77
100
AcDbEntity
  8
410052031__BOX_0
  6
Continuous
 62
     7
100
AcDbLine
 10
86.1479405034
 20
414.4403795343
 30
0.0
 11
86.1479405034
 21
413.9403795343
 31
0.0
  0
LINE
  5
292
330
77
100
AcDbEntity
  8
410052031__BOX_0
  6
Continuous
 62
     7
100
AcDbLine
 10
86.1479405034
 20
414.4403795343
 30
0.0
 11
85.7131578947
 21
414.4403795343
 31
0.0
  0
LINE
  5
293
330
77
100
AcDbEntity
  8
410052031__BOX_0
  6
Continuous
 62
     7
100
AcDbLine
 10
85.7131578947
 20
414.4403795343
 30
0.0
 11
85.7131578947
 21
413.9403795343
 31
0.0
  0
LINE
  5
294
330
77
100
AcDbEntity
  8
410052031__BOX_0
  6
Continuous
 62
     7
100
AcDbLine
 10
92.2257437071
 20
414.4403795343
 30
0.0
 11
92.2257437071
 21
413.9403795343
 31
0.0
  0
LINE
  5
295
330
77
100
AcDbEntity
  8
410052031__BOX_0
  6
Continuous
 62
     7
100
AcDbLine
 10
92.2257437071
 20
414.4403795343
 30
0.0
 11
91.7589244851
 21
414.4403795343
 31
0.0
  0
LINE
  5
296
330
77
100
AcDbEntity
  8
410052031__BOX_0
  6
Continuous
 62
     7
100
AcDbLine
 10
91.7589244851
 20
414.4403795343
 30
0.0
 11
91.7589244851
 21
413.9403795343
 31
0.0
  0
LINE
  5
297
330
77
100
AcDbEntity
  8
410052031__BOX_0
  6
Continuous
 62
     7
100
AcDbLine
 10
91.7589244851
 20
414.4403795343
 30
0.0
 11
90.3767734554
 21
414.4403795343
 31
0.0
  0
LINE
  5
298
330
77
100
AcDbEntity
  8
410052031__BOX_0
  6
Continuous
 62
     7
100
AcDbLine
 10
90.3767734554
 20
414.4403795343
 30
0.0
 11
90.3767734554
 21
413.9403795343
 31
0.0
  0
LINE
  5
299
330
77
100
AcDbEntity
  8
410052031__BOX_0
  6
Continuous
 62
     7
100
AcDbLine
 10
90.3767734554
 20
414.4403795343
 30
0.0
 11
89.7314645309
 21
414.4403795343
 31
0.0
  0
LINE
  5
29A
330
77
100
AcDbEntity
  8
410052031__BOX_0
  6
Continuous
 62
     7
100
AcDbLine
 10
89.7314645309
 20
414.4403795343
 30
0.0
 11
89.7314645309
 21
413.9403795343
 31
0.0
  0
LINE
  5
29B
330
77
100
AcDbEntity
  8
410052031__BOX_0
  6
Continuous
 62
     7
100
AcDbLine
 10
89.7314645309
 20
414.4403795343
 30
0.0
 11
89.2966819222
 21
414.4403795343
 31
0.0
  0
LINE
  5
29C
330
77
100
AcDbEntity
  8
410052031__BOX_0
  6
Continuous
 62
     7
100
AcDbLine
 10
89.2966819222
 20
414.4403795343
 30
0.0
 11
89.2966819222
 21
413.9403795343
 31
0.0
  0
LINE
  5
29D
330
77
100
AcDbEntity
  8
410052031__BOX_0
  6
Continuous
 62
     7
100
AcDbLine
 10
93.5483981693
 20
414.4403795343
 30
0.0
 11
93.5483981693
 21
413.9403795343
 31
0.0
  0
LINE
  5
29E
330
77
100
AcDbEntity
  8
410052031__BOX_0
  6
Continuous
 62
     7
100
AcDbLine
 10
93.5483981693
 20
414.4403795343
 30
0.0
 11
93.1273455378
 21
414.4403795343
 31
0.0
  0
LINE
  5
29F
330
77
100
AcDbEntity
  8
410052031__BOX_0
  6
Continuous
 62
     7
100
AcDbLine
 10
93.1273455378
 20
414.4403795343
 30
0.0
 11
93.1273455378
 21
413.9403795343
 31
0.0
  0
LINE
  5
2A0
330
77
100
AcDbEntity
  8
410052031__BOX_0
  6
Continuous
 62
     7
100
AcDbLine
 10
97.3516018307
 20
414.4403795343
 30
0.0
 11
97.3516018307
 21
413.9403795343
 31
0.0
  0
LINE
  5
2A1
330
77
100
AcDbEntity
  8
410052031__BOX_0
  6
Continuous
 62
     7
100
AcDbLine
 10
97.3516018307
 20
414.4403795343
 30
0.0
 11
94.6239130435
 21
414.4403795343
 31
0.0
  0
LINE
  5
2A2
330
77
100
AcDbEntity
  8
410052031__BOX_0
  6
Continuous
 62
     7
100
AcDbLine
 10
94.6239130435
 20
414.4403795343
 30
0.0
 11
94.6239130435
 21
413.9403795343
 31
0.0
  0
LINE
  5
2A3
330
77
100
AcDbEntity
  8
410052031__BOX_0
  6
Continuous
 62
     7
100
AcDbLine
 10
100.8893592677
 20
414.4403795343
 30
0.0
 11
100.8893592677
 21
413.9403795343
 31
0.0
  0
LINE
  5
2A4
330
77
100
AcDbEntity
  8
410052031__BOX_0
  6
Continuous
 62
     7
100
AcDbLine
 10
100.8893592677
 20
414.4403795343
 30
0.0
 11
100.4820366133
 21
414.4403795343
 31
0.0
  0
LINE
  5
2A5
330
77
100
AcDbEntity
  8
410052031__BOX_0
  6
Continuous
 62
     7
100
AcDbLine
 10
100.4820366133
 20
414.4403795343
 30
0.0
 11
100.4820366133
 21
413.9403795343
 31
0.0
  0
LINE
  5
2A6
330
77
100
AcDbEntity
  8
410052031__BOX_0
  6
Continuous
 62
     7
100
AcDbLine
 10
100.4820366133
 20
414.4403795343
 30
0.0
 11
100.0518306636
 21
414.4403795343
 31
0.0
  0
LINE
  5
2A7
330
77
100
AcDbEntity
  8
410052031__BOX_0
  6
Continuous
 62
     7
100
AcDbLine
 10
100.0518306636
 20
414.4403795343
 30
0.0
 11
100.0518306636
 21
413.9403795343
 31
0.0
  0
LINE
  5
2A8
330
77
100
AcDbEntity
  8
410052031__BOX_0
  6
Continuous
 62
     7
100
AcDbLine
 10
100.0518306636
 20
414.4403795343
 30
0.0
 11
98.6056064073
 21
414.4403795343
 31
0.0
  0
LINE
  5
2A9
330
77
100
AcDbEntity
  8
410052031__BOX_0
  6
Continuous
 62
     7
100
AcDbLine
 10
98.6056064073
 20
414.4403795343
 30
0.0
 11
98.6056064073
 21
413.9403795343
 31
0.0
  0
LINE
  5
2AA
330
77
100
AcDbEntity
  8
410052031__BOX_0
  6
Continuous
 62
     7
100
AcDbLine
 10
98.6056064073
 20
414.4403795343
 30
0.0
 11
98.1708237986
 21
414.4403795343
 31
0.0
  0
LINE
  5
2AB
330
77
100
AcDbEntity
  8
410052031__BOX_0
  6
Continuous
 62
     7
100
AcDbLine
 10
98.1708237986
 20
414.4403795343
 30
0.0
 11
98.1708237986
 21
413.9403795343
 31
0.0
  0
LINE
  5
2AC
330
77
100
AcDbEntity
  8
410052031__BOX_0
  6
Continuous
 62
     7
100
AcDbLine
 10
98.1708237986
 20
414.4403795343
 30
0.0
 11
97.749771167
 21
414.4403795343
 31
0.0
  0
LINE
  5
2AD
330
77
100
AcDbEntity
  8
410052031__BOX_0
  6
Continuous
 62
     7
100
AcDbLine
 10
97.749771167
 20
414.4403795343
 30
0.0
 11
97.749771167
 21
413.9403795343
 31
0.0
  0
LINE
  5
2AE
330
77
100
AcDbEntity
  8
410052031__BOX_0
  6
Continuous
 62
     7
100
AcDbLine
 10
111.45
 20
307.4403795343
 30
0.0
 11
111.45
 21
308.9403795343
 31
0.0
  0
LINE
  5
2AF
330
77
100
AcDbEntity
  8
410052031__BOX_0
  6
Continuous
 62
     7
100
AcDbLine
 10
71.45
 20
308.9403795343
 30
0.0
 11
71.45
 21
307.4403795343
 31
0.0
  0
LINE
  5
2B0
330
77
100
AcDbEntity
  8
410052031__BOX_0
  6
Continuous
 62
     7
100
AcDbLine
 10
162.35
 20
341.9403795343
 30
0.0
 11
163.45
 21
341.9403795343
 31
0.0
  0
LINE
  5
2B1
330
77
100
AcDbEntity
  8
410052031__BOX_0
  6
Continuous
 62
     7
100
AcDbLine
 10
163.45
 20
381.9403795343
 30
0.0
 11
162.35
 21
381.9403795343
 31
0.0
  0
LINE
  5
2B2
330
77
100
AcDbEntity
  8
410052031__BOX_0
  6
Continuous
 62
     7
100
AcDbLine
 10
70.45
 20
309.9403795343
 30
0.0
 11
71.45
 21
308.9403795343
 31
0.0
  0
LINE
  5
2B3
330
77
100
AcDbEntity
  8
410052031__BOX_0
  6
Continuous
 62
     7
100
AcDbLine
 10
111.45
 20
308.9403795343
 30
0.0
 11
112.45
 21
309.9403795343
 31
0.0
  0
LINE
  5
2B4
330
77
100
AcDbEntity
  8
410052031__BOX_0
  6
Continuous
 62
     7
100
AcDbLine
 10
161.3481211754
 20
340.9385007097
 30
0.0
 11
162.35
 21
341.9403795343
 31
0.0
  0
LINE
  5
2B5
330
77
100
AcDbEntity
  8
410052031__BOX_0
  6
Continuous
 62
     7
100
AcDbLine
 10
162.35
 20
381.9403795343
 30
0.0
 11
161.3481211754
 21
382.942258359
 31
0.0
  0
LINE
  5
2B6
330
77
100
AcDbEntity
  8
410052031__BOX_0
  6
Continuous
 62
     7
100
AcDbLine
 10
71.45
 20
416.4403795343
 30
0.0
 11
71.45
 21
414.9403795343
 31
0.0
  0
LINE
  5
2B7
330
77
100
AcDbEntity
  8
410052031__BOX_0
  6
Continuous
 62
     7
100
AcDbLine
 10
111.45
 20
414.9403795343
 30
0.0
 11
111.45
 21
416.4403795343
 31
0.0
  0
LINE
  5
2B8
330
77
100
AcDbEntity
  8
410052031__BOX_0
  6
Continuous
 62
     7
100
AcDbLine
 10
112.45
 20
413.9403795343
 30
0.0
 11
111.45
 21
414.9403795343
 31
0.0
  0
LINE
  5
2B9
330
77
100
AcDbEntity
  8
410052031__BOX_0
  6
Continuous
 62
     7
100
AcDbLine
 10
71.45
 20
414.9403795343
 30
0.0
 11
70.45
 21
413.9403795343
 31
0.0
  0
LINE
  5
2BA
330
77
100
AcDbEntity
  8
410052031__BOX_0
  6
Continuous
 62
     7
100
AcDbLine
 10
20.55
 20
381.9403795343
 30
0.0
 11
19.45
 21
381.9403795343
 31
0.0
  0
LINE
  5
2BB
330
77
100
AcDbEntity
  8
410052031__BOX_0
  6
Continuous
 62
     7
100
AcDbLine
 10
19.45
 20
341.9403795343
 30
0.0
 11
20.55
 21
341.9403795343
 31
0.0
  0
LINE
  5
2BC
330
77
100
AcDbEntity
  8
410052031__BOX_0
  6
Continuous
 62
     7
100
AcDbLine
 10
21.5518788246
 20
382.942258359
 30
0.0
 11
20.55
 21
381.9403795343
 31
0.0
  0
LINE
  5
2BD
330
77
100
AcDbEntity
  8
410052031__BOX_0
  6
Continuous
 62
     7
100
AcDbLine
 10
20.55
 20
341.9403795343
 30
0.0
 11
21.5518788246
 21
340.9385007097
 31
0.0
  0
LINE
  5
2BE
330
77
100
AcDbEntity
  8
410052031__BOX_0
  6
Continuous
 62
     7
100
AcDbLine
 10
19.0681986122
 20
371.3053795343
 30
0.0
 11
18.5485237171
 21
371.3053795343
 31
0.0
  0
LINE
  5
2BF
330
77
100
AcDbEntity
  8
410052031__BOX_0
  6
Continuous
 62
     7
100
AcDbLine
 10
17.9444706142
 20
359.8027098166
 30
0.0
 11
17.9810625778
 21
359.8027098166
 31
0.0
  0
LINE
  5
2C0
330
77
100
AcDbEntity
  8
410052031__BOX_0
  6
Continuous
 62
     7
100
AcDbLine
 10
17.9811011259
 20
359.791268169
 30
0.0
 11
18.4962878693
 21
359.791268169
 31
0.0
  0
LINE
  5
2C1
330
77
100
AcDbEntity
  8
410052031__BOX_0
  6
Continuous
 62
     7
100
AcDbLine
 10
18.0438048502
 20
358.2275763307
 30
0.0
 11
18.0366325213
 21
358.2275763307
 31
0.0
  0
LINE
  5
2C2
330
77
100
AcDbEntity
  8
410052031__BOX_0
  6
Continuous
 62
     7
100
AcDbLine
 10
164.3254160058
 20
365.9403795343
 30
0.0
 11
164.8393995055
 21
365.9403795343
 31
0.0
  0
LINE
  5
2C3
330
77
100
AcDbEntity
  8
410052031__BOX_0
  6
Continuous
 62
     7
100
AcDbLine
 10
164.3512145681
 20
371.3053795343
 30
0.0
 11
163.8320989279
 21
371.3053795343
 31
0.0
  0
LINE
  5
2C4
330
77
100
AcDbEntity
  8
410052031__BOX_0
  6
Continuous
 62
     7
100
AcDbLine
 10
164.3623746739
 20
371.2748917295
 30
0.0
 11
164.3548780673
 21
371.2748917295
 31
0.0
  0
LINE
  5
2C5
330
77
100
AcDbEntity
  8
410052031__BOX_0
  6
Continuous
 62
     7
100
AcDbLine
 10
164.8957460383
 20
364.7771783148
 30
0.0
 11
164.3806978862
 21
364.7771783148
 31
0.0
  0
LINE
  5
2C6
330
77
100
AcDbEntity
  8
410052031__BOX_0
  6
Continuous
 62
     7
100
AcDbLine
 10
164.4031752335
 20
359.7771783148
 30
0.0
 11
164.9183350991
 21
359.7771783148
 31
0.0
  0
LINE
  5
2C7
330
77
100
AcDbEntity
  8
410052031__BOX_0
  6
Continuous
 62
     7
100
AcDbLine
 10
164.8601695584
 20
358.2146783148
 30
0.0
 11
164.8555416463
 21
358.2146783148
 31
0.0
  0
LINE
  5
2C8
330
77
100
AcDbEntity
  8
410019031__STOP_
  6
Continuous
 62
     7
100
AcDbLine
 10
176.55
 20
344.9403795343
 30
0.0
 11
176.55
 21
378.9403795343
 31
0.0
  0
LINE
  5
2C9
330
77
100
AcDbEntity
  8
410019031__STOP_
  6
Continuous
 62
     7
100
AcDbLine
 10
176.282974668
 20
379.4028795343
 30
0.0
 11
175.3021006899
 21
379.4028795343
 31
0.0
  0
LINE
  5
2CA
330
77
100
AcDbEntity
  8
410019031__STOP_
  6
Continuous
 62
     7
100
AcDbLine
 10
163.55
 20
379.4028795343
 30
0.0
 11
175.3021006899
 21
379.4028795343
 31
0.0
  0
ARC
  5
2CB
330
77
100
AcDbEntity
  8
410019031__STOP_
  6
Continuous
 62
     7
100
AcDbCircle
 10
151.8671825108
 20
370.6716295343
 30
0.0
 40
24.41027174411674
100
AcDbArc
 50
343.7486608761
 51
16.2513391239
  0
SPLINE
  5
2CC
330
77
100
AcDbEntity
  8
410019031__STOP_
  6
Continuous
 62
     7
100
AcDbSpline
210
0.0
220
0.0
230
1.0
 70
     8
 71
     3
 72
    18
 73
    14
 74
     0
 42
0.0000000048753753
 43
0.0000000001
 40
0.0
 40
0.0
 40
0.0
 40
0.0
 40
0.2500000000000003
 40
0.2500000000000003
 40
0.3749999999999998
 40
0.3749999999999998
 40
0.4999999999999993
 40
0.4999999999999993
 40
0.6249999999999988
 40
0.6249999999999988
 40
0.7499999999999982
 40
0.7499999999999982
 40
1.0
 40
1.0
 40
1.0
 40
1.0
 10
175.3021006898564
 20
379.402879534344
 30
0.0
 10
175.2240583713867
 20
379.402879534344
 30
0.0
 10
175.1648032426528
 20
379.3610273408389
 30
0.0
 10
175.1038620077794
 20
379.2330126373604
 30
0.0
 10
175.0883445025964
 20
379.1789986260635
 30
0.0
 10
175.0678897856634
 20
379.051882060705
 30
0.0
 10
175.0627520387776
 20
378.9784988551526
 30
0.0
 10
175.0626295047088
 20
378.8120533669771
 30
0.0
 10
175.0677381352654
 20
378.7181670899333
 30
0.0
 10
175.0882355115629
 20
378.513871213189
 30
0.0
 10
175.1034790497877
 20
378.4041327294084
 30
0.0
 10
175.1637540023557
 20
378.0530979563237
 30
0.0
 10
175.2240401998388
 20
377.7873130625511
 30
0.0
 10
175.3021006898564
 20
377.502879534344
 30
0.0
  0
LINE
  5
2CD
330
77
100
AcDbEntity
  8
410019031__STOP_
  6
Continuous
 62
     7
100
AcDbLine
 10
175.3021006899
 20
377.5028795343
 30
0.0
 11
163.55
 21
377.5028795343
 31
0.0
  0
LINE
  5
2CE
330
77
100
AcDbEntity
  8
410019031__STOP_
  6
Continuous
 62
     7
100
AcDbLine
 10
164.9254380023
 20
363.8403795343
 30
0.0
 11
175.3021006899
 21
363.8403795343
 31
0.0
  0
ARC
  5
2CF
330
77
100
AcDbEntity
  8
410019031__STOP_
  6
Continuous
 62
     7
100
AcDbCircle
 10
151.8671825108
 20
353.2091295343
 30
0.0
 40
24.41027174411689
100
AcDbArc
 50
343.7486608761
 51
16.2513391239
  0
ARC
  5
2D0
330
77
100
AcDbEntity
  8
410019031__STOP_
  6
Continuous
 62
     7
100
AcDbCircle
 10
182.6846574863
 20
361.9403795343
 30
0.0
 40
7.623132220585095
100
AcDbArc
 50
165.5673744438
 51
194.4326255562
  0
LINE
  5
2D1
330
77
100
AcDbEntity
  8
410019031__STOP_
  6
Continuous
 62
     7
100
AcDbLine
 10
175.3021006899
 20
360.0403795343
 30
0.0
 11
164.9254380023
 21
360.0403795343
 31
0.0
  0
LINE
  5
2D2
330
77
100
AcDbEntity
  8
410019031__STOP_
  6
Continuous
 62
     7
100
AcDbLine
 10
163.55
 20
346.3778795343
 30
0.0
 11
175.3021006899
 21
346.3778795343
 31
0.0
  0
LINE
  5
2D3
330
77
100
AcDbEntity
  8
410019031__STOP_
  6
Continuous
 62
     7
100
AcDbLine
 10
176.282974668
 20
344.4778795343
 30
0.0
 11
175.3021006899
 21
344.4778795343
 31
0.0
  0
SPLINE
  5
2D4
330
77
100
AcDbEntity
  8
410019031__STOP_
  6
Continuous
 62
     7
100
AcDbSpline
210
0.0
220
0.0
230
1.0
 70
     8
 71
     3
 72
    18
 73
    14
 74
     0
 42
0.0000000048754831
 43
0.0000000001
 40
0.0
 40
0.0
 40
0.0
 40
0.0
 40
0.2499999999999988
 40
0.2499999999999988
 40
0.3749999999999991
 40
0.3749999999999991
 40
0.4999999999999994
 40
0.4999999999999994
 40
0.6249999999999998
 40
0.6249999999999998
 40
0.75
 40
0.75
 40
1.0
 40
1.0
 40
1.0
 40
1.0
 10
175.3021006898564
 20
346.377879534344
 30
0.0
 10
175.2240583713867
 20
346.0935122188581
 30
0.0
 10
175.1648032426528
 20
345.8329161108741
 30
0.0
 10
175.1038620077794
 20
345.4792749670673
 30
0.0
 10
175.0883445025964
 20
345.3676153436494
 30
0.0
 10
175.0678897856634
 20
345.1644577322642
 30
0.0
 10
175.0627520387776
 20
345.07193591383
 30
0.0
 10
175.0626295047088
 20
344.9050342788536
 30
0.0
 10
175.0677381352654
 20
344.8301785537168
 30
0.0
 10
175.0882355115629
 20
344.7020831903332
 30
0.0
 10
175.1034790497877
 20
344.6489731461929
 30
0.0
 10
175.1637540023557
 20
344.5211100078415
 30
0.0
 10
175.2240401998388
 20
344.477879534344
 30
0.0
 10
175.3021006898564
 20
344.477879534344
 30
0.0
  0
LINE
  5
2D5
330
77
100
AcDbEntity
  8
410019031__STOP_
  6
Continuous
 62
     7
100
AcDbLine
 10
175.3021006899
 20
344.4778795343
 30
0.0
 11
163.55
 21
344.4778795343
 31
0.0
  0
LINE
  5
2D6
330
77
100
AcDbEntity
  8
410019031__STOP_
  6
Continuous
 62
     7
100
AcDbLine
 10
176.2829755005
 20
344.4778795343
 30
0.0
 11
176.55
 21
344.9403795343
 31
0.0
  0
LINE
  5
2D7
330
77
100
AcDbEntity
  8
410019031__STOP_
  6
Continuous
 62
     7
100
AcDbLine
 10
176.55
 20
378.9403795343
 30
0.0
 11
176.2829755005
 21
379.4028795343
 31
0.0
  0
LINE
  5
2D9
330
77
100
AcDbEntity
  8
410062031__BOX_L
  6
Continuous
 62
     7
100
AcDbLine
 10
76.45
 20
331.9403795343
 30
0.0
 11
76.25
 21
331.9403795343
 31
0.0
  0
ARC
  5
2DA
330
77
100
AcDbEntity
  8
410062031__BOX_L
  6
Continuous
 62
     7
100
AcDbCircle
 10
91.45
 20
331.9403795343
 30
0.0
 40
15.2
100
AcDbArc
 50
180.0
 51
0.0
  0
LINE
  5
2DB
330
77
100
AcDbEntity
  8
410062031__BOX_L
  6
Continuous
 62
     7
100
AcDbLine
 10
106.65
 20
331.9403795343
 30
0.0
 11
106.45
 21
331.9403795343
 31
0.0
  0
ARC
  5
2DC
330
77
100
AcDbEntity
  8
410062031__BOX_L
  6
Continuous
 62
     7
100
AcDbCircle
 10
91.45
 20
331.9403795343
 30
0.0
 40
15.0
100
AcDbArc
 50
180.0
 51
0.0
  0
LINE
  5
2DD
330
77
100
AcDbEntity
  8
410062031__BOX_L
  6
Continuous
 62
     7
100
AcDbLine
 10
76.25
 20
391.9403795343
 30
0.0
 11
76.45
 21
391.9403795343
 31
0.0
  0
ARC
  5
2DE
330
77
100
AcDbEntity
  8
410062031__BOX_L
  6
Continuous
 62
     7
100
AcDbCircle
 10
91.45
 20
391.9403795343
 30
0.0
 40
15.0
100
AcDbArc
 50
0.0
 51
180.0
  0
LINE
  5
2DF
330
77
100
AcDbEntity
  8
410062031__BOX_L
  6
Continuous
 62
     7
100
AcDbLine
 10
106.45
 20
391.9403795343
 30
0.0
 11
106.65
 21
391.9403795343
 31
0.0
  0
ARC
  5
2E0
330
77
100
AcDbEntity
  8
410062031__BOX_L
  6
Continuous
 62
     7
100
AcDbCircle
 10
91.45
 20
391.9403795343
 30
0.0
 40
15.2
100
AcDbArc
 50
0.0
 51
180.0
  0
LINE
  5
2E1
330
77
100
AcDbEntity
  8
410062031__BOX_L
  6
Continuous
 62
     7
100
AcDbLine
 10
114.95
 20
411.9403795343
 30
0.0
 11
114.95
 21
406.9403795343
 31
0.0
  0
LINE
  5
2E2
330
77
100
AcDbEntity
  8
410062031__BOX_L
  6
Continuous
 62
     7
100
AcDbLine
 10
114.95
 20
406.9403795343
 30
0.0
 11
112.95
 21
406.9403795343
 31
0.0
  0
LINE
  5
2E3
330
77
100
AcDbEntity
  8
410062031__BOX_L
  6
Continuous
 62
     7
100
AcDbLine
 10
112.95
 20
406.9403795343
 30
0.0
 11
112.95
 21
411.9403795343
 31
0.0
  0
LINE
  5
2E4
330
77
100
AcDbEntity
  8
410062031__BOX_L
  6
Continuous
 62
     7
100
AcDbLine
 10
69.95
 20
411.9403795343
 30
0.0
 11
69.95
 21
406.9403795343
 31
0.0
  0
LINE
  5
2E5
330
77
100
AcDbEntity
  8
410062031__BOX_L
  6
Continuous
 62
     7
100
AcDbLine
 10
69.95
 20
406.9403795343
 30
0.0
 11
67.95
 21
406.9403795343
 31
0.0
  0
LINE
  5
2E6
330
77
100
AcDbEntity
  8
410062031__BOX_L
  6
Continuous
 62
     7
100
AcDbLine
 10
67.95
 20
406.9403795343
 30
0.0
 11
67.95
 21
411.9403795343
 31
0.0
  0
ENDBLK
  5
2E8
330
77
100
AcDbEntity
  8
0
100
AcDbBlockEnd
  0
BLOCK
  5
3C8
330
2E9
100
AcDbEntity
  8
0
100
AcDbBlockBegin
  2
SE1
 70
     0
 10
0.0
 20
0.0
 30
0.0
  3
SE1
  1

  0
CIRCLE
  5
2EB
330
2E9
100
AcDbEntity
  8
410019031__STOP_
  6
Continuous
 62
     7
100
AcDbCircle
 10
260.6403795343
 20
361.9403795343
 30
0.0
 40
17.0
  0
CIRCLE
  5
2EC
330
2E9
100
AcDbEntity
  8
410019031__STOP_
  6
Continuous
 62
     7
100
AcDbCircle
 10
260.6403795343
 20
361.9403795343
 30
0.0
 40
11.85403226161885
  0
CIRCLE
  5
2ED
330
2E9
100
AcDbEntity
  8
410019031__STOP_
  6
Continuous
 62
     7
100
AcDbCircle
 10
260.6403795343
 20
361.9403795343
 30
0.0
 40
9.975517364361249
  0
LINE
  5
2EE
330
2E9
100
AcDbEntity
  8
410019031__STOP_
  6
Continuous
 62
     7
100
AcDbLine
 10
279.7073721743
 20
363.8403795343
 30
0.0
 11
271.8193241215
 21
377.5028795343
 31
0.0
  0
ARC
  5
2EF
330
2E9
100
AcDbEntity
  8
410019031__STOP_
  6
Continuous
 62
     7
100
AcDbCircle
 10
276.41647564
 20
361.9403795343
 30
0.0
 40
3.799999999999976
100
AcDbArc
 50
330.0
 51
30.0
  0
LINE
  5
2F0
330
2E9
100
AcDbEntity
  8
410019031__STOP_
  6
Continuous
 62
     7
100
AcDbLine
 10
268.5284275871
 20
379.4028795343
 30
0.0
 11
252.7523314815
 21
379.4028795343
 31
0.0
  0
ARC
  5
2F1
330
2E9
100
AcDbEntity
  8
410019031__STOP_
  6
Continuous
 62
     7
100
AcDbCircle
 10
268.5284275871
 20
375.6028795343
 30
0.0
 40
3.799999999999972
100
AcDbArc
 50
30.0
 51
90.0
  0
LINE
  5
2F2
330
2E9
100
AcDbEntity
  8
410019031__STOP_
  6
Continuous
 62
     7
100
AcDbLine
 10
249.4614349472
 20
377.5028795343
 30
0.0
 11
241.5733868944
 21
363.8403795343
 31
0.0
  0
ARC
  5
2F3
330
2E9
100
AcDbEntity
  8
410019031__STOP_
  6
Continuous
 62
     7
100
AcDbCircle
 10
252.7523314815
 20
375.6028795343
 30
0.0
 40
3.799999999999979
100
AcDbArc
 50
90.0
 51
150.0
  0
LINE
  5
2F4
330
2E9
100
AcDbEntity
  8
410019031__STOP_
  6
Continuous
 62
     7
100
AcDbLine
 10
241.5733868944
 20
360.0403795343
 30
0.0
 11
249.4614349472
 21
346.3778795343
 31
0.0
  0
ARC
  5
2F5
330
2E9
100
AcDbEntity
  8
410019031__STOP_
  6
Continuous
 62
     7
100
AcDbCircle
 10
244.8642834287
 20
361.9403795343
 30
0.0
 40
3.799999999999973
100
AcDbArc
 50
150.0
 51
210.0
  0
LINE
  5
2F6
330
2E9
100
AcDbEntity
  8
410019031__STOP_
  6
Continuous
 62
     7
100
AcDbLine
 10
252.7523314815
 20
344.4778795343
 30
0.0
 11
268.5284275871
 21
344.4778795343
 31
0.0
  0
ARC
  5
2F7
330
2E9
100
AcDbEntity
  8
410019031__STOP_
  6
Continuous
 62
     7
100
AcDbCircle
 10
252.7523314815
 20
348.2778795343
 30
0.0
 40
3.799999999999983
100
AcDbArc
 50
210.0
 51
270.0
  0
LINE
  5
2F8
330
2E9
100
AcDbEntity
  8
410019031__STOP_
  6
Continuous
 62
     7
100
AcDbLine
 10
271.8193241215
 20
346.3778795343
 30
0.0
 11
279.7073721743
 21
360.0403795343
 31
0.0
  0
ARC
  5
2F9
330
2E9
100
AcDbEntity
  8
410019031__STOP_
  6
Continuous
 62
     7
100
AcDbCircle
 10
268.5284275871
 20
348.2778795343
 30
0.0
 40
3.799999999999979
100
AcDbArc
 50
270.0
 51
330.0
  0
SPLINE
  5
2FA
330
2E9
100
AcDbEntity
  8
17378031__STOP_P
  6
Continuous
 62
     7
100
AcDbSpline
210
0.0
220
0.0
230
1.0
 70
     8
 71
     3
 72
    12
 73
     8
 74
     0
 42
0.0000000000404853
 43
0.0000000001
 40
0.0
 40
0.0
 40
0.0
 40
0.0
 40
0.015625
 40
0.015625
 40
0.03125
 40
0.03125
 40
0.0441524024752116
 40
0.0441524024752116
 40
0.0441524024752116
 40
0.0441524024752116
 10
261.0918470049654
 20
421.4739673202525
 30
0.0
 10
259.1074669499279
 20
421.4189191577417
 30
0.0
 10
257.1186158345176
 20
421.3644441603745
 30
0.0
 10
253.6854515568751
 20
421.2541648093793
 30
0.0
 10
252.2674545047314
 20
421.1989165376174
 30
0.0
 10
250.6324845755361
 20
421.0990252875873
 30
0.0
 10
250.2416970800202
 20
421.0533758810195
 30
0.0
 10
250.2406838131318
 20
421.0078021446389
 30
0.0
  0
SPLINE
  5
2FB
330
2E9
100
AcDbEntity
  8
17378031__STOP_P
  6
Continuous
 62
     7
100
AcDbSpline
210
0.0
220
0.0
230
1.0
 70
     8
 71
     3
 72
    18
 73
    14
 74
     0
 42
0.0000000000410719
 43
0.0000000001
 40
0.1298101065418035
 40
0.1298101065418035
 40
0.1298101065418035
 40
0.1298101065418035
 40
0.140625
 40
0.140625
 40
0.15625
 40
0.15625
 40
0.171875
 40
0.171875
 40
0.1875
 40
0.1875
 40
0.203125
 40
0.203125
 40
0.2150496894315079
 40
0.2150496894315079
 40
0.2150496894315079
 40
0.2150496894315079
 10
270.9905144849673
 20
420.1003495678137
 30
0.0
 10
270.9857315167498
 20
420.0619601082084
 30
0.0
 10
270.7103647003578
 20
420.0234745605044
 30
0.0
 10
269.4088951284863
 20
419.930298373523
 30
0.0
 10
268.1088571288856
 20
419.8750857117029
 30
0.0
 10
264.8038566324665
 20
419.7634105996554
 30
0.0
 10
262.8504397480448
 20
419.7085114663415
 30
0.0
 10
258.8897568581638
 20
419.597776012645
 30
0.0
 10
256.8848182673676
 20
419.5417800689272
 30
0.0
 10
253.5312453271634
 20
419.4314124239871
 30
0.0
 10
252.1512573304244
 20
419.3757268888257
 30
0.0
 10
250.6653698962009
 20
419.2774670031253
 30
0.0
 10
250.3340448642158
 20
419.2352878382159
 30
0.0
 10
250.3351597007141
 20
419.1929492102662
 30
0.0
  0
SPLINE
  5
2FC
330
2E9
100
AcDbEntity
  8
17378031__STOP_P
  6
Continuous
 62
     7
100
AcDbSpline
210
0.0
220
0.0
230
1.0
 70
     8
 71
     3
 72
    36
 73
    32
 74
     0
 42
0.000000000044219
 43
0.0000000001
 40
0.0648747121038874
 40
0.0648747121038874
 40
0.0648747121038874
 40
0.0648747121038874
 40
0.0694930935858538
 40
0.0694930935858538
 40
0.0751448991004224
 40
0.0751448991004224
 40
0.0807967046149909
 40
0.0807967046149909
 40
0.0864485101295595
 40
0.0864485101295595
 40
0.092100315644128
 40
0.092100315644128
 40
0.0977521211586966
 40
0.0977521211586966
 40
0.1034039266732651
 40
0.1034039266732651
 40
0.1090557321878337
 40
0.1090557321878337
 40
0.1147075377024022
 40
0.1147075377024022
 40
0.1203593432169708
 40
0.1203593432169708
 40
0.1260111487315393
 40
0.1260111487315393
 40
0.1316629542461079
 40
0.1316629542461079
 40
0.1373147597606764
 40
0.1373147597606764
 40
0.142966565275245
 40
0.142966565275245
 40
0.143755464138069
 40
0.143755464138069
 40
0.143755464138069
 40
0.143755464138069
 10
269.5528263093074
 20
421.0028627153587
 30
0.0
 10
269.5213956903752
 20
420.9855004731539
 30
0.0
 10
269.4415446446019
 20
420.9680907205617
 30
0.0
 10
269.1591209315606
 20
420.9295421462431
 30
0.0
 10
268.9325844562728
 20
420.9082161952643
 30
0.0
 10
268.3499514998397
 20
420.8657887527648
 30
0.0
 10
267.9927968096298
 20
420.8444627804081
 30
0.0
 10
267.1668808257892
 20
420.8020353692455
 30
0.0
 10
266.6965558776326
 20
420.7807093754947
 30
0.0
 10
265.6676612678233
 20
420.7382819956883
 30
0.0
 10
265.1070984720664
 20
420.7169559805292
 30
0.0
 10
263.9253595310736
 20
420.6745286321014
 30
0.0
 10
263.3018576104296
 20
420.6532025955272
 30
0.0
 10
262.0247956817537
 20
420.6107752784819
 30
0.0
 10
261.3686902627458
 20
420.5894492204708
 30
0.0
 10
260.0584138847634
 20
420.5470219348608
 30
0.0
 10
259.4016015616234
 20
420.5256958554015
 30
0.0
 10
258.121785887069
 20
420.4832686012097
 30
0.0
 10
257.4961735675609
 20
420.4619425002942
 30
0.0
 10
256.3089659589304
 20
420.4195152775667
 30
0.0
 10
255.7449208771813
 20
420.3981891551682
 30
0.0
 10
254.7079230560013
 20
420.3557619639257
 30
0.0
 10
254.2327987482733
 20
420.3344358200346
 30
0.0
 10
253.3962720437725
 20
420.2920086602885
 30
0.0
 10
253.0330818361261
 20
420.2706824948833
 30
0.0
 10
252.4375111302706
 20
420.2282553666783
 30
0.0
 10
252.2038134672375
 20
420.2069291797515
 30
0.0
 10
251.8779479053251
 20
420.1645020830711
 30
0.0
 10
251.7849975090781
 20
420.1431758746168
 30
0.0
 10
251.7619011634258
 20
420.1190012826835
 30
0.0
 10
251.7604842113038
 20
420.1160380275604
 30
0.0
 10
251.7604754762006
 20
420.1130731897134
 30
0.0
  0
SPLINE
  5
2FD
330
2E9
100
AcDbEntity
  8
17378031__STOP_P
  6
Continuous
 62
     7
100
AcDbSpline
210
0.0
220
0.0
230
1.0
 70
     8
 71
     3
 72
    16
 73
    12
 74
     0
 42
0.0000000000636625
 43
0.0000000001
 40
0.2255062332863189
 40
0.2255062332863189
 40
0.2255062332863189
 40
0.2255062332863189
 40
0.2277436479937733
 40
0.2277436479937733
 40
0.2333954535083418
 40
0.2333954535083418
 40
0.2390472590229104
 40
0.2390472590229104
 40
0.2446990645374789
 40
0.2446990645374789
 40
0.2477134534382549
 40
0.2477134534382549
 40
0.2477134534382549
 40
0.2477134534382549
 10
269.4599057724665
 20
419.1908969068683
 30
0.0
 10
269.4462082294426
 20
419.1824776274387
 30
0.0
 10
269.4212993243816
 20
419.1740620446687
 30
0.0
 10
269.2940445545465
 20
419.1444509137824
 30
0.0
 10
269.1312906533062
 20
419.1231243589152
 30
0.0
 10
268.6716787169987
 20
419.0806978015344
 30
0.0
 10
268.3740053252897
 20
419.0593712248921
 30
0.0
 10
267.6596489732074
 20
419.0169446994773
 30
0.0
 10
267.2416188456011
 20
418.9956181010232
 30
0.0
 10
266.5253872679035
 20
418.963090775026
 30
0.0
 10
266.2617831291859
 20
418.9517444453224
 30
0.0
 10
265.9859222800663
 20
418.9404002691302
 30
0.0
  0
LINE
  5
2FE
330
2E9
100
AcDbEntity
  8
17378031__STOP_P
  6
Continuous
 62
     7
100
AcDbLine
 10
261.091847005
 20
421.4739673203
 30
0.0
 11
263.0839873938
 21
421.4739673203
 31
0.0
  0
SPLINE
  5
2FF
330
2E9
100
AcDbEntity
  8
17378031__STOP_P
  6
Continuous
 62
     7
100
AcDbSpline
210
0.0
220
0.0
230
1.0
 70
     8
 71
     3
 72
    14
 73
    10
 74
     0
 42
0.0000000009361908
 43
0.0000000001
 40
0.0
 40
0.0
 40
0.0
 40
0.0
 40
0.125
 40
0.125
 40
0.2500000000000001
 40
0.2500000000000001
 40
0.5
 40
0.5
 40
0.7227794904154751
 40
0.7227794904154751
 40
0.7227794904154751
 40
0.7227794904154751
 10
263.083987393776
 20
421.473967320245
 30
0.0
 10
263.8507411251102
 20
421.4846523795396
 30
0.0
 10
264.5818758006566
 20
421.4951701830216
 30
0.0
 10
265.9739272611022
 20
421.5165154717892
 30
0.0
 10
266.6355560904831
 20
421.5273212298839
 30
0.0
 10
268.4109000506706
 20
421.5594261278321
 30
0.0
 10
269.3601227516485
 20
421.5809978241323
 30
0.0
 10
270.4988300127868
 20
421.6221267380408
 30
0.0
 10
270.7624073798434
 20
421.6415596285958
 30
0.0
 10
270.7279901237294
 20
421.6611744997037
 30
0.0
  0
LINE
  5
300
330
2E9
100
AcDbEntity
  8
17378031__STOP_P
  6
Continuous
 62
     7
100
AcDbLine
 10
271.3703801162
 20
421.7346420937
 30
0.0
 11
249.9103801162
 21
421.7346420937
 31
0.0
  0
LINE
  5
301
330
2E9
100
AcDbEntity
  8
17378031__STOP_P
  6
Continuous
 62
     7
100
AcDbLine
 10
259.5403801162
 20
425.1803795343
 30
0.0
 11
259.5403801162
 21
429.8412897879
 31
0.0
  0
LINE
  5
302
330
2E9
100
AcDbEntity
  8
17378031__STOP_P
  6
Continuous
 62
     7
100
AcDbLine
 10
261.7403801162
 20
425.1803795343
 30
0.0
 11
270.6403801162
 21
425.1803795343
 31
0.0
  0
LINE
  5
303
330
2E9
100
AcDbEntity
  8
17378031__STOP_P
  6
Continuous
 62
     7
100
AcDbLine
 10
261.7403801162
 20
425.1803795343
 30
0.0
 11
259.5403801162
 21
425.1803795343
 31
0.0
  0
LINE
  5
304
330
2E9
100
AcDbEntity
  8
17378031__STOP_P
  6
Continuous
 62
     7
100
AcDbLine
 10
249.5403801162
 20
425.1803795343
 30
0.0
 11
249.5403801162
 21
429.8412897879
 31
0.0
  0
LINE
  5
305
330
2E9
100
AcDbEntity
  8
17378031__STOP_P
  6
Continuous
 62
     7
100
AcDbLine
 10
250.6403801162
 20
425.1803795343
 30
0.0
 11
259.5403801162
 21
425.1803795343
 31
0.0
  0
LINE
  5
306
330
2E9
100
AcDbEntity
  8
17378031__STOP_P
  6
Continuous
 62
     7
100
AcDbLine
 10
250.6403801162
 20
425.1803795343
 30
0.0
 11
249.5403801162
 21
425.1803795343
 31
0.0
  0
LINE
  5
307
330
2E9
100
AcDbEntity
  8
17378031__STOP_P
  6
Continuous
 62
     7
100
AcDbLine
 10
270.6403801162
 20
425.1803795343
 30
0.0
 11
270.6403801162
 21
429.8412897879
 31
0.0
  0
LINE
  5
308
330
2E9
100
AcDbEntity
  8
17378031__STOP_P
  6
Continuous
 62
     7
100
AcDbLine
 10
271.7403801162
 20
425.1803795343
 30
0.0
 11
270.6403801162
 21
425.1803795343
 31
0.0
  0
LINE
  5
309
330
2E9
100
AcDbEntity
  8
17378031__STOP_P
  6
Continuous
 62
     7
100
AcDbLine
 10
271.7403801162
 20
429.8412897879
 30
0.0
 11
271.7403801162
 21
425.1803795343
 31
0.0
  0
SPLINE
  5
30A
330
2E9
100
AcDbEntity
  8
17378031__STOP_P
  6
Continuous
 62
     7
100
AcDbSpline
210
0.0
220
0.0
230
1.0
 70
     8
 71
     3
 72
    14
 73
    10
 74
     0
 42
0.0000000076882182
 43
0.0000000001
 40
0.0
 40
0.0
 40
0.0
 40
0.0
 40
0.25
 40
0.25
 40
0.5
 40
0.5
 40
0.75
 40
0.75
 40
1.0
 40
1.0
 40
1.0
 40
1.0
 10
271.7403801162292
 20
429.8412897879276
 30
0.0
 10
271.7403801162292
 20
429.763710458061
 30
0.0
 10
271.717882140605
 20
429.7023865006786
 30
0.0
 10
271.6194365169423
 20
429.616739022668
 30
0.0
 10
271.5454978368843
 20
429.594605917787
 30
0.0
 10
271.3472283608539
 20
429.5943882319006
 30
0.0
 10
271.2261377211733
 20
429.6165544694255
 30
0.0
 10
270.9503120620267
 20
429.7018343230388
 30
0.0
 10
270.7993284493245
 20
429.7636803984048
 30
0.0
 10
270.6403801162293
 20
429.8412897879276
 30
0.0
  0
LINE
  5
30B
330
2E9
100
AcDbEntity
  8
17378031__STOP_P
  6
Continuous
 62
     7
100
AcDbLine
 10
250.6403801162
 20
429.8412897879
 30
0.0
 11
250.6403801162
 21
425.1803795343
 31
0.0
  0
LINE
  5
30C
330
2E9
100
AcDbEntity
  8
17378031__STOP_P
  6
Continuous
 62
     7
100
AcDbLine
 10
261.7403801162
 20
429.8412897879
 30
0.0
 11
261.7403801162
 21
425.1803795343
 31
0.0
  0
LINE
  5
30D
330
2E9
100
AcDbEntity
  8
17378031__STOP_P
  6
Continuous
 62
     7
100
AcDbLine
 10
249.5403801162
 20
430.9803795343
 30
0.0
 11
249.5403801162
 21
429.8412897879
 31
0.0
  0
ARC
  5
30E
330
2E9
100
AcDbEntity
  8
17378031__STOP_P
  6
Continuous
 62
     7
100
AcDbCircle
 10
255.2599140039
 20
421.056281314
 30
0.0
 40
9.925546192853869
100
AcDbArc
 50
90.978691594
 51
117.7373169696
  0
ARC
  5
30F
330
2E9
100
AcDbEntity
  8
17378031__STOP_P
  6
Continuous
 62
     7
100
AcDbCircle
 10
254.8830368862
 20
420.9085742751
 30
0.0
 40
10.07393926901663
100
AcDbArc
 50
62.4633444782
 51
88.8206469583
  0
ARC
  5
310
330
2E9
100
AcDbEntity
  8
17378031__STOP_P
  6
Continuous
 62
     7
100
AcDbCircle
 10
266.4379774872
 20
420.7513163172
 30
0.0
 40
10.2320593606198
100
AcDbArc
 50
91.3865898067
 51
117.3294187568
  0
ARC
  5
311
330
2E9
100
AcDbEntity
  8
17378031__STOP_P
  6
Continuous
 62
     7
100
AcDbCircle
 10
265.9426697003
 20
420.7508746927
 30
0.0
 40
10.23250359172813
100
AcDbArc
 50
62.6711542024
 51
88.612837234
  0
LINE
  5
312
330
2E9
100
AcDbEntity
  8
17378031__STOP_P
  6
Continuous
 62
     7
100
AcDbLine
 10
271.7403801162
 20
429.8412897879
 30
0.0
 11
271.7403801162
 21
430.9803795343
 31
0.0
  0
LINE
  5
313
330
2E9
100
AcDbEntity
  8
17378031__STOP_P
  6
Continuous
 62
     7
100
AcDbLine
 10
249.5403801162
 20
430.9803795343
 30
0.0
 11
255.0903801162
 21
430.9803795343
 31
0.0
  0
SPLINE
  5
314
330
2E9
100
AcDbEntity
  8
17378031__STOP_P
  6
Continuous
 62
     7
100
AcDbSpline
210
0.0
220
0.0
230
1.0
 70
     8
 71
     3
 72
    14
 73
    10
 74
     0
 42
0.000000007688323
 43
0.0000000001
 40
0.0
 40
0.0
 40
0.0
 40
0.0
 40
0.25
 40
0.25
 40
0.5
 40
0.5
 40
0.75
 40
0.75
 40
1.0
 40
1.0
 40
1.0
 40
1.0
 10
250.6403801162292
 20
429.8412897879276
 30
0.0
 10
250.4814933027255
 20
429.7637104364546
 30
0.0
 10
250.3319482029241
 20
429.7023864662182
 30
0.0
 10
250.0555026475573
 20
429.6167389852851
 30
0.0
 10
249.9352141164649
 20
429.5946058927305
 30
0.0
 10
249.7364898613961
 20
429.5943882565919
 30
0.0
 10
249.6618176699417
 20
429.6165545297159
 30
0.0
 10
249.5632331307065
 20
429.7018344773464
 30
0.0
 10
249.5403801162292
 20
429.7636805600274
 30
0.0
 10
249.5403801162292
 20
429.8412897879276
 30
0.0
  0
LINE
  5
315
330
2E9
100
AcDbEntity
  8
17378031__STOP_P
  6
Continuous
 62
     7
100
AcDbLine
 10
255.0903801162
 20
430.9803795343
 30
0.0
 11
266.1903801162
 21
430.9803795343
 31
0.0
  0
ARC
  5
316
330
2E9
100
AcDbEntity
  8
17378031__STOP_P
  6
Continuous
 62
     7
100
AcDbCircle
 10
260.6403801162
 20
432.1608723366
 30
0.0
 40
2.567189747589248
100
AcDbArc
 50
244.628603989
 51
295.371396011
  0
LINE
  5
317
330
2E9
100
AcDbEntity
  8
17378031__STOP_P
  6
Continuous
 62
     7
100
AcDbLine
 10
266.1903801162
 20
430.9803795343
 30
0.0
 11
271.7403801162
 21
430.9803795343
 31
0.0
  0
SPLINE
  5
318
330
2E9
100
AcDbEntity
  8
17378031__STOP_P
  6
Continuous
 62
     7
100
AcDbSpline
210
0.0
220
0.0
230
1.0
 70
     8
 71
     3
 72
     8
 73
     4
 74
     0
 42
0.0000000062295161
 43
0.0000000001
 40
0.0
 40
0.0
 40
0.0
 40
0.0
 40
1.0
 40
1.0
 40
1.0
 40
1.0
 10
251.7754918479725
 20
420.0027153700863
 30
0.0
 10
251.2932703424532
 20
419.7342974445012
 30
0.0
 10
250.8257085646391
 20
419.4740972903251
 30
0.0
 10
250.3728065145302
 20
419.222114907558
 30
0.0
  0
SPLINE
  5
319
330
2E9
100
AcDbEntity
  8
17378031__STOP_P
  6
Continuous
 62
     7
100
AcDbSpline
210
0.0
220
0.0
230
1.0
 70
     8
 71
     3
 72
     8
 73
     4
 74
     0
 42
0.0000000068432664
 43
0.0000000001
 40
0.0
 40
0.0
 40
0.0
 40
0.0
 40
1.0
 40
1.0
 40
1.0
 40
1.0
 10
251.5584049099834
 20
421.7485107328549
 30
0.0
 10
251.1573035771818
 20
421.5255428883182
 30
0.0
 10
250.7315393672619
 20
421.2889247325245
 30
0.0
 10
250.2811122802241
 20
421.0386562654739
 30
0.0
  0
SPLINE
  5
31A
330
2E9
100
AcDbEntity
  8
17378031__STOP_P
  6
Continuous
 62
     7
100
AcDbSpline
210
0.0
220
0.0
230
1.0
 70
     8
 71
     3
 72
     8
 73
     4
 74
     0
 42
0.0000000060382769
 43
0.0000000001
 40
0.0
 40
0.0
 40
0.0
 40
0.0
 40
1.0
 40
1.0
 40
1.0
 40
1.0
 10
270.9968552870518
 20
420.1063241662441
 30
0.0
 10
270.5143133904871
 20
420.374608204013
 30
0.0
 10
270.0318682276047
 20
420.6429140948439
 30
0.0
 10
269.5495197984046
 20
420.9112418387367
 30
0.0
  0
SPLINE
  5
31B
330
2E9
100
AcDbEntity
  8
17378031__STOP_P
  6
Continuous
 62
     7
100
AcDbSpline
210
0.0
220
0.0
230
1.0
 70
     8
 71
     3
 72
     8
 73
     4
 74
     0
 42
0.0000000060735593
 43
0.0000000001
 40
0.807838556707142
 40
0.807838556707142
 40
0.807838556707142
 40
0.807838556707142
 40
0.9917064438020002
 40
0.9917064438020002
 40
0.9917064438020002
 40
0.9917064438020002
 10
269.7367720652109
 20
418.9403731899816
 30
0.0
 10
269.6490834629239
 20
418.9892126089672
 30
0.0
 10
269.5609242607576
 20
419.0383157501269
 30
0.0
 10
269.472294458712
 20
419.0876826134606
 30
0.0
  0
SPLINE
  5
31C
330
2E9
100
AcDbEntity
  8
17378031__STOP_P
  6
Continuous
 62
     7
100
AcDbSpline
210
0.0
220
0.0
230
1.0
 70
     8
 71
     3
 72
     8
 73
     4
 74
     0
 42
0.0000000057288433
 43
0.0000000001
 40
0.0
 40
0.0
 40
0.0
 40
0.0
 40
0.2233905409175867
 40
0.2233905409175867
 40
0.2233905409175867
 40
0.2233905409175867
 10
250.3407967165009
 20
419.1290847818659
 30
0.0
 10
250.4545470891799
 20
419.066187516861
 30
0.0
 10
250.568295035446
 20
419.003289116047
 30
0.0
 10
250.6820405552992
 20
418.9403895794236
 30
0.0
  0
SPLINE
  5
31D
330
2E9
100
AcDbEntity
  8
17378031__STOP_P
  6
Continuous
 62
     7
100
AcDbSpline
210
0.0
220
0.0
230
1.0
 70
     8
 71
     3
 72
     8
 73
     4
 74
     0
 42
0.0000000057283494
 43
0.0000000001
 40
0.0
 40
0.0
 40
0.0
 40
0.0
 40
0.9896677001188532
 40
0.9896677001188532
 40
0.9896677001188532
 40
0.9896677001188532
 10
250.2490619753291
 20
420.9414795215551
 30
0.0
 10
250.7529400797683
 20
420.6625311237158
 30
0.0
 10
251.2567477541617
 20
420.3835584607838
 30
0.0
 10
251.7604849985094
 20
420.1045615327591
 30
0.0
  0
SPLINE
  5
31E
330
2E9
100
AcDbEntity
  8
17378031__STOP_P
  6
Continuous
 62
     7
100
AcDbSpline
210
0.0
220
0.0
230
1.0
 70
     8
 71
     3
 72
     8
 73
     4
 74
     0
 42
0.0000000075980769
 43
0.0000000001
 40
0.0
 40
0.0
 40
0.0
 40
0.0
 40
1.0
 40
1.0
 40
1.0
 40
1.0
 10
269.5528738547051
 20
421.002888999786
 30
0.0
 10
270.0617004525705
 20
421.2848755279226
 30
0.0
 10
270.4454355485436
 20
421.4975058374044
 30
0.0
 10
270.7040791426244
 20
421.6407799282313
 30
0.0
  0
SPLINE
  5
31F
330
2E9
100
AcDbEntity
  8
17378031__STOP_P
  6
Continuous
 62
     7
100
AcDbSpline
210
0.0
220
0.0
230
1.0
 70
     8
 71
     3
 72
     8
 73
     4
 74
     0
 42
0.0000000057281402
 43
0.0000000001
 40
0.0
 40
0.0
 40
0.0
 40
0.0
 40
1.0
 40
1.0
 40
1.0
 40
1.0
 10
269.4597762760156
 20
419.1908175154369
 30
0.0
 10
269.9688898191421
 20
419.4726093980814
 30
0.0
 10
270.4780477194467
 20
419.7543751932926
 30
0.0
 10
270.9872499769292
 20
420.0361149010706
 30
0.0
  0
LINE
  5
320
330
2E9
100
AcDbEntity
  8
17378031__STOP_P
  6
Continuous
 62
     7
100
AcDbLine
 10
251.7604754405
 20
420.1130359682
 30
0.0
 11
251.7605974943
 21
419.994425678
 31
0.0
  0
LINE
  5
321
330
2E9
100
AcDbEntity
  8
17378031__STOP_P
  6
Continuous
 62
     7
100
AcDbLine
 10
269.5679918455
 20
420.8926813104
 30
0.0
 11
269.5680793235
 21
421.0113150687
 31
0.0
  0
LINE
  5
322
330
2E9
100
AcDbEntity
  8
17378031__STOP_P
  6
Continuous
 62
     7
100
AcDbLine
 10
269.4722838763
 20
419.079299727
 30
0.0
 11
269.472439054
 21
419.1978256721
 31
0.0
  0
LINE
  5
323
330
2E9
100
AcDbEntity
  8
17378031__STOP_P
  6
Continuous
 62
     7
100
AcDbLine
 10
250.3343957463
 20
419.1926663533
 30
0.0
 11
250.3373739371
 21
419.1358390866
 31
0.0
  0
LINE
  5
324
330
2E9
100
AcDbEntity
  8
17378031__STOP_P
  6
Continuous
 62
     7
100
AcDbLine
 10
250.2393096739
 20
421.0070166966
 30
0.0
 11
250.2422610923
 21
420.9507002795
 31
0.0
  0
LINE
  5
325
330
2E9
100
AcDbEntity
  8
17378031__STOP_P
  6
Continuous
 62
     7
100
AcDbLine
 10
270.9909912579
 20
420.0441958841
 30
0.0
 11
270.993848702
 21
420.0987191652
 31
0.0
  0
LINE
  5
326
330
2E9
100
AcDbEntity
  8
17378031__STOP_P
  6
Continuous
 62
     7
100
AcDbLine
 10
270.7279473301
 20
421.6613099627
 30
0.0
 11
270.5956526638
 21
421.7346420937
 31
0.0
  0
LINE
  5
327
330
2E9
100
AcDbEntity
  8
17378031__STOP_P
  6
Continuous
 62
     7
100
AcDbLine
 10
271.3703801162
 20
421.7346420937
 30
0.0
 11
271.3703801162
 21
425.1803795343
 31
0.0
  0
LINE
  5
328
330
2E9
100
AcDbEntity
  8
17378031__STOP_P
  6
Continuous
 62
     7
100
AcDbLine
 10
249.9103801162
 20
425.1803795343
 30
0.0
 11
249.9103801162
 21
421.7346420937
 31
0.0
  0
CIRCLE
  5
32A
330
2E9
100
AcDbEntity
  8
15750031_DICHTUN
  6
Continuous
 62
     7
100
AcDbCircle
 10
260.6403795343
 20
361.9403795343
 30
0.0
 40
5.5
  0
LINE
  5
32B
330
2E9
100
AcDbEntity
  8
410069031__BOX_S
  6
Continuous
 62
     7
100
AcDbLine
 10
280.6403795343
 20
416.4403795343
 30
0.0
 11
247.6403795343
 21
416.4403795343
 31
0.0
  0
LINE
  5
32C
330
2E9
100
AcDbEntity
  8
410069031__BOX_S
  6
Continuous
 62
     7
100
AcDbLine
 10
280.6403795343
 20
418.9403795343
 30
0.0
 11
247.6403795343
 21
418.9403795343
 31
0.0
  0
LINE
  5
32D
330
2E9
100
AcDbEntity
  8
410069031__BOX_S
  6
Continuous
 62
     7
100
AcDbLine
 10
280.6403795343
 20
416.4403795343
 30
0.0
 11
280.6403795343
 21
418.9403795343
 31
0.0
  0
LINE
  5
32E
330
2E9
100
AcDbEntity
  8
410069031__BOX_S
  6
Continuous
 62
     7
100
AcDbLine
 10
280.6403795343
 20
307.4403795343
 30
0.0
 11
247.6403795343
 21
307.4403795343
 31
0.0
  0
LINE
  5
32F
330
2E9
100
AcDbEntity
  8
410069031__BOX_S
  6
Continuous
 62
     7
100
AcDbLine
 10
280.6403795343
 20
304.9403795343
 30
0.0
 11
247.6403795343
 21
304.9403795343
 31
0.0
  0
LINE
  5
330
330
2E9
100
AcDbEntity
  8
410069031__BOX_S
  6
Continuous
 62
     7
100
AcDbLine
 10
280.6403795343
 20
304.9403795343
 30
0.0
 11
280.6403795343
 21
307.4403795343
 31
0.0
  0
LINE
  5
331
330
2E9
100
AcDbEntity
  8
410052031__BOX_0
  6
Continuous
 62
     7
100
AcDbLine
 10
280.6403795343
 20
307.4403795343
 30
0.0
 11
247.6403795343
 21
307.4403795343
 31
0.0
  0
LINE
  5
332
330
2E9
100
AcDbEntity
  8
410052031__BOX_0
  6
Continuous
 62
     7
100
AcDbLine
 10
280.6403795343
 20
308.9403795343
 30
0.0
 11
247.6403795343
 21
308.9403795343
 31
0.0
  0
LINE
  5
333
330
2E9
100
AcDbEntity
  8
410052031__BOX_0
  6
Continuous
 62
     7
100
AcDbLine
 10
280.6403795343
 20
416.4403795343
 30
0.0
 11
247.6403795343
 21
416.4403795343
 31
0.0
  0
LINE
  5
334
330
2E9
100
AcDbEntity
  8
410052031__BOX_0
  6
Continuous
 62
     7
100
AcDbLine
 10
280.6403795343
 20
414.9403795343
 30
0.0
 11
247.6403795343
 21
414.9403795343
 31
0.0
  0
LINE
  5
335
330
2E9
100
AcDbEntity
  8
410052031__BOX_0
  6
Continuous
 62
     7
100
AcDbLine
 10
239.6403795343
 20
315.9403795343
 30
0.0
 11
239.6403795343
 21
327.4398928021
 31
0.0
  0
LINE
  5
336
330
2E9
100
AcDbEntity
  8
410052031__BOX_0
  6
Continuous
 62
     7
100
AcDbLine
 10
239.6403795343
 20
327.4398928021
 30
0.0
 11
239.6403795343
 21
339.0704990875
 31
0.0
  0
LINE
  5
337
330
2E9
100
AcDbEntity
  8
410052031__BOX_0
  6
Continuous
 62
     7
100
AcDbLine
 10
239.6403795343
 20
366.550151763
 30
0.0
 11
239.6403795343
 21
383.4912495864
 31
0.0
  0
LINE
  5
338
330
2E9
100
AcDbEntity
  8
410052031__BOX_0
  6
Continuous
 62
     7
100
AcDbLine
 10
239.6403795343
 20
383.4912495864
 30
0.0
 11
239.6403795343
 21
384.076326
 31
0.0
  0
LINE
  5
339
330
2E9
100
AcDbEntity
  8
410052031__BOX_0
  6
Continuous
 62
     7
100
AcDbLine
 10
239.6403795343
 20
384.076326
 30
0.0
 11
239.6403795343
 21
384.8102599812
 31
0.0
  0
LINE
  5
33A
330
2E9
100
AcDbEntity
  8
410052031__BOX_0
  6
Continuous
 62
     7
100
AcDbLine
 10
239.6403795343
 20
407.9403795343
 30
0.0
 11
239.6403795343
 21
408.7295223444
 31
0.0
  0
LINE
  5
33B
330
2E9
100
AcDbEntity
  8
410052031__BOX_0
  6
Continuous
 62
     7
100
AcDbLine
 10
239.6403795343
 20
408.7295223444
 30
0.0
 11
239.6403795343
 21
409.0987741537
 31
0.0
  0
LINE
  5
33C
330
2E9
100
AcDbEntity
  8
410052031__BOX_0
  6
Continuous
 62
     7
100
AcDbLine
 10
239.6403795343
 20
409.0987741537
 30
0.0
 11
239.6403795343
 21
409.966067625
 31
0.0
  0
LINE
  5
33D
330
2E9
100
AcDbEntity
  8
410052031__BOX_0
  6
Continuous
 62
     7
100
AcDbLine
 10
239.6403795343
 20
409.966067625
 30
0.0
 11
239.6403795343
 21
429.1211871425
 31
0.0
  0
LINE
  5
33E
330
2E9
100
AcDbEntity
  8
410052031__BOX_0
  6
Continuous
 62
     7
100
AcDbLine
 10
239.6403795343
 20
429.1211871425
 30
0.0
 11
239.6403795343
 21
434.7403795343
 31
0.0
  0
LINE
  5
33F
330
2E9
100
AcDbEntity
  8
410052031__BOX_0
  6
Continuous
 62
     7
100
AcDbLine
 10
305.2903795343
 20
305.6470905128
 30
0.0
 11
305.2903795343
 21
305.0505046131
 31
0.0
  0
LINE
  5
340
330
2E9
100
AcDbEntity
  8
410052031__BOX_0
  6
Continuous
 62
     7
100
AcDbLine
 10
313.4139267773
 20
322.5067232281
 30
0.0
 11
305.2903795343
 21
322.5067232281
 31
0.0
  0
LINE
  5
341
330
2E9
100
AcDbEntity
  8
410052031__BOX_0
  6
Continuous
 62
     7
100
AcDbLine
 10
305.2903795343
 20
291.1349675269
 30
0.0
 11
305.2903795343
 21
305.0505046131
 31
0.0
  0
LINE
  5
342
330
2E9
100
AcDbEntity
  8
410052031__BOX_0
  6
Continuous
 62
     7
100
AcDbLine
 10
305.2903795343
 20
305.6470905128
 30
0.0
 11
305.2903795343
 21
322.5067232281
 31
0.0
  0
LINE
  5
343
330
2E9
100
AcDbEntity
  8
410052031__BOX_0
  6
Continuous
 62
     7
100
AcDbLine
 10
247.6403795343
 20
315.9403795343
 30
0.0
 11
247.6403795343
 21
327.4398928021
 31
0.0
  0
LINE
  5
344
330
2E9
100
AcDbEntity
  8
410052031__BOX_0
  6
Continuous
 62
     7
100
AcDbLine
 10
247.6403795343
 20
327.4398928021
 30
0.0
 11
247.6403795343
 21
339.0704990875
 31
0.0
  0
LINE
  5
345
330
2E9
100
AcDbEntity
  8
410052031__BOX_0
  6
Continuous
 62
     7
100
AcDbLine
 10
247.6403795343
 20
339.0704990875
 30
0.0
 11
247.6403795343
 21
339.8044330687
 31
0.0
  0
LINE
  5
346
330
2E9
100
AcDbEntity
  8
410052031__BOX_0
  6
Continuous
 62
     7
100
AcDbLine
 10
239.6403795343
 20
339.8044330687
 30
0.0
 11
239.6403795343
 21
339.0704990875
 31
0.0
  0
LINE
  5
347
330
2E9
100
AcDbEntity
  8
410052031__BOX_0
  6
Continuous
 62
     7
100
AcDbLine
 10
239.6403795343
 20
357.3306073057
 30
0.0
 11
239.6403795343
 21
340.3895094823
 31
0.0
  0
LINE
  5
348
330
2E9
100
AcDbEntity
  8
410052031__BOX_0
  6
Continuous
 62
     7
100
AcDbLine
 10
239.6403795343
 20
340.3895094823
 30
0.0
 11
290.6403795343
 21
340.3895094823
 31
0.0
  0
LINE
  5
349
330
2E9
100
AcDbEntity
  8
410052031__BOX_0
  6
Continuous
 62
     7
100
AcDbLine
 10
247.6403795343
 20
313.8799618082
 30
0.0
 11
247.6403795343
 21
314.6027063675
 31
0.0
  0
LINE
  5
34A
330
2E9
100
AcDbEntity
  8
410052031__BOX_0
  6
Continuous
 62
     7
100
AcDbLine
 10
247.6403795343
 20
294.7248422907
 30
0.0
 11
247.6403795343
 21
313.8799618082
 31
0.0
  0
LINE
  5
34B
330
2E9
100
AcDbEntity
  8
410052031__BOX_0
  6
Continuous
 62
     7
100
AcDbLine
 10
319.1403795343
 20
315.8645573195
 30
0.0
 11
355.1403795343
 21
315.8645573195
 31
0.0
  0
LINE
  5
34C
330
2E9
100
AcDbEntity
  8
410052031__BOX_0
  6
Continuous
 62
     7
100
AcDbLine
 10
355.1403795343
 20
315.8645573195
 30
0.0
 11
355.1403795343
 21
331.1948061652
 31
0.0
  0
LINE
  5
34D
330
2E9
100
AcDbEntity
  8
410052031__BOX_0
  6
Continuous
 62
     7
100
AcDbLine
 10
355.1403795343
 20
331.1948061652
 30
0.0
 11
355.1403795343
 21
338.2214406054
 31
0.0
  0
LINE
  5
34E
330
2E9
100
AcDbEntity
  8
410052031__BOX_0
  6
Continuous
 62
     7
100
AcDbLine
 10
319.1403795343
 20
331.1948061652
 30
0.0
 11
355.1403795343
 21
331.1948061652
 31
0.0
  0
LINE
  5
34F
330
2E9
100
AcDbEntity
  8
410052031__BOX_0
  6
Continuous
 62
     7
100
AcDbLine
 10
355.1403795343
 20
338.2214406054
 30
0.0
 11
355.1403795343
 21
338.6350705717
 31
0.0
  0
LINE
  5
350
330
2E9
100
AcDbEntity
  8
410052031__BOX_0
  6
Continuous
 62
     7
100
AcDbLine
 10
355.1403795343
 20
338.6350705717
 30
0.0
 11
355.1403795343
 21
351.9403795343
 31
0.0
  0
LINE
  5
351
330
2E9
100
AcDbEntity
  8
410052031__BOX_0
  6
Continuous
 62
     7
100
AcDbLine
 10
359.1403795343
 20
351.9403795343
 30
0.0
 11
359.1403795343
 21
360.9403795343
 31
0.0
  0
LINE
  5
352
330
2E9
100
AcDbEntity
  8
410052031__BOX_0
  6
Continuous
 62
     7
100
AcDbLine
 10
359.1403795343
 20
360.9403795343
 30
0.0
 11
359.1403795343
 21
361.9403795343
 31
0.0
  0
LINE
  5
353
330
2E9
100
AcDbEntity
  8
410052031__BOX_0
  6
Continuous
 62
     7
100
AcDbLine
 10
319.1403795343
 20
338.3113187706
 30
0.0
 11
319.1403795343
 21
385.5694402981
 31
0.0
  0
LINE
  5
354
330
2E9
100
AcDbEntity
  8
410052031__BOX_0
  6
Continuous
 62
     7
100
AcDbLine
 10
319.1403795343
 20
385.5694402981
 30
0.0
 11
290.6403795343
 21
385.5694402981
 31
0.0
  0
LINE
  5
355
330
2E9
100
AcDbEntity
  8
410052031__BOX_0
  6
Continuous
 62
     7
100
AcDbLine
 10
319.1403795343
 20
337.8213604433
 30
0.0
 11
319.1403795343
 21
338.3113187706
 31
0.0
  0
LINE
  5
356
330
2E9
100
AcDbEntity
  8
410052031__BOX_0
  6
Continuous
 62
     7
100
AcDbLine
 10
319.1403795343
 20
338.3113187706
 30
0.0
 11
290.6403795343
 21
338.3113187706
 31
0.0
  0
LINE
  5
357
330
2E9
100
AcDbEntity
  8
410052031__BOX_0
  6
Continuous
 62
     7
100
AcDbLine
 10
239.6403795343
 20
340.3895094823
 30
0.0
 11
239.6403795343
 21
339.8044330687
 31
0.0
  0
LINE
  5
358
330
2E9
100
AcDbEntity
  8
410052031__BOX_0
  6
Continuous
 62
     7
100
AcDbLine
 10
247.6403795343
 20
330.6236842807
 30
0.0
 11
319.1403795343
 21
330.6236842807
 31
0.0
  0
LINE
  5
359
330
2E9
100
AcDbEntity
  8
410052031__BOX_0
  6
Continuous
 62
     7
100
AcDbLine
 10
319.1403795343
 20
330.6236842807
 30
0.0
 11
319.1403795343
 21
337.8213604433
 31
0.0
  0
LINE
  5
35A
330
2E9
100
AcDbEntity
  8
410052031__BOX_0
  6
Continuous
 62
     7
100
AcDbLine
 10
239.8403795343
 20
314.972906295
 30
0.0
 11
305.2903795343
 21
314.972906295
 31
0.0
  0
LINE
  5
35B
330
2E9
100
AcDbEntity
  8
410052031__BOX_0
  6
Continuous
 62
     7
100
AcDbLine
 10
313.7903795343
 20
314.972906295
 30
0.0
 11
319.1403795343
 21
314.972906295
 31
0.0
  0
LINE
  5
35C
330
2E9
100
AcDbEntity
  8
410052031__BOX_0
  6
Continuous
 62
     7
100
AcDbLine
 10
319.1403795343
 20
314.972906295
 30
0.0
 11
319.1403795343
 21
330.6236842807
 31
0.0
  0
LINE
  5
35D
330
2E9
100
AcDbEntity
  8
410052031__BOX_0
  6
Continuous
 62
     7
100
AcDbLine
 10
319.1403795343
 20
310.9403795343
 30
0.0
 11
355.1403795343
 21
310.9403795343
 31
0.0
  0
LINE
  5
35E
330
2E9
100
AcDbEntity
  8
410052031__BOX_0
  6
Continuous
 62
     7
100
AcDbLine
 10
355.1403795343
 20
310.9403795343
 30
0.0
 11
355.1403795343
 21
315.8645573195
 31
0.0
  0
LINE
  5
35F
330
2E9
100
AcDbEntity
  8
410052031__BOX_0
  6
Continuous
 62
     7
100
AcDbLine
 10
247.6403795343
 20
288.9403795343
 30
0.0
 11
247.6403795343
 21
294.7248422907
 31
0.0
  0
LINE
  5
360
330
2E9
100
AcDbEntity
  8
410052031__BOX_0
  6
Continuous
 62
     7
100
AcDbLine
 10
247.6403795343
 20
309.9403795343
 30
0.0
 11
305.2903795343
 21
309.9403795343
 31
0.0
  0
LINE
  5
361
330
2E9
100
AcDbEntity
  8
410052031__BOX_0
  6
Continuous
 62
     7
100
AcDbLine
 10
313.2903795343
 20
309.9403795343
 30
0.0
 11
319.1403795343
 21
309.9403795343
 31
0.0
  0
LINE
  5
362
330
2E9
100
AcDbEntity
  8
410052031__BOX_0
  6
Continuous
 62
     7
100
AcDbLine
 10
319.1403795343
 20
309.9403795343
 30
0.0
 11
319.1403795343
 21
314.972906295
 31
0.0
  0
LINE
  5
363
330
2E9
100
AcDbEntity
  8
410052031__BOX_0
  6
Continuous
 62
     7
100
AcDbLine
 10
319.1403795343
 20
413.9403795343
 30
0.0
 11
319.1403795343
 21
408.9078527737
 31
0.0
  0
LINE
  5
364
330
2E9
100
AcDbEntity
  8
410052031__BOX_0
  6
Continuous
 62
     7
100
AcDbLine
 10
319.1403795343
 20
408.9078527737
 30
0.0
 11
319.1403795343
 21
393.257074788
 31
0.0
  0
LINE
  5
365
330
2E9
100
AcDbEntity
  8
410052031__BOX_0
  6
Continuous
 62
     7
100
AcDbLine
 10
319.1403795343
 20
393.257074788
 30
0.0
 11
319.1403795343
 21
386.0593986254
 31
0.0
  0
LINE
  5
366
330
2E9
100
AcDbEntity
  8
410052031__BOX_0
  6
Continuous
 62
     7
100
AcDbLine
 10
319.1403795343
 20
386.0593986254
 30
0.0
 11
319.1403795343
 21
385.5694402981
 31
0.0
  0
LINE
  5
367
330
2E9
100
AcDbEntity
  8
410052031__BOX_0
  6
Continuous
 62
     7
100
AcDbLine
 10
357.1403795343
 20
310.9403795343
 30
0.0
 11
355.1403795343
 21
310.9403795343
 31
0.0
  0
CIRCLE
  5
368
330
2E9
100
AcDbEntity
  8
410052031__BOX_0
  6
Continuous
 62
     7
100
AcDbCircle
 10
260.6403795343
 20
361.9403795343
 30
0.0
 40
20.0
  0
LINE
  5
369
330
2E9
100
AcDbEntity
  8
410052031__BOX_0
  6
Continuous
 62
     7
100
AcDbLine
 10
239.6403795343
 20
366.550151763
 30
0.0
 11
239.6403795343
 21
357.3306073057
 31
0.0
  0
ARC
  5
36A
330
2E9
100
AcDbEntity
  8
410052031__BOX_0
  6
Continuous
 62
     7
100
AcDbCircle
 10
260.6403795343
 20
361.9403795343
 30
0.0
 40
21.50000000000001
100
AcDbArc
 50
192.3807989171
 51
167.6192010829
  0
SPLINE
  5
36B
330
2E9
100
AcDbEntity
  8
410052031__BOX_0
  6
Continuous
 62
     7
100
AcDbSpline
210
0.0
220
0.0
230
1.0
 70
     8
 71
     3
 72
    10
 73
     6
 74
     0
 42
0.000000013120185
 43
0.0000000001
 40
0.0
 40
0.0
 40
0.0
 40
0.0
 40
0.5
 40
0.5
 40
1.0
 40
1.0
 40
1.0
 40
1.0
 10
313.790379534344
 20
314.972906295005
 30
0.0
 10
313.6582900827611
 20
314.972906295005
 30
0.0
 10
313.5291247075522
 20
314.9245998706638
 30
0.0
 10
313.3446358783484
 20
314.7601502631228
 30
0.0
 10
313.290379534344
 20
314.6432603165292
 30
0.0
 10
313.290379534344
 20
314.527079746538
 30
0.0
  0
LINE
  5
36C
330
2E9
100
AcDbEntity
  8
410052031__BOX_0
  6
Continuous
 62
     7
100
AcDbLine
 10
313.2903795343
 20
291.3349675269
 30
0.0
 11
313.2903795343
 21
304.8794236241
 31
0.0
  0
LINE
  5
36D
330
2E9
100
AcDbEntity
  8
410052031__BOX_0
  6
Continuous
 62
     7
100
AcDbLine
 10
313.2903795343
 20
304.8794236241
 30
0.0
 11
313.2903795343
 21
305.5953267037
 31
0.0
  0
LINE
  5
36E
330
2E9
100
AcDbEntity
  8
410052031__BOX_0
  6
Continuous
 62
     7
100
AcDbLine
 10
313.2903795343
 20
305.5953267037
 30
0.0
 11
313.2903795343
 21
321.8178644913
 31
0.0
  0
ARC
  5
36F
330
2E9
100
AcDbEntity
  8
410052031__BOX_0
  6
Continuous
 62
     7
100
AcDbCircle
 10
313.3984535995
 20
321.5324656818
 30
0.0
 40
0.9743804112087484
100
AcDbArc
 50
66.2822812992
 51
89.0901037846
  0
LINE
  5
370
330
2E9
100
AcDbEntity
  8
410052031__BOX_0
  6
Continuous
 62
     7
100
AcDbLine
 10
239.6403795343
 20
294.7595719262
 30
0.0
 11
239.6403795343
 21
289.1403795343
 31
0.0
  0
LINE
  5
371
330
2E9
100
AcDbEntity
  8
410052031__BOX_0
  6
Continuous
 62
     7
100
AcDbLine
 10
239.6403795343
 20
313.9146914437
 30
0.0
 11
239.6403795343
 21
294.7595719262
 31
0.0
  0
LINE
  5
372
330
2E9
100
AcDbEntity
  8
410052031__BOX_0
  6
Continuous
 62
     7
100
AcDbLine
 10
239.6403795343
 20
314.781984915
 30
0.0
 11
239.6403795343
 21
313.9146914437
 31
0.0
  0
SPLINE
  5
373
330
2E9
100
AcDbEntity
  8
410052031__BOX_0
  6
Continuous
 62
     7
100
AcDbSpline
210
0.0
220
0.0
230
1.0
 70
     8
 71
     3
 72
    10
 73
     6
 74
     0
 42
0.0000000327996391
 43
0.0000000001
 40
0.0
 40
0.0
 40
0.0
 40
0.0
 40
0.5
 40
0.5
 40
1.0
 40
1.0
 40
1.0
 40
1.0
 10
239.840379534344
 20
314.972906295005
 30
0.0
 10
239.7875309984684
 20
314.972906295005
 30
0.0
 10
239.7358524134808
 20
314.9922388982598
 30
0.0
 10
239.6620538277096
 20
315.058046280793
 30
0.0
 10
239.640379534344
 20
315.1047077693583
 30
0.0
 10
239.640379534344
 20
315.1512367242503
 30
0.0
  0
LINE
  5
374
330
2E9
100
AcDbEntity
  8
410052031__BOX_0
  6
Continuous
 62
     7
100
AcDbLine
 10
239.6403795343
 20
315.1512367243
 30
0.0
 11
239.6403795343
 21
314.781984915
 31
0.0
  0
LINE
  5
375
330
2E9
100
AcDbEntity
  8
410052031__BOX_0
  6
Continuous
 62
     7
100
AcDbLine
 10
239.6403795343
 20
315.9403795343
 30
0.0
 11
239.6403795343
 21
315.1512367243
 31
0.0
  0
LINE
  5
376
330
2E9
100
AcDbEntity
  8
410052031__BOX_0
  6
Continuous
 62
     7
100
AcDbLine
 10
359.1403795343
 20
351.9403795343
 30
0.0
 11
355.1403795343
 21
351.9403795343
 31
0.0
  0
LINE
  5
377
330
2E9
100
AcDbEntity
  8
410052031__BOX_0
  6
Continuous
 62
     7
100
AcDbLine
 10
359.1403795343
 20
371.9403795343
 30
0.0
 11
359.1403795343
 21
362.9403795343
 31
0.0
  0
LINE
  5
378
330
2E9
100
AcDbEntity
  8
410052031__BOX_0
  6
Continuous
 62
     7
100
AcDbLine
 10
359.1403795343
 20
362.9403795343
 30
0.0
 11
359.1403795343
 21
361.9403795343
 31
0.0
  0
LINE
  5
379
330
2E9
100
AcDbEntity
  8
410052031__BOX_0
  6
Continuous
 62
     7
100
AcDbLine
 10
357.1403795343
 20
311.9403795343
 30
0.0
 11
355.1403795343
 21
311.9403795343
 31
0.0
  0
LINE
  5
37A
330
2E9
100
AcDbEntity
  8
410052031__BOX_0
  6
Continuous
 62
     7
100
AcDbLine
 10
357.1403795343
 20
311.9403795343
 30
0.0
 11
357.1403795343
 21
310.9403795343
 31
0.0
  0
LINE
  5
37B
330
2E9
100
AcDbEntity
  8
410052031__BOX_0
  6
Continuous
 62
     7
100
AcDbLine
 10
355.1403795343
 20
412.9403795343
 30
0.0
 11
355.1403795343
 21
408.0162017491
 31
0.0
  0
LINE
  5
37C
330
2E9
100
AcDbEntity
  8
410052031__BOX_0
  6
Continuous
 62
     7
100
AcDbLine
 10
355.1403795343
 20
408.0162017491
 30
0.0
 11
355.1403795343
 21
392.6859529035
 31
0.0
  0
LINE
  5
37D
330
2E9
100
AcDbEntity
  8
410052031__BOX_0
  6
Continuous
 62
     7
100
AcDbLine
 10
355.1403795343
 20
392.6859529035
 30
0.0
 11
355.1403795343
 21
385.6593184633
 31
0.0
  0
LINE
  5
37E
330
2E9
100
AcDbEntity
  8
410052031__BOX_0
  6
Continuous
 62
     7
100
AcDbLine
 10
355.1403795343
 20
385.6593184633
 30
0.0
 11
355.1403795343
 21
385.2456884969
 31
0.0
  0
LINE
  5
37F
330
2E9
100
AcDbEntity
  8
410052031__BOX_0
  6
Continuous
 62
     7
100
AcDbLine
 10
355.1403795343
 20
385.2456884969
 30
0.0
 11
355.1403795343
 21
371.9403795343
 31
0.0
  0
LINE
  5
380
330
2E9
100
AcDbEntity
  8
410052031__BOX_0
  6
Continuous
 62
     7
100
AcDbLine
 10
247.6403795343
 20
413.9403795343
 30
0.0
 11
305.2903795343
 21
413.9403795343
 31
0.0
  0
LINE
  5
381
330
2E9
100
AcDbEntity
  8
410052031__BOX_0
  6
Continuous
 62
     7
100
AcDbLine
 10
313.2903795343
 20
413.9403795343
 30
0.0
 11
319.1403795343
 21
413.9403795343
 31
0.0
  0
LINE
  5
382
330
2E9
100
AcDbEntity
  8
410052031__BOX_0
  6
Continuous
 62
     7
100
AcDbLine
 10
247.6403795343
 20
434.9403795343
 30
0.0
 11
247.6403795343
 21
429.155916778
 31
0.0
  0
LINE
  5
383
330
2E9
100
AcDbEntity
  8
410052031__BOX_0
  6
Continuous
 62
     7
100
AcDbLine
 10
247.6403795343
 20
429.155916778
 30
0.0
 11
247.6403795343
 21
410.0007972605
 31
0.0
  0
LINE
  5
384
330
2E9
100
AcDbEntity
  8
410052031__BOX_0
  6
Continuous
 62
     7
100
AcDbLine
 10
247.6403795343
 20
410.0007972605
 30
0.0
 11
247.6403795343
 21
409.2780527011
 31
0.0
  0
LINE
  5
385
330
2E9
100
AcDbEntity
  8
410052031__BOX_0
  6
Continuous
 62
     7
100
AcDbLine
 10
305.2903795343
 20
432.7457915418
 30
0.0
 11
305.2903795343
 21
418.8302544556
 31
0.0
  0
LINE
  5
386
330
2E9
100
AcDbEntity
  8
410052031__BOX_0
  6
Continuous
 62
     7
100
AcDbLine
 10
305.2903795343
 20
418.2336685559
 30
0.0
 11
305.2903795343
 21
401.3740358406
 31
0.0
  0
LINE
  5
387
330
2E9
100
AcDbEntity
  8
410052031__BOX_0
  6
Continuous
 62
     7
100
AcDbLine
 10
247.6403795343
 20
407.9403795343
 30
0.0
 11
247.6403795343
 21
396.4408662665
 31
0.0
  0
LINE
  5
388
330
2E9
100
AcDbEntity
  8
410052031__BOX_0
  6
Continuous
 62
     7
100
AcDbLine
 10
247.6403795343
 20
396.4408662665
 30
0.0
 11
247.6403795343
 21
384.8102599812
 31
0.0
  0
LINE
  5
389
330
2E9
100
AcDbEntity
  8
410052031__BOX_0
  6
Continuous
 62
     7
100
AcDbLine
 10
247.6403795343
 20
384.8102599812
 30
0.0
 11
247.6403795343
 21
384.076326
 31
0.0
  0
LINE
  5
38A
330
2E9
100
AcDbEntity
  8
410052031__BOX_0
  6
Continuous
 62
     7
100
AcDbLine
 10
313.2903795343
 20
419.0013354446
 30
0.0
 11
313.2903795343
 21
418.2854323649
 31
0.0
  0
LINE
  5
38B
330
2E9
100
AcDbEntity
  8
410052031__BOX_0
  6
Continuous
 62
     7
100
AcDbLine
 10
313.2903795343
 20
418.2854323649
 30
0.0
 11
313.2903795343
 21
402.0628945774
 31
0.0
  0
LINE
  5
38C
330
2E9
100
AcDbEntity
  8
410052031__BOX_0
  6
Continuous
 62
     7
100
AcDbLine
 10
313.2903795343
 20
432.5457915418
 30
0.0
 11
313.2903795343
 21
419.0013354446
 31
0.0
  0
LINE
  5
38D
330
2E9
100
AcDbEntity
  8
410052031__BOX_0
  6
Continuous
 62
     7
100
AcDbLine
 10
305.2903795343
 20
418.2336685559
 30
0.0
 11
305.2903795343
 21
418.8302544556
 31
0.0
  0
LINE
  5
38E
330
2E9
100
AcDbEntity
  8
410052031__BOX_0
  6
Continuous
 62
     7
100
AcDbLine
 10
239.6403795343
 20
407.9403795343
 30
0.0
 11
239.6403795343
 21
396.4408662665
 31
0.0
  0
LINE
  5
38F
330
2E9
100
AcDbEntity
  8
410052031__BOX_0
  6
Continuous
 62
     7
100
AcDbLine
 10
239.6403795343
 20
396.4408662665
 30
0.0
 11
239.6403795343
 21
384.8102599812
 31
0.0
  0
LINE
  5
390
330
2E9
100
AcDbEntity
  8
410052031__BOX_0
  6
Continuous
 62
     7
100
AcDbLine
 10
319.1403795343
 20
392.6859529035
 30
0.0
 11
355.1403795343
 21
392.6859529035
 31
0.0
  0
LINE
  5
391
330
2E9
100
AcDbEntity
  8
410052031__BOX_0
  6
Continuous
 62
     7
100
AcDbLine
 10
359.1403795343
 20
371.9403795343
 30
0.0
 11
355.1403795343
 21
371.9403795343
 31
0.0
  0
LINE
  5
392
330
2E9
100
AcDbEntity
  8
410052031__BOX_0
  6
Continuous
 62
     7
100
AcDbLine
 10
319.1403795343
 20
361.9403795343
 30
0.0
 11
359.1403795343
 21
361.9403795343
 31
0.0
  0
LINE
  5
393
330
2E9
100
AcDbEntity
  8
410052031__BOX_0
  6
Continuous
 62
     7
100
AcDbLine
 10
239.6403795343
 20
383.4912495864
 30
0.0
 11
290.6403795343
 21
383.4912495864
 31
0.0
  0
LINE
  5
394
330
2E9
100
AcDbEntity
  8
410052031__BOX_0
  6
Continuous
 62
     7
100
AcDbLine
 10
247.6403795343
 20
393.257074788
 30
0.0
 11
319.1403795343
 21
393.257074788
 31
0.0
  0
LINE
  5
395
330
2E9
100
AcDbEntity
  8
410052031__BOX_0
  6
Continuous
 62
     7
100
AcDbLine
 10
313.4139267773
 20
401.3740358406
 30
0.0
 11
305.2903795343
 21
401.3740358406
 31
0.0
  0
LINE
  5
396
330
2E9
100
AcDbEntity
  8
410052031__BOX_0
  6
Continuous
 62
     7
100
AcDbLine
 10
349.6403795343
 20
408.0162017491
 30
0.0
 11
355.1403795343
 21
408.0162017491
 31
0.0
  0
LINE
  5
397
330
2E9
100
AcDbEntity
  8
410052031__BOX_0
  6
Continuous
 62
     7
100
AcDbLine
 10
239.8403795343
 20
408.9078527737
 30
0.0
 11
305.2903795343
 21
408.9078527737
 31
0.0
  0
LINE
  5
398
330
2E9
100
AcDbEntity
  8
410052031__BOX_0
  6
Continuous
 62
     7
100
AcDbLine
 10
313.7903795343
 20
408.9078527737
 30
0.0
 11
319.1403795343
 21
408.9078527737
 31
0.0
  0
LINE
  5
399
330
2E9
100
AcDbEntity
  8
410052031__BOX_0
  6
Continuous
 62
     7
100
AcDbLine
 10
319.1403795343
 20
412.9403795343
 30
0.0
 11
319.6403795343
 21
412.9403795343
 31
0.0
  0
LINE
  5
39A
330
2E9
100
AcDbEntity
  8
410052031__BOX_0
  6
Continuous
 62
     7
100
AcDbLine
 10
349.6403795343
 20
412.9403795343
 30
0.0
 11
355.1403795343
 21
412.9403795343
 31
0.0
  0
LINE
  5
39B
330
2E9
100
AcDbEntity
  8
410052031__BOX_0
  6
Continuous
 62
     7
100
AcDbLine
 10
357.1403795343
 20
411.9403795343
 30
0.0
 11
355.1403795343
 21
411.9403795343
 31
0.0
  0
SPLINE
  5
39C
330
2E9
100
AcDbEntity
  8
410052031__BOX_0
  6
Continuous
 62
     7
100
AcDbSpline
210
0.0
220
0.0
230
1.0
 70
     8
 71
     3
 72
    10
 73
     6
 74
     0
 42
0.000000013120185
 43
0.0000000001
 40
0.0
 40
0.0
 40
0.0
 40
0.0
 40
0.5
 40
0.5
 40
1.0
 40
1.0
 40
1.0
 40
1.0
 10
313.790379534344
 20
408.907852773683
 30
0.0
 10
313.6582900827611
 20
408.907852773683
 30
0.0
 10
313.5291247075522
 20
408.9561591980241
 30
0.0
 10
313.3446358783484
 20
409.1206088055652
 30
0.0
 10
313.290379534344
 20
409.2374987521588
 30
0.0
 10
313.290379534344
 20
409.35367932215
 30
0.0
  0
SPLINE
  5
39D
330
2E9
100
AcDbEntity
  8
410052031__BOX_0
  6
Continuous
 62
     7
100
AcDbSpline
210
0.0
220
0.0
230
1.0
 70
     8
 71
     3
 72
    10
 73
     6
 74
     0
 42
0.0000000327996391
 43
0.0000000001
 40
0.0
 40
0.0
 40
0.0
 40
0.0
 40
0.5
 40
0.5
 40
1.0
 40
1.0
 40
1.0
 40
1.0
 10
239.840379534344
 20
408.907852773683
 30
0.0
 10
239.7875309984684
 20
408.907852773683
 30
0.0
 10
239.7358524134808
 20
408.8885201704282
 30
0.0
 10
239.6620538277096
 20
408.822712787895
 30
0.0
 10
239.640379534344
 20
408.7760512993297
 30
0.0
 10
239.640379534344
 20
408.7295223444377
 30
0.0
  0
LINE
  5
39E
330
2E9
100
AcDbEntity
  8
410052031__BOX_0
  6
Continuous
 62
     7
100
AcDbLine
 10
357.1403795343
 20
411.9403795343
 30
0.0
 11
357.1403795343
 21
412.9403795343
 31
0.0
  0
LINE
  5
39F
330
2E9
100
AcDbEntity
  8
410052031__BOX_0
  6
Continuous
 62
     7
100
AcDbLine
 10
357.1403795343
 20
412.9403795343
 30
0.0
 11
355.1403795343
 21
412.9403795343
 31
0.0
  0
LINE
  5
3A0
330
2E9
100
AcDbEntity
  8
410052031__BOX_0
  6
Continuous
 62
     7
100
AcDbLine
 10
290.6403795343
 20
338.3113187706
 30
0.0
 11
290.6403795343
 21
340.3895094823
 31
0.0
  0
LINE
  5
3A1
330
2E9
100
AcDbEntity
  8
410052031__BOX_0
  6
Continuous
 62
     7
100
AcDbLine
 10
290.6403795343
 20
383.4912495864
 30
0.0
 11
290.6403795343
 21
385.5694402981
 31
0.0
  0
LINE
  5
3A2
330
2E9
100
AcDbEntity
  8
410052031__BOX_0
  6
Continuous
 62
     7
100
AcDbLine
 10
290.6403795343
 20
340.3895094823
 30
0.0
 11
290.6403795343
 21
340.4196346688
 31
0.0
  0
LINE
  5
3A3
330
2E9
100
AcDbEntity
  8
410052031__BOX_0
  6
Continuous
 62
     7
100
AcDbLine
 10
290.6403795343
 20
340.4196346688
 30
0.0
 11
290.6403795343
 21
383.4611243999
 31
0.0
  0
LINE
  5
3A4
330
2E9
100
AcDbEntity
  8
410052031__BOX_0
  6
Continuous
 62
     7
100
AcDbLine
 10
290.6403795343
 20
383.4611243999
 30
0.0
 11
290.6403795343
 21
383.4912495864
 31
0.0
  0
LINE
  5
3A5
330
2E9
100
AcDbEntity
  8
410052031__BOX_0
  6
Continuous
 62
     7
100
AcDbLine
 10
302.6792925778
 20
414.4403795343
 30
0.0
 11
302.6792925778
 21
413.9403795343
 31
0.0
  0
LINE
  5
3A6
330
2E9
100
AcDbEntity
  8
410052031__BOX_0
  6
Continuous
 62
     7
100
AcDbLine
 10
302.6792925778
 20
414.4403795343
 30
0.0
 11
296.7662490996
 21
414.4403795343
 31
0.0
  0
LINE
  5
3A7
330
2E9
100
AcDbEntity
  8
410052031__BOX_0
  6
Continuous
 62
     7
100
AcDbLine
 10
296.7662490996
 20
414.4403795343
 30
0.0
 11
296.7662490996
 21
413.9403795343
 31
0.0
  0
LINE
  5
3A8
330
2E9
100
AcDbEntity
  8
410052031__BOX_0
  6
Continuous
 62
     7
100
AcDbLine
 10
305.2903795343
 20
414.4403795343
 30
0.0
 11
304.578606079
 21
414.4403795343
 31
0.0
  0
LINE
  5
3A9
330
2E9
100
AcDbEntity
  8
410052031__BOX_0
  6
Continuous
 62
     7
100
AcDbLine
 10
304.578606079
 20
414.4403795343
 30
0.0
 11
304.578606079
 21
413.9403795343
 31
0.0
  0
LINE
  5
3AA
330
2E9
100
AcDbEntity
  8
410052031__BOX_0
  6
Continuous
 62
     7
100
AcDbLine
 10
294.8486289623
 20
414.4403795343
 30
0.0
 11
294.8486289623
 21
413.9403795343
 31
0.0
  0
LINE
  5
3AB
330
2E9
100
AcDbEntity
  8
410052031__BOX_0
  6
Continuous
 62
     7
100
AcDbLine
 10
294.8486289623
 20
414.4403795343
 30
0.0
 11
289.3566381156
 21
414.4403795343
 31
0.0
  0
LINE
  5
3AC
330
2E9
100
AcDbEntity
  8
410052031__BOX_0
  6
Continuous
 62
     7
100
AcDbLine
 10
289.3566381156
 20
414.4403795343
 30
0.0
 11
289.3566381156
 21
413.9403795343
 31
0.0
  0
LINE
  5
3AD
330
2E9
100
AcDbEntity
  8
410052031__BOX_0
  6
Continuous
 62
     7
100
AcDbLine
 10
289.3566381156
 20
414.4403795343
 30
0.0
 11
288.9218555069
 21
414.4403795343
 31
0.0
  0
LINE
  5
3AE
330
2E9
100
AcDbEntity
  8
410052031__BOX_0
  6
Continuous
 62
     7
100
AcDbLine
 10
288.9218555069
 20
414.4403795343
 30
0.0
 11
288.9218555069
 21
413.9403795343
 31
0.0
  0
LINE
  5
3AF
330
2E9
100
AcDbEntity
  8
410052031__BOX_0
  6
Continuous
 62
     7
100
AcDbLine
 10
280.6403795343
 20
307.4403795343
 30
0.0
 11
280.6403795343
 21
308.9403795343
 31
0.0
  0
LINE
  5
3B0
330
2E9
100
AcDbEntity
  8
410052031__BOX_0
  6
Continuous
 62
     7
100
AcDbLine
 10
280.6403795343
 20
308.9403795343
 30
0.0
 11
281.6403795343
 21
309.9403795343
 31
0.0
  0
LINE
  5
3B1
330
2E9
100
AcDbEntity
  8
410052031__BOX_0
  6
Continuous
 62
     7
100
AcDbLine
 10
280.6403795343
 20
414.9403795343
 30
0.0
 11
280.6403795343
 21
416.4403795343
 31
0.0
  0
LINE
  5
3B2
330
2E9
100
AcDbEntity
  8
410052031__BOX_0
  6
Continuous
 62
     7
100
AcDbLine
 10
281.6403795343
 20
413.9403795343
 30
0.0
 11
280.6403795343
 21
414.9403795343
 31
0.0
  0
LINE
  5
3B3
330
2E9
100
AcDbEntity
  8
410052031__BOX_0
  6
Continuous
 62
     7
100
AcDbLine
 10
305.2903795343
 20
291.1349675269
 30
0.0
 11
313.0903795343
 21
291.1349675269
 31
0.0
  0
LINE
  5
3B4
330
2E9
100
AcDbEntity
  8
410052031__BOX_0
  6
Continuous
 62
     7
100
AcDbLine
 10
239.6403795343
 20
315.9403795343
 30
0.0
 11
247.6403795343
 21
315.9403795343
 31
0.0
  0
LINE
  5
3B5
330
2E9
100
AcDbEntity
  8
410052031__BOX_0
  6
Continuous
 62
     7
100
AcDbLine
 10
239.8403795343
 20
288.9403795343
 30
0.0
 11
247.6403795343
 21
288.9403795343
 31
0.0
  0
ARC
  5
3B6
330
2E9
100
AcDbEntity
  8
410052031__BOX_0
  6
Continuous
 62
     7
100
AcDbCircle
 10
313.3543779898
 20
311.6356865179
 30
0.0
 40
0.064013625933212
100
AcDbArc
 50
173.4778560098
 51
182.767229697
  0
ARC
  5
3B7
330
2E9
100
AcDbEntity
  8
410052031__BOX_0
  6
Continuous
 62
     7
100
AcDbCircle
 10
313.0903795343
 20
291.3349675269
 30
0.0
 40
0.1999999999999919
100
AcDbArc
 50
270.0
 51
0.0
  0
ARC
  5
3B8
330
2E9
100
AcDbEntity
  8
410052031__BOX_0
  6
Continuous
 62
     7
100
AcDbCircle
 10
239.8403795343
 20
289.1403795343
 30
0.0
 40
0.2000000000000023
100
AcDbArc
 50
180.0
 51
270.0
  0
LINE
  5
3B9
330
2E9
100
AcDbEntity
  8
410052031__BOX_0
  6
Continuous
 62
     7
100
AcDbLine
 10
313.0903795343
 20
432.7457915418
 30
0.0
 11
305.2903795343
 21
432.7457915418
 31
0.0
  0
LINE
  5
3BA
330
2E9
100
AcDbEntity
  8
410052031__BOX_0
  6
Continuous
 62
     7
100
AcDbLine
 10
247.6403795343
 20
407.9403795343
 30
0.0
 11
239.6403795343
 21
407.9403795343
 31
0.0
  0
LINE
  5
3BB
330
2E9
100
AcDbEntity
  8
410052031__BOX_0
  6
Continuous
 62
     7
100
AcDbLine
 10
247.6403795343
 20
434.9403795343
 30
0.0
 11
239.8403795343
 21
434.9403795343
 31
0.0
  0
LINE
  5
3BC
330
2E9
100
AcDbEntity
  8
410052031__BOX_0
  6
Continuous
 62
     7
100
AcDbLine
 10
313.2908428808
 20
412.2439170853
 30
0.0
 11
313.2906252428
 21
412.2481947894
 31
0.0
  0
LINE
  5
3BD
330
2E9
100
AcDbEntity
  8
410052031__BOX_0
  6
Continuous
 62
     7
100
AcDbLine
 10
313.2911540597
 20
412.2378008222
 30
0.0
 11
313.2910796149
 21
412.2392640457
 31
0.0
  0
ARC
  5
3BE
330
2E9
100
AcDbEntity
  8
410052031__BOX_0
  6
Continuous
 62
     7
100
AcDbCircle
 10
313.0903795343
 20
432.5457915418
 30
0.0
 40
0.2000000000000057
100
AcDbArc
 50
0.0
 51
90.0
  0
ARC
  5
3BF
330
2E9
100
AcDbEntity
  8
410052031__BOX_0
  6
Continuous
 62
     7
100
AcDbCircle
 10
239.8403795343
 20
434.7403795343
 30
0.0
 40
0.2000000000000057
100
AcDbArc
 50
90.0
 51
180.0
  0
LINE
  5
3C0
330
2E9
100
AcDbEntity
  8
410052031__BOX_0
  6
Continuous
 62
     7
100
AcDbLine
 10
288.8852422346
 20
414.4403795343
 30
0.0
 11
288.8852422346
 21
413.9403795343
 31
0.0
  0
LINE
  5
3C1
330
2E9
100
AcDbEntity
  8
410052031__BOX_0
  6
Continuous
 62
     7
100
AcDbLine
 10
294.8852422346
 20
413.9403795343
 30
0.0
 11
294.8852422346
 21
414.4403795343
 31
0.0
  0
LINE
  5
3C2
330
2E9
100
AcDbEntity
  8
410052031__BOX_0
  6
Continuous
 62
     7
100
AcDbLine
 10
302.702175873
 20
413.9403795343
 30
0.0
 11
302.702175873
 21
414.4403795343
 31
0.0
  0
LINE
  5
3C4
330
2E9
100
AcDbEntity
  8
410065031__BOX_S
  6
Continuous
 62
     7
100
AcDbLine
 10
319.6403795343
 20
401.1837262075
 30
0.0
 11
319.6403795343
 21
401.0366317531
 31
0.0
  0
LINE
  5
3C5
330
2E9
100
AcDbEntity
  8
410065031__BOX_S
  6
Continuous
 62
     7
100
AcDbLine
 10
349.6403795343
 20
413.1403795343
 30
0.0
 11
349.6403795343
 21
401.1837262075
 31
0.0
  0
LINE
  5
3C6
330
2E9
100
AcDbEntity
  8
410065031__BOX_S
  6
Continuous
 62
     7
100
AcDbLine
 10
319.6403795343
 20
401.1837262075
 30
0.0
 11
349.6403795343
 21
401.1837262075
 31
0.0
  0
LINE
  5
3C7
330
2E9
100
AcDbEntity
  8
410065031__BOX_S
  6
Continuous
 62
     7
100
AcDbLine
 10
319.6403795343
 20
413.1403795343
 30
0.0
 11
349.6403795343
 21
413.1403795343
 31
0.0
  0
ENDBLK
  5
3C9
330
2E9
100
AcDbEntity
  8
0
100
AcDbBlockEnd
  0
BLOCK
  5
4A4
330
3CA
100
AcDbEntity
  8
0
100
AcDbBlockBegin
  2
SE2
 70
     0
 10
0.0
 20
0.0
 30
0.0
  3
SE2
  1

  0
LINE
  5
3CC
330
3CA
100
AcDbEntity
  8
410019031__STOP_
  6
Continuous
 62
     7
100
AcDbLine
 10
6.35
 20
187.85
 30
0.0
 11
6.35
 21
221.85
 31
0.0
  0
ARC
  5
3CD
330
3CA
100
AcDbEntity
  8
410019031__STOP_
  6
Continuous
 62
     7
100
AcDbCircle
 10
15.1107688436
 20
189.7270313864
 30
0.0
 40
8.48519499763443
100
AcDbArc
 50
152.3019170883
 51
207.6980829117
  0
SPLINE
  5
3CE
330
3CA
100
AcDbEntity
  8
410019031__STOP_
  6
Continuous
 62
     7
100
AcDbSpline
210
0.0
220
0.0
230
1.0
 70
     8
 71
     3
 72
    12
 73
     8
 74
     0
 42
0.0000000088741498
 43
0.0000000001
 40
0.5007499675255821
 40
0.5007499675255821
 40
0.5007499675255821
 40
0.5007499675255821
 40
0.6249999999999992
 40
0.6249999999999992
 40
0.7499999999999993
 40
0.7499999999999993
 40
1.0
 40
1.0
 40
1.0
 40
1.0
 10
7.837309772721526
 20
185.2739039109091
 30
0.0
 10
7.837309009352866
 20
185.2739056401985
 30
0.0
 10
7.832200375268244
 20
185.2848926737664
 30
0.0
 10
7.811764488437123
 20
185.3287550832216
 30
0.0
 10
7.796520950212299
 20
185.3614495280918
 30
0.0
 10
7.736245997644331
 20
185.4902977314805
 30
0.0
 10
7.67595980016117
 20
185.6187895859357
 30
0.0
 10
7.597899310143625
 20
185.7830073600126
 30
0.0
  0
LINE
  5
3CF
330
3CA
100
AcDbEntity
  8
410019031__STOP_
  6
Continuous
 62
     7
100
AcDbLine
 10
19.35
 20
193.6710554128
 30
0.0
 11
7.5978993101
 21
193.6710554128
 31
0.0
  0
SPLINE
  5
3D0
330
3CA
100
AcDbEntity
  8
410019031__STOP_
  6
Continuous
 62
     7
100
AcDbSpline
210
0.0
220
0.0
230
1.0
 70
     8
 71
     3
 72
    18
 73
    14
 74
     0
 42
0.0000000006273483
 43
0.0000000001
 40
0.0
 40
0.0
 40
0.0
 40
0.0
 40
0.1250000000000001
 40
0.1250000000000001
 40
0.2500000000000001
 40
0.2500000000000001
 40
0.5
 40
0.5
 40
0.625
 40
0.625
 40
0.75
 40
0.75
 40
1.0
 40
1.0
 40
1.0
 40
1.0
 10
7.597899310143319
 20
196.961951947198
 30
0.0
 10
7.443477720752489
 20
197.6116729436585
 30
0.0
 10
7.304067290969107
 20
198.265185884749
 30
0.0
 10
7.061293967623838
 20
199.5726894894526
 30
0.0
 10
6.957675844877248
 20
200.2277971311945
 30
0.0
 10
6.705821388442446
 20
202.1976220813059
 30
0.0
 10
6.617336443933114
 20
203.5168987565088
 30
0.0
 10
6.616869776022299
 20
205.5059060078361
 30
0.0
 10
6.638584499375433
 20
206.1705772501819
 30
0.0
 10
6.725568483836736
 20
207.5032431909069
 30
0.0
 10
6.7910502922435
 20
208.1715709955008
 30
0.0
 10
7.045447051544085
 20
210.153399951852
 30
0.0
 10
7.292619169837533
 20
211.4535973633519
 30
0.0
 10
7.597899310143625
 20
212.7380480528032
 30
0.0
  0
ARC
  5
3D1
330
3CA
100
AcDbEntity
  8
410019031__STOP_
  6
Continuous
 62
     7
100
AcDbCircle
 10
2.2136883008
 20
195.31650368
 30
0.0
 40
5.630029146717812
100
AcDbArc
 50
343.0065228086
 51
16.9934771914
  0
LINE
  5
3D2
330
3CA
100
AcDbEntity
  8
410019031__STOP_
  6
Continuous
 62
     7
100
AcDbLine
 10
7.5978993101
 20
196.9619519472
 30
0.0
 11
19.35
 21
196.9619519472
 31
0.0
  0
LINE
  5
3D3
330
3CA
100
AcDbEntity
  8
410019031__STOP_
  6
Continuous
 62
     7
100
AcDbLine
 10
19.35
 20
212.7380480528
 30
0.0
 11
7.5978993101
 21
212.7380480528
 31
0.0
  0
ARC
  5
3D4
330
3CA
100
AcDbEntity
  8
410019031__STOP_
  6
Continuous
 62
     7
100
AcDbCircle
 10
15.1107688436
 20
219.9729686136
 30
0.0
 40
8.485194997634377
100
AcDbArc
 50
152.3019170883
 51
207.6980829117
  0
ARC
  5
3D5
330
3CA
100
AcDbEntity
  8
410019031__STOP_
  6
Continuous
 62
     7
100
AcDbCircle
 10
2.2142053399
 20
214.38349632
 30
0.0
 40
5.629534684587536
100
AcDbArc
 50
343.0049848413
 51
16.9950151587
  0
LINE
  5
3D6
330
3CA
100
AcDbEntity
  8
410019031__STOP_
  6
Continuous
 62
     7
100
AcDbLine
 10
7.5978993101
 20
216.0289445872
 30
0.0
 11
19.35
 21
216.0289445872
 31
0.0
  0
SPLINE
  5
3D7
330
3CA
100
AcDbEntity
  8
410019031__STOP_
  6
Continuous
 62
     7
100
AcDbSpline
210
0.0
220
0.0
230
1.0
 70
     8
 71
     3
 72
    14
 73
    10
 74
     0
 42
0.0000000089008107
 43
0.0000000001
 40
0.0
 40
0.0
 40
0.0
 40
0.0
 40
0.2499999999999995
 40
0.2499999999999995
 40
0.3749999999999996
 40
0.3749999999999996
 40
0.4999999999999997
 40
0.4999999999999997
 40
0.5007499675256937
 40
0.5007499675256937
 40
0.5007499675256937
 40
0.5007499675256937
 10
7.597899310143486
 20
223.9169926399871
 30
0.0
 10
7.675941628609323
 20
224.0811721861319
 30
0.0
 10
7.735196757347129
 20
224.2074640440396
 30
0.0
 10
7.796137992220537
 20
224.3377295300996
 30
0.0
 10
7.811655497403564
 20
224.3710112397753
 30
0.0
 10
7.832110214336552
 20
224.4149135581683
 30
0.0
 10
7.837247961222399
 20
224.4259632414676
 30
0.0
 10
7.837309595843098
 20
224.426095709742
 30
0.0
 10
7.837309777329188
 20
224.4260960995288
 30
0.0
 10
7.837309772721526
 20
224.4260960890909
 30
0.0
  0
LINE
  5
3D8
330
3CA
100
AcDbEntity
  8
410019031__STOP_
  6
Continuous
 62
     7
100
AcDbLine
 10
7.83730978
 20
224.4260961056
 30
0.0
 11
6.35
 21
221.85
 31
0.0
  0
LINE
  5
3D9
330
3CA
100
AcDbEntity
  8
410019031__STOP_
  6
Continuous
 62
     7
100
AcDbLine
 10
6.35
 20
187.85
 30
0.0
 11
7.83730978
 21
185.2739038944
 31
0.0
  0
LINE
  5
3DA
330
3CA
100
AcDbEntity
  8
410019031__STOP_
  6
Continuous
 62
     7
100
AcDbLine
 10
7.8320312807
 20
185.2739038944
 30
0.0
 11
19.35
 21
185.2739038944
 31
0.0
  0
LINE
  5
3DB
330
3CA
100
AcDbEntity
  8
410019031__STOP_
  6
Continuous
 62
     7
100
AcDbLine
 10
10.45
 20
224.4260961056
 30
0.0
 11
7.8320312807
 21
224.4260961056
 31
0.0
  0
ARC
  5
3DC
330
3CA
100
AcDbEntity
  8
17378031__STOP_P
  6
Continuous
 62
     7
100
AcDbCircle
 10
86.3115826042
 20
195.9499994181
 30
0.0
 40
2.199999999999989
100
AcDbArc
 50
210.0
 51
270.0
  0
LINE
  5
3DD
330
3CA
100
AcDbEntity
  8
17378031__STOP_P
  6
Continuous
 62
     7
100
AcDbLine
 10
103.6320906799
 20
205.9499994181
 30
0.0
 11
101.062881982
 21
210.3999994181
 31
0.0
  0
LINE
  5
3DE
330
3CA
100
AcDbEntity
  8
17378031__STOP_P
  6
Continuous
 62
     7
100
AcDbLine
 10
101.062881982
 20
210.3999994181
 30
0.0
 11
98.4936732841
 21
214.8499994181
 31
0.0
  0
LINE
  5
3DF
330
3CA
100
AcDbEntity
  8
17378031__STOP_P
  6
Continuous
 62
     7
100
AcDbLine
 10
96.5884173958
 20
215.9499994181
 30
0.0
 11
91.45
 21
215.9499994181
 31
0.0
  0
LINE
  5
3E0
330
3CA
100
AcDbEntity
  8
17378031__STOP_P
  6
Continuous
 62
     7
100
AcDbLine
 10
91.45
 20
215.9499994181
 30
0.0
 11
86.3115826042
 21
215.9499994181
 31
0.0
  0
LINE
  5
3E1
330
3CA
100
AcDbEntity
  8
17378031__STOP_P
  6
Continuous
 62
     7
100
AcDbLine
 10
84.4063267159
 20
214.8499994181
 30
0.0
 11
81.837118018
 21
210.3999994181
 31
0.0
  0
LINE
  5
3E2
330
3CA
100
AcDbEntity
  8
17378031__STOP_P
  6
Continuous
 62
     7
100
AcDbLine
 10
81.837118018
 20
210.3999994181
 30
0.0
 11
79.2679093201
 21
205.9499994181
 31
0.0
  0
LINE
  5
3E3
330
3CA
100
AcDbEntity
  8
17378031__STOP_P
  6
Continuous
 62
     7
100
AcDbLine
 10
79.2679093201
 20
203.7499994181
 30
0.0
 11
81.837118018
 21
199.2999994181
 31
0.0
  0
LINE
  5
3E4
330
3CA
100
AcDbEntity
  8
17378031__STOP_P
  6
Continuous
 62
     7
100
AcDbLine
 10
81.837118018
 20
199.2999994181
 30
0.0
 11
84.4063267159
 21
194.8499994181
 31
0.0
  0
LINE
  5
3E5
330
3CA
100
AcDbEntity
  8
17378031__STOP_P
  6
Continuous
 62
     7
100
AcDbLine
 10
86.3115826042
 20
193.7499994181
 30
0.0
 11
91.45
 21
193.7499994181
 31
0.0
  0
LINE
  5
3E6
330
3CA
100
AcDbEntity
  8
17378031__STOP_P
  6
Continuous
 62
     7
100
AcDbLine
 10
91.45
 20
193.7499994181
 30
0.0
 11
96.5884173958
 21
193.7499994181
 31
0.0
  0
LINE
  5
3E7
330
3CA
100
AcDbEntity
  8
17378031__STOP_P
  6
Continuous
 62
     7
100
AcDbLine
 10
98.4936732841
 20
194.8499994181
 30
0.0
 11
101.062881982
 21
199.2999994181
 31
0.0
  0
LINE
  5
3E8
330
3CA
100
AcDbEntity
  8
17378031__STOP_P
  6
Continuous
 62
     7
100
AcDbLine
 10
101.062881982
 20
199.2999994181
 30
0.0
 11
103.6320906799
 21
203.7499994181
 31
0.0
  0
ARC
  5
3E9
330
3CA
100
AcDbEntity
  8
17378031__STOP_P
  6
Continuous
 62
     7
100
AcDbCircle
 10
101.7268347916
 20
204.8499994181
 30
0.0
 40
2.199999999999994
100
AcDbArc
 50
330.0
 51
30.0
  0
ARC
  5
3EA
330
3CA
100
AcDbEntity
  8
17378031__STOP_P
  6
Continuous
 62
     7
100
AcDbCircle
 10
91.45
 20
204.8499994181
 30
0.0
 40
11.1
100
AcDbArc
 50
330.0
 51
30.0
  0
ARC
  5
3EB
330
3CA
100
AcDbEntity
  8
17378031__STOP_P
  6
Continuous
 62
     7
100
AcDbCircle
 10
91.45
 20
204.8499994181
 30
0.0
 40
11.1
100
AcDbArc
 50
30.0
 51
90.0
  0
ARC
  5
3EC
330
3CA
100
AcDbEntity
  8
17378031__STOP_P
  6
Continuous
 62
     7
100
AcDbCircle
 10
96.5884173958
 20
213.7499994181
 30
0.0
 40
2.200000000000001
100
AcDbArc
 50
30.0
 51
90.0
  0
ARC
  5
3ED
330
3CA
100
AcDbEntity
  8
17378031__STOP_P
  6
Continuous
 62
     7
100
AcDbCircle
 10
91.45
 20
204.8499994181
 30
0.0
 40
11.1
100
AcDbArc
 50
90.0
 51
150.0
  0
ARC
  5
3EE
330
3CA
100
AcDbEntity
  8
17378031__STOP_P
  6
Continuous
 62
     7
100
AcDbCircle
 10
86.3115826042
 20
213.7499994181
 30
0.0
 40
2.200000000000002
100
AcDbArc
 50
90.0
 51
150.0
  0
ARC
  5
3EF
330
3CA
100
AcDbEntity
  8
17378031__STOP_P
  6
Continuous
 62
     7
100
AcDbCircle
 10
96.5884173958
 20
195.9499994181
 30
0.0
 40
2.2
100
AcDbArc
 50
270.0
 51
330.0
  0
ARC
  5
3F0
330
3CA
100
AcDbEntity
  8
17378031__STOP_P
  6
Continuous
 62
     7
100
AcDbCircle
 10
91.45
 20
204.8499994181
 30
0.0
 40
11.1
100
AcDbArc
 50
270.0
 51
330.0
  0
ARC
  5
3F1
330
3CA
100
AcDbEntity
  8
17378031__STOP_P
  6
Continuous
 62
     7
100
AcDbCircle
 10
91.45
 20
204.8499994181
 30
0.0
 40
11.1
100
AcDbArc
 50
150.0
 51
210.0
  0
ARC
  5
3F2
330
3CA
100
AcDbEntity
  8
17378031__STOP_P
  6
Continuous
 62
     7
100
AcDbCircle
 10
81.1731652084
 20
204.8499994181
 30
0.0
 40
2.199999999999994
100
AcDbArc
 50
150.0
 51
210.0
  0
ARC
  5
3F3
330
3CA
100
AcDbEntity
  8
17378031__STOP_P
  6
Continuous
 62
     7
100
AcDbCircle
 10
91.45
 20
204.8499994181
 30
0.0
 40
11.1
100
AcDbArc
 50
210.0
 51
270.0
  0
CIRCLE
  5
3F4
330
3CA
100
AcDbEntity
  8
410069031__BOX_S
  6
Continuous
 62
     7
100
AcDbCircle
 10
91.45
 20
204.85
 30
0.0
 40
20.0
  0
CIRCLE
  5
3F5
330
3CA
100
AcDbEntity
  8
410069031__BOX_S
  6
Continuous
 62
     7
100
AcDbCircle
 10
91.45
 20
204.85
 30
0.0
 40
14.25
  0
LINE
  5
3F6
330
3CA
100
AcDbEntity
  8
410052031__BOX_0
  6
Continuous
 62
     7
100
AcDbLine
 10
164.4351098376
 20
146.35
 30
0.0
 11
160.5042811521
 21
146.35
 31
0.0
  0
LINE
  5
3F7
330
3CA
100
AcDbEntity
  8
410052031__BOX_0
  6
Continuous
 62
     7
100
AcDbLine
 10
163.442056724
 20
146.35
 30
0.0
 11
163.442056724
 21
106.35
 31
0.0
  0
LINE
  5
3F8
330
3CA
100
AcDbEntity
  8
410052031__BOX_0
  6
Continuous
 62
     7
100
AcDbLine
 10
163.45
 20
184.85
 30
0.0
 11
163.45
 21
217.85
 31
0.0
  0
LINE
  5
3F9
330
3CA
100
AcDbEntity
  8
410052031__BOX_0
  6
Continuous
 62
     7
100
AcDbLine
 10
162.35
 20
184.85
 30
0.0
 11
162.35
 21
217.85
 31
0.0
  0
LINE
  5
3FA
330
3CA
100
AcDbEntity
  8
410052031__BOX_0
  6
Continuous
 62
     7
100
AcDbLine
 10
65.5839664513
 20
146.35
 30
0.0
 11
117.3160335487
 21
146.35
 31
0.0
  0
LINE
  5
3FB
330
3CA
100
AcDbEntity
  8
410052031__BOX_0
  6
Continuous
 62
     7
100
AcDbLine
 10
142.7291982549
 20
225.85
 30
0.0
 11
164.8399098008
 21
225.85
 31
0.0
  0
LINE
  5
3FC
330
3CA
100
AcDbEntity
  8
410052031__BOX_0
  6
Continuous
 62
     7
100
AcDbLine
 10
164.8399098008
 20
225.85
 30
0.0
 11
172.45
 21
225.85
 31
0.0
  0
LINE
  5
3FD
330
3CA
100
AcDbEntity
  8
410052031__BOX_0
  6
Continuous
 62
     7
100
AcDbLine
 10
142.6646002356
 20
160.2
 30
0.0
 11
142.3964259145
 21
160.2
 31
0.0
  0
LINE
  5
3FE
330
3CA
100
AcDbEntity
  8
410052031__BOX_0
  6
Continuous
 62
     7
100
AcDbLine
 10
131.105395701
 20
152.3996246497
 30
0.0
 11
131.105395701
 21
160.2
 31
0.0
  0
LINE
  5
3FF
330
3CA
100
AcDbEntity
  8
410052031__BOX_0
  6
Continuous
 62
     7
100
AcDbLine
 10
131.105395701
 20
160.2
 30
0.0
 11
130.0901722505
 21
160.2
 31
0.0
  0
LINE
  5
400
330
3CA
100
AcDbEntity
  8
410052031__BOX_0
  6
Continuous
 62
     7
100
AcDbLine
 10
130.0901722505
 20
160.2
 30
0.0
 11
130.0901722505
 21
151.7
 31
0.0
  0
LINE
  5
401
330
3CA
100
AcDbEntity
  8
410052031__BOX_0
  6
Continuous
 62
     7
100
AcDbLine
 10
131.105395701
 20
160.2
 30
0.0
 11
142.3964259145
 21
160.2
 31
0.0
  0
LINE
  5
402
330
3CA
100
AcDbEntity
  8
410052031__BOX_0
  6
Continuous
 62
     7
100
AcDbLine
 10
142.6646002356
 20
160.2
 30
0.0
 11
157.6646002356
 21
160.2
 31
0.0
  0
LINE
  5
403
330
3CA
100
AcDbEntity
  8
410052031__BOX_0
  6
Continuous
 62
     7
100
AcDbLine
 10
143.0526325374
 20
217.85
 30
0.0
 11
164.8399098008
 21
217.85
 31
0.0
  0
LINE
  5
404
330
3CA
100
AcDbEntity
  8
410052031__BOX_0
  6
Continuous
 62
     7
100
AcDbLine
 10
164.8399098008
 20
217.85
 30
0.0
 11
172.45
 21
217.85
 31
0.0
  0
LINE
  5
405
330
3CA
100
AcDbEntity
  8
410052031__BOX_0
  6
Continuous
 62
     7
100
AcDbLine
 10
160.85
 20
217.85
 30
0.0
 11
160.85
 21
174.85
 31
0.0
  0
LINE
  5
406
330
3CA
100
AcDbEntity
  8
410052031__BOX_0
  6
Continuous
 62
     7
100
AcDbLine
 10
136.7212186607
 20
217.85
 30
0.0
 11
137.2627656993
 21
217.85
 31
0.0
  0
LINE
  5
407
330
3CA
100
AcDbEntity
  8
410052031__BOX_0
  6
Continuous
 62
     7
100
AcDbLine
 10
133.3436542711
 20
217.85
 30
0.0
 11
136.7212186607
 21
217.85
 31
0.0
  0
LINE
  5
408
330
3CA
100
AcDbEntity
  8
410052031__BOX_0
  6
Continuous
 62
     7
100
AcDbLine
 10
137.5417626638
 20
115.85
 30
0.0
 11
137.5417626638
 21
110.35
 31
0.0
  0
LINE
  5
409
330
3CA
100
AcDbEntity
  8
410052031__BOX_0
  6
Continuous
 62
     7
100
AcDbLine
 10
137.5417626638
 20
110.35
 30
0.0
 11
155.5325949957
 21
110.35
 31
0.0
  0
LINE
  5
40A
330
3CA
100
AcDbEntity
  8
410052031__BOX_0
  6
Continuous
 62
     7
100
AcDbLine
 10
155.5325949957
 20
110.35
 30
0.0
 11
159.3973987309
 21
110.35
 31
0.0
  0
LINE
  5
40B
330
3CA
100
AcDbEntity
  8
410052031__BOX_0
  6
Continuous
 62
     7
100
AcDbLine
 10
155.5325949957
 20
146.35
 30
0.0
 11
155.5325949957
 21
110.35
 31
0.0
  0
LINE
  5
40C
330
3CA
100
AcDbEntity
  8
410052031__BOX_0
  6
Continuous
 62
     7
100
AcDbLine
 10
159.3973987309
 20
110.35
 30
0.0
 11
159.5581391061
 21
110.35
 31
0.0
  0
LINE
  5
40D
330
3CA
100
AcDbEntity
  8
410052031__BOX_0
  6
Continuous
 62
     7
100
AcDbLine
 10
159.5581391061
 20
110.35
 30
0.0
 11
162.7371379587
 21
110.35
 31
0.0
  0
LINE
  5
40E
330
3CA
100
AcDbEntity
  8
410052031__BOX_0
  6
Continuous
 62
     7
100
AcDbLine
 10
162.7371379587
 20
106.35
 30
0.0
 11
163.4281636216
 21
106.35
 31
0.0
  0
LINE
  5
40F
330
3CA
100
AcDbEntity
  8
410052031__BOX_0
  6
Continuous
 62
     7
100
AcDbLine
 10
163.4281636216
 20
106.35
 30
0.0
 11
163.442056724
 21
106.35
 31
0.0
  0
LINE
  5
410
330
3CA
100
AcDbEntity
  8
410052031__BOX_0
  6
Continuous
 62
     7
100
AcDbLine
 10
160.31387888
 20
146.35
 30
0.0
 11
160.5042811521
 21
146.35
 31
0.0
  0
LINE
  5
411
330
3CA
100
AcDbEntity
  8
410052031__BOX_0
  6
Continuous
 62
     7
100
AcDbLine
 10
156.3535719295
 20
217.85
 30
0.0
 11
156.3535719295
 21
160.2
 31
0.0
  0
LINE
  5
412
330
3CA
100
AcDbEntity
  8
410052031__BOX_0
  6
Continuous
 62
     7
100
AcDbLine
 10
156.3535719295
 20
152.2
 30
0.0
 11
156.3535719295
 21
146.35
 31
0.0
  0
LINE
  5
413
330
3CA
100
AcDbEntity
  8
410052031__BOX_0
  6
Continuous
 62
     7
100
AcDbLine
 10
156.3535719295
 20
146.35
 30
0.0
 11
160.31387888
 21
146.35
 31
0.0
  0
LINE
  5
414
330
3CA
100
AcDbEntity
  8
410052031__BOX_0
  6
Continuous
 62
     7
100
AcDbLine
 10
137.9945509728
 20
225.65
 30
0.0
 11
137.9945509728
 21
160.2
 31
0.0
  0
LINE
  5
415
330
3CA
100
AcDbEntity
  8
410052031__BOX_0
  6
Continuous
 62
     7
100
AcDbLine
 10
137.9945509728
 20
151.7
 30
0.0
 11
137.9945509728
 21
146.35
 31
0.0
  0
LINE
  5
416
330
3CA
100
AcDbEntity
  8
410052031__BOX_0
  6
Continuous
 62
     7
100
AcDbLine
 10
137.9945509728
 20
146.35
 30
0.0
 11
156.3535719295
 21
146.35
 31
0.0
  0
LINE
  5
417
330
3CA
100
AcDbEntity
  8
410052031__BOX_0
  6
Continuous
 62
     7
100
AcDbLine
 10
143.0526325374
 20
217.85
 30
0.0
 11
143.0526325374
 21
225.65
 31
0.0
  0
LINE
  5
418
330
3CA
100
AcDbEntity
  8
410052031__BOX_0
  6
Continuous
 62
     7
100
AcDbLine
 10
117.3160335487
 20
110.35
 30
0.0
 11
137.5417626638
 21
110.35
 31
0.0
  0
LINE
  5
419
330
3CA
100
AcDbEntity
  8
410052031__BOX_0
  6
Continuous
 62
     7
100
AcDbLine
 10
120.71593569
 20
217.85
 30
0.0
 11
133.3436542711
 21
217.85
 31
0.0
  0
LINE
  5
41A
330
3CA
100
AcDbEntity
  8
410052031__BOX_0
  6
Continuous
 62
     7
100
AcDbLine
 10
117.3160335487
 20
146.35
 30
0.0
 11
137.9945509728
 21
146.35
 31
0.0
  0
LINE
  5
41B
330
3CA
100
AcDbEntity
  8
410052031__BOX_0
  6
Continuous
 62
     7
100
AcDbLine
 10
108.4002573375
 20
217.85
 30
0.0
 11
120.71593569
 21
217.85
 31
0.0
  0
LINE
  5
41C
330
3CA
100
AcDbEntity
  8
410052031__BOX_0
  6
Continuous
 62
     7
100
AcDbLine
 10
101.45
 20
108.35
 30
0.0
 11
101.45
 21
110.35
 31
0.0
  0
LINE
  5
41D
330
3CA
100
AcDbEntity
  8
410052031__BOX_0
  6
Continuous
 62
     7
100
AcDbLine
 10
101.45
 20
110.35
 30
0.0
 11
117.3160335487
 21
110.35
 31
0.0
  0
LINE
  5
41E
330
3CA
100
AcDbEntity
  8
410052031__BOX_0
  6
Continuous
 62
     7
100
AcDbLine
 10
107.8829787926
 20
217.85
 30
0.0
 11
108.4002573375
 21
217.85
 31
0.0
  0
ARC
  5
41F
330
3CA
100
AcDbEntity
  8
410052031__BOX_0
  6
Continuous
 62
     7
100
AcDbCircle
 10
91.45
 20
204.85
 30
0.0
 40
20.99999999999999
100
AcDbArc
 50
141.7533801217
 51
38.2466198783
  0
LINE
  5
420
330
3CA
100
AcDbEntity
  8
410052031__BOX_0
  6
Continuous
 62
     7
100
AcDbLine
 10
107.8829787926
 20
217.85
 30
0.0
 11
107.5811052932
 21
218.2957220714
 31
0.0
  0
ARC
  5
421
330
3CA
100
AcDbEntity
  8
410052031__BOX_0
  6
Continuous
 62
     7
100
AcDbCircle
 10
91.45
 20
204.85
 30
0.0
 40
21.00000000000001
100
AcDbArc
 50
39.8121406174
 51
82.0861418377
  0
LINE
  5
422
330
3CA
100
AcDbEntity
  8
410052031__BOX_0
  6
Continuous
 62
     7
100
AcDbLine
 10
94.3551678093
 20
225.85
 30
0.0
 11
88.5448321907
 21
225.85
 31
0.0
  0
LINE
  5
423
330
3CA
100
AcDbEntity
  8
410052031__BOX_0
  6
Continuous
 62
     7
100
AcDbLine
 10
161.727206964
 20
106.35
 30
0.0
 11
161.727206964
 21
110.35
 31
0.0
  0
SPLINE
  5
424
330
3CA
100
AcDbEntity
  8
410052031__BOX_0
  6
Continuous
 62
     7
100
AcDbSpline
210
0.0
220
0.0
230
1.0
 70
     8
 71
     3
 72
    10
 73
     6
 74
     0
 42
0.0000000165156639
 43
0.0000000001
 40
0.0
 40
0.0
 40
0.0
 40
0.0
 40
0.5
 40
0.5
 40
1.0
 40
1.0
 40
1.0
 40
1.0
 10
137.9945509728471
 20
151.6999999999999
 30
0.0
 10
137.9945509728471
 20
151.8320894515828
 30
0.0
 10
138.0190811685539
 20
151.9612548267918
 30
0.0
 10
138.1025889949686
 20
152.1457436559955
 30
0.0
 10
138.161945757956
 20
152.2
 30
0.0
 10
138.2209420694024
 20
152.2
 30
0.0
  0
LINE
  5
425
330
3CA
100
AcDbEntity
  8
410052031__BOX_0
  6
Continuous
 62
     7
100
AcDbLine
 10
131.2689351473
 20
152.2
 30
0.0
 11
142.5426966549
 21
152.2
 31
0.0
  0
LINE
  5
426
330
3CA
100
AcDbEntity
  8
410052031__BOX_0
  6
Continuous
 62
     7
100
AcDbLine
 10
142.5426966549
 20
152.2
 30
0.0
 11
142.8646002356
 21
152.2
 31
0.0
  0
LINE
  5
427
330
3CA
100
AcDbEntity
  8
410052031__BOX_0
  6
Continuous
 62
     7
100
AcDbLine
 10
142.8646002356
 20
152.2
 30
0.0
 11
157.4646002356
 21
152.2
 31
0.0
  0
SPLINE
  5
428
330
3CA
100
AcDbEntity
  8
410052031__BOX_0
  6
Continuous
 62
     7
100
AcDbSpline
210
0.0
220
0.0
230
1.0
 70
     8
 71
     3
 72
    53
 73
    49
 74
     0
 42
0.0000000071855237
 43
0.0000000001
 40
0.0
 40
0.0
 40
0.0
 40
0.0
 40
0.2805578459827756
 40
0.2805578459827756
 40
0.2805578459827756
 40
0.3758908726935927
 40
0.3758908726935927
 40
0.3758908726935927
 40
0.4196446642699859
 40
0.4196446642699859
 40
0.4196446642699859
 40
0.4465984729395043
 40
0.4465984729395043
 40
0.4465984729395043
 40
0.4644343548493648
 40
0.4644343548493648
 40
0.4644343548493648
 40
0.4796492610425216
 40
0.4796492610425216
 40
0.4796492610425216
 40
0.4901427811534535
 40
0.4901427811534535
 40
0.4901427811534535
 40
0.4951068964343082
 40
0.4951068964343082
 40
0.4951068964343082
 40
0.4992589276364983
 40
0.4992589276364983
 40
0.4992589276364983
 40
0.5034637893524471
 40
0.5034637893524471
 40
0.5034637893524471
 40
0.5070190758506637
 40
0.5070190758506637
 40
0.5070190758506637
 40
0.5134658523761144
 40
0.5134658523761144
 40
0.5134658523761144
 40
0.5313464710867751
 40
0.5313464710867751
 40
0.5313464710867751
 40
0.6067422893748273
 40
0.6067422893748273
 40
0.6067422893748273
 40
0.9057460141556515
 40
0.9057460141556515
 40
0.9057460141556515
 40
1.0
 40
1.0
 40
1.0
 40
1.0
 10
94.35516780926686
 20
225.85
 30
0.0
 10
94.22302318292238
 20
225.85
 30
0.0
 10
94.09086164361075
 20
225.8479631135029
 30
0.0
 10
93.95959685126287
 20
225.8409131747694
 30
0.0
 10
93.91497645192254
 20
225.8385167128089
 30
0.0
 10
93.87043099618646
 20
225.8355282070291
 30
0.0
 10
93.82626375571775
 20
225.8311919679494
 30
0.0
 10
93.80598864114619
 20
225.8292014033768
 30
0.0
 10
93.7857806823698
 20
225.8269229646996
 30
0.0
 10
93.76578013791836
 20
225.824087989876
 30
0.0
 10
93.75345863632909
 20
225.8223414800807
 30
0.0
 10
93.74120290379082
 20
225.8203849295155
 30
0.0
 10
93.72913469875091
 20
225.8180357219081
 30
0.0
 10
93.72114908104166
 20
225.8164812344089
 30
0.0
 10
93.71323206248097
 20
225.8147552916735
 30
0.0
 10
93.70550755311352
 20
225.8127144948925
 30
0.0
 10
93.69892470301484
 20
225.8109753217423
 30
0.0
 10
93.69243830658426
 20
225.8090136720604
 30
0.0
 10
93.68636584001554
 20
225.8065715595532
 30
0.0
 10
93.68218597341516
 20
225.804890577964
 30
0.0
 10
93.67813416536919
 20
225.8029675456926
 30
0.0
 10
93.67474225550157
 20
225.8005703176108
 30
0.0
 10
93.67313119333217
 20
225.7994317014256
 30
0.0
 10
93.67165912712882
 20
225.798167006339
 30
0.0
 10
93.67051608589168
 20
225.7967612756581
 30
0.0
 10
93.66956270619725
 20
225.7955887938233
 30
0.0
 10
93.66883018522147
 20
225.7942895635383
 30
0.0
 10
93.66847868869914
 20
225.7929325217213
 30
0.0
 10
93.66812439826856
 20
225.7915646933103
 30
0.0
 10
93.66816506333828
 20
225.7900989226605
 30
0.0
 10
93.66858796370136
 20
225.7886999094317
 30
0.0
 10
93.66894866537223
 20
225.7875066581288
 30
0.0
 10
93.66958060201868
 20
225.7863333990938
 30
0.0
 10
93.67038083163676
 20
225.7852324835988
 30
0.0
 10
93.67182370619739
 20
225.7832474496469
 30
0.0
 10
93.67382472737087
 20
225.7814393429968
 30
0.0
 10
93.67600290012535
 20
225.7798082924891
 30
0.0
 10
93.68199604315846
 20
225.7753205313751
 30
0.0
 10
93.68942707856043
 20
225.7718432737089
 30
0.0
 10
93.69689613940966
 20
225.7687338966342
 30
0.0
 10
93.7282326630349
 20
225.7556884722991
 30
0.0
 10
93.76299058234547
 20
225.7476673045827
 30
0.0
 10
93.79718010613693
 20
225.7398866342895
 30
0.0
 10
93.93274612837732
 20
225.7090352387433
 30
0.0
 10
94.07187068142466
 20
225.6889534245602
 30
0.0
 10
94.21027736042181
 20
225.6686840301104
 30
0.0
 10
94.2539464138238
 20
225.662288780437
 30
0.0
 10
94.29764789540027
 20
225.6560772302063
 30
0.0
 10
94.34136645896027
 20
225.65
 30
0.0
  0
LINE
  5
429
330
3CA
100
AcDbEntity
  8
410052031__BOX_0
  6
Continuous
 62
     7
100
AcDbLine
 10
107.5811052932
 20
225.85
 30
0.0
 11
94.3551678093
 21
225.85
 31
0.0
  0
LINE
  5
42A
330
3CA
100
AcDbEntity
  8
410052031__BOX_0
  6
Continuous
 62
     7
100
AcDbLine
 10
108.5640877463
 20
225.85
 30
0.0
 11
107.5811052932
 21
225.85
 31
0.0
  0
LINE
  5
42B
330
3CA
100
AcDbEntity
  8
410052031__BOX_0
  6
Continuous
 62
     7
100
AcDbLine
 10
120.8797660988
 20
225.85
 30
0.0
 11
108.5640877463
 21
225.85
 31
0.0
  0
LINE
  5
42C
330
3CA
100
AcDbEntity
  8
410052031__BOX_0
  6
Continuous
 62
     7
100
AcDbLine
 10
133.1466927205
 20
225.85
 30
0.0
 11
120.8797660988
 21
225.85
 31
0.0
  0
LINE
  5
42D
330
3CA
100
AcDbEntity
  8
410052031__BOX_0
  6
Continuous
 62
     7
100
AcDbLine
 10
136.5242571101
 20
225.85
 30
0.0
 11
133.1466927205
 21
225.85
 31
0.0
  0
LINE
  5
42E
330
3CA
100
AcDbEntity
  8
410052031__BOX_0
  6
Continuous
 62
     7
100
AcDbLine
 10
137.1741135564
 20
225.85
 30
0.0
 11
136.5242571101
 21
225.85
 31
0.0
  0
SPLINE
  5
42F
330
3CA
100
AcDbEntity
  8
410052031__BOX_0
  6
Continuous
 62
     7
100
AcDbSpline
210
0.0
220
0.0
230
1.0
 70
     8
 71
     3
 72
    10
 73
     6
 74
     0
 42
0.0000000412875673
 43
0.0000000001
 40
0.0
 40
0.0
 40
0.0
 40
0.0
 40
0.5
 40
0.5
 40
1.0
 40
1.0
 40
1.0
 40
1.0
 10
137.9945509728472
 20
225.6499999999999
 30
0.0
 10
137.9945509728472
 20
225.7028485358756
 30
0.0
 10
137.9847338141633
 20
225.7545271208632
 30
0.0
 10
137.9513165563415
 20
225.8283257066344
 30
0.0
 10
137.9276216311784
 20
225.85
 30
0.0
 10
137.9039939730843
 20
225.85
 30
0.0
  0
LINE
  5
430
330
3CA
100
AcDbEntity
  8
410052031__BOX_0
  6
Continuous
 62
     7
100
AcDbLine
 10
137.9039939731
 20
225.85
 30
0.0
 11
137.1741135564
 21
225.85
 31
0.0
  0
SPLINE
  5
431
330
3CA
100
AcDbEntity
  8
410052031__BOX_0
  6
Continuous
 62
     7
100
AcDbSpline
210
0.0
220
0.0
230
1.0
 70
     8
 71
     3
 72
    12
 73
     8
 74
     0
 42
0.0000000237049164
 43
0.0000000001
 40
0.0
 40
0.0
 40
0.0
 40
0.0
 40
0.2500000000000112
 40
0.2500000000000112
 40
0.5000000000000224
 40
0.5000000000000224
 40
1.0
 40
1.0
 40
1.0
 40
1.0
 10
143.0526325373771
 20
225.6499999999999
 30
0.0
 10
143.0526325373771
 20
225.6853836923359
 30
0.0
 10
143.0369193557019
 20
225.7185964685761
 30
0.0
 10
142.9909289243547
 20
225.7714108361527
 30
0.0
 10
142.9616279332498
 20
225.7913631643595
 30
0.0
 10
142.868573519961
 20
225.8371038735571
 30
0.0
 10
142.7988388101958
 20
225.85
 30
0.0
 10
142.7291982548621
 20
225.85
 30
0.0
  0
LINE
  5
432
330
3CA
100
AcDbEntity
  8
410052031__BOX_0
  6
Continuous
 62
     7
100
AcDbLine
 10
142.7291982549
 20
225.85
 30
0.0
 11
137.9039939731
 21
225.85
 31
0.0
  0
LINE
  5
433
330
3CA
100
AcDbEntity
  8
410052031__BOX_0
  6
Continuous
 62
     7
100
AcDbLine
 10
161.727206964
 20
106.35
 30
0.0
 11
162.7371379587
 21
106.35
 31
0.0
  0
LINE
  5
434
330
3CA
100
AcDbEntity
  8
410052031__BOX_0
  6
Continuous
 62
     7
100
AcDbLine
 10
162.7371379587
 20
106.35
 30
0.0
 11
162.7371379587
 21
110.35
 31
0.0
  0
LINE
  5
435
330
3CA
100
AcDbEntity
  8
410052031__BOX_0
  6
Continuous
 62
     7
100
AcDbLine
 10
101.45
 20
108.35
 30
0.0
 11
81.45
 21
108.35
 31
0.0
  0
LINE
  5
436
330
3CA
100
AcDbEntity
  8
410052031__BOX_0
  6
Continuous
 62
     7
100
AcDbLine
 10
40.1708017451
 20
225.85
 30
0.0
 11
44.9960060269
 21
225.85
 31
0.0
  0
LINE
  5
437
330
3CA
100
AcDbEntity
  8
410052031__BOX_0
  6
Continuous
 62
     7
100
AcDbLine
 10
44.9960060269
 20
225.85
 30
0.0
 11
45.7258864436
 21
225.85
 31
0.0
  0
LINE
  5
438
330
3CA
100
AcDbEntity
  8
410052031__BOX_0
  6
Continuous
 62
     7
100
AcDbLine
 10
45.7258864436
 20
225.85
 30
0.0
 11
46.3757428899
 21
225.85
 31
0.0
  0
LINE
  5
439
330
3CA
100
AcDbEntity
  8
410052031__BOX_0
  6
Continuous
 62
     7
100
AcDbLine
 10
46.3757428899
 20
225.85
 30
0.0
 11
49.7533072795
 21
225.85
 31
0.0
  0
LINE
  5
43A
330
3CA
100
AcDbEntity
  8
410052031__BOX_0
  6
Continuous
 62
     7
100
AcDbLine
 10
49.7533072795
 20
225.85
 30
0.0
 11
62.0202339012
 21
225.85
 31
0.0
  0
LINE
  5
43B
330
3CA
100
AcDbEntity
  8
410052031__BOX_0
  6
Continuous
 62
     7
100
AcDbLine
 10
62.0202339012
 20
225.85
 30
0.0
 11
74.3359122537
 21
225.85
 31
0.0
  0
LINE
  5
43C
330
3CA
100
AcDbEntity
  8
410052031__BOX_0
  6
Continuous
 62
     7
100
AcDbLine
 10
74.3359122537
 20
225.85
 30
0.0
 11
75.3188947068
 21
225.85
 31
0.0
  0
LINE
  5
43D
330
3CA
100
AcDbEntity
  8
410052031__BOX_0
  6
Continuous
 62
     7
100
AcDbLine
 10
75.3188947068
 20
225.85
 30
0.0
 11
88.5448321907
 21
225.85
 31
0.0
  0
LINE
  5
43E
330
3CA
100
AcDbEntity
  8
410052031__BOX_0
  6
Continuous
 62
     7
100
AcDbLine
 10
22.3957188479
 20
146.35
 30
0.0
 11
18.4648901624
 21
146.35
 31
0.0
  0
LINE
  5
43F
330
3CA
100
AcDbEntity
  8
410052031__BOX_0
  6
Continuous
 62
     7
100
AcDbLine
 10
65.5839664513
 20
146.35
 30
0.0
 11
44.9054490272
 21
146.35
 31
0.0
  0
LINE
  5
440
330
3CA
100
AcDbEntity
  8
410052031__BOX_0
  6
Continuous
 62
     7
100
AcDbLine
 10
44.9054490272
 20
146.35
 30
0.0
 11
26.5464280705
 21
146.35
 31
0.0
  0
LINE
  5
441
330
3CA
100
AcDbEntity
  8
410052031__BOX_0
  6
Continuous
 62
     7
100
AcDbLine
 10
26.5464280705
 20
146.35
 30
0.0
 11
22.58612112
 21
146.35
 31
0.0
  0
LINE
  5
442
330
3CA
100
AcDbEntity
  8
410052031__BOX_0
  6
Continuous
 62
     7
100
AcDbLine
 10
22.58612112
 20
146.35
 30
0.0
 11
22.3957188479
 21
146.35
 31
0.0
  0
LINE
  5
443
330
3CA
100
AcDbEntity
  8
410052031__BOX_0
  6
Continuous
 62
     7
100
AcDbLine
 10
19.45
 20
184.85
 30
0.0
 11
19.45
 21
217.85
 31
0.0
  0
LINE
  5
444
330
3CA
100
AcDbEntity
  8
410052031__BOX_0
  6
Continuous
 62
     7
100
AcDbLine
 10
20.55
 20
184.85
 30
0.0
 11
20.55
 21
217.85
 31
0.0
  0
LINE
  5
445
330
3CA
100
AcDbEntity
  8
410052031__BOX_0
  6
Continuous
 62
     7
100
AcDbLine
 10
21.172793036
 20
106.35
 30
0.0
 11
20.1628620413
 21
106.35
 31
0.0
  0
LINE
  5
446
330
3CA
100
AcDbEntity
  8
410052031__BOX_0
  6
Continuous
 62
     7
100
AcDbLine
 10
20.1628620413
 20
106.35
 30
0.0
 11
19.4718363784
 21
106.35
 31
0.0
  0
LINE
  5
447
330
3CA
100
AcDbEntity
  8
410052031__BOX_0
  6
Continuous
 62
     7
100
AcDbLine
 10
19.4718363784
 20
106.35
 30
0.0
 11
19.457943276
 21
106.35
 31
0.0
  0
LINE
  5
448
330
3CA
100
AcDbEntity
  8
410052031__BOX_0
  6
Continuous
 62
     7
100
AcDbLine
 10
81.45
 20
110.35
 30
0.0
 11
65.5839664513
 21
110.35
 31
0.0
  0
LINE
  5
449
330
3CA
100
AcDbEntity
  8
410052031__BOX_0
  6
Continuous
 62
     7
100
AcDbLine
 10
65.5839664513
 20
110.35
 30
0.0
 11
45.3582373362
 21
110.35
 31
0.0
  0
LINE
  5
44A
330
3CA
100
AcDbEntity
  8
410052031__BOX_0
  6
Continuous
 62
     7
100
AcDbLine
 10
45.3582373362
 20
110.35
 30
0.0
 11
27.3674050043
 21
110.35
 31
0.0
  0
LINE
  5
44B
330
3CA
100
AcDbEntity
  8
410052031__BOX_0
  6
Continuous
 62
     7
100
AcDbLine
 10
27.3674050043
 20
110.35
 30
0.0
 11
23.5026012691
 21
110.35
 31
0.0
  0
LINE
  5
44C
330
3CA
100
AcDbEntity
  8
410052031__BOX_0
  6
Continuous
 62
     7
100
AcDbLine
 10
23.5026012691
 20
110.35
 30
0.0
 11
23.3418608939
 21
110.35
 31
0.0
  0
LINE
  5
44D
330
3CA
100
AcDbEntity
  8
410052031__BOX_0
  6
Continuous
 62
     7
100
AcDbLine
 10
23.3418608939
 20
110.35
 30
0.0
 11
20.1628620413
 21
110.35
 31
0.0
  0
LINE
  5
44E
330
3CA
100
AcDbEntity
  8
410052031__BOX_0
  6
Continuous
 62
     7
100
AcDbLine
 10
75.0170212074
 20
217.85
 30
0.0
 11
74.4997426625
 21
217.85
 31
0.0
  0
LINE
  5
44F
330
3CA
100
AcDbEntity
  8
410052031__BOX_0
  6
Continuous
 62
     7
100
AcDbLine
 10
74.4997426625
 20
217.85
 30
0.0
 11
62.18406431
 21
217.85
 31
0.0
  0
LINE
  5
450
330
3CA
100
AcDbEntity
  8
410052031__BOX_0
  6
Continuous
 62
     7
100
AcDbLine
 10
62.18406431
 20
217.85
 30
0.0
 11
49.5563457289
 21
217.85
 31
0.0
  0
LINE
  5
451
330
3CA
100
AcDbEntity
  8
410052031__BOX_0
  6
Continuous
 62
     7
100
AcDbLine
 10
49.5563457289
 20
217.85
 30
0.0
 11
46.1787813393
 21
217.85
 31
0.0
  0
LINE
  5
452
330
3CA
100
AcDbEntity
  8
410052031__BOX_0
  6
Continuous
 62
     7
100
AcDbLine
 10
46.1787813393
 20
217.85
 30
0.0
 11
45.6372343007
 21
217.85
 31
0.0
  0
LINE
  5
453
330
3CA
100
AcDbEntity
  8
410052031__BOX_0
  6
Continuous
 62
     7
100
AcDbLine
 10
51.794604299
 20
152.3996246497
 30
0.0
 11
51.794604299
 21
160.2
 31
0.0
  0
LINE
  5
454
330
3CA
100
AcDbEntity
  8
410052031__BOX_0
  6
Continuous
 62
     7
100
AcDbLine
 10
51.794604299
 20
160.2
 30
0.0
 11
40.5035740855
 21
160.2
 31
0.0
  0
LINE
  5
455
330
3CA
100
AcDbEntity
  8
410052031__BOX_0
  6
Continuous
 62
     7
100
AcDbLine
 10
40.2353997644
 20
160.2
 30
0.0
 11
25.2353997644
 21
160.2
 31
0.0
  0
LINE
  5
456
330
3CA
100
AcDbEntity
  8
410052031__BOX_0
  6
Continuous
 62
     7
100
AcDbLine
 10
39.8473674626
 20
217.85
 30
0.0
 11
18.0600901992
 21
217.85
 31
0.0
  0
LINE
  5
457
330
3CA
100
AcDbEntity
  8
410052031__BOX_0
  6
Continuous
 62
     7
100
AcDbLine
 10
18.0600901992
 20
217.85
 30
0.0
 11
10.45
 21
217.85
 31
0.0
  0
LINE
  5
458
330
3CA
100
AcDbEntity
  8
410052031__BOX_0
  6
Continuous
 62
     7
100
AcDbLine
 10
51.6310648527
 20
152.2
 30
0.0
 11
40.3573033451
 21
152.2
 31
0.0
  0
LINE
  5
459
330
3CA
100
AcDbEntity
  8
410052031__BOX_0
  6
Continuous
 62
     7
100
AcDbLine
 10
40.3573033451
 20
152.2
 30
0.0
 11
40.0353997644
 21
152.2
 31
0.0
  0
LINE
  5
45A
330
3CA
100
AcDbEntity
  8
410052031__BOX_0
  6
Continuous
 62
     7
100
AcDbLine
 10
40.0353997644
 20
152.2
 30
0.0
 11
25.4353997644
 21
152.2
 31
0.0
  0
LINE
  5
45B
330
3CA
100
AcDbEntity
  8
410052031__BOX_0
  6
Continuous
 62
     7
100
AcDbLine
 10
51.794604299
 20
160.2
 30
0.0
 11
52.8098277495
 21
160.2
 31
0.0
  0
LINE
  5
45C
330
3CA
100
AcDbEntity
  8
410052031__BOX_0
  6
Continuous
 62
     7
100
AcDbLine
 10
40.2353997644
 20
160.2
 30
0.0
 11
40.5035740855
 21
160.2
 31
0.0
  0
LINE
  5
45D
330
3CA
100
AcDbEntity
  8
410052031__BOX_0
  6
Continuous
 62
     7
100
AcDbLine
 10
39.8473674626
 20
217.85
 30
0.0
 11
39.8473674626
 21
225.65
 31
0.0
  0
SPLINE
  5
45E
330
3CA
100
AcDbEntity
  8
410052031__BOX_0
  6
Continuous
 62
     7
100
AcDbSpline
210
0.0
220
0.0
230
1.0
 70
     8
 71
     3
 72
    12
 73
     8
 74
     0
 42
0.0000000237049164
 43
0.0000000001
 40
0.0
 40
0.0
 40
0.0
 40
0.0
 40
0.2500000000000112
 40
0.2500000000000112
 40
0.5000000000000224
 40
0.5000000000000224
 40
1.0
 40
1.0
 40
1.0
 40
1.0
 10
39.84736746262286
 20
225.65
 30
0.0
 10
39.84736746262285
 20
225.6853836923359
 30
0.0
 10
39.86308064429816
 20
225.7185964685761
 30
0.0
 10
39.90907107564536
 20
225.7714108361527
 30
0.0
 10
39.93837206675018
 20
225.7913631643595
 30
0.0
 10
40.03142648003903
 20
225.8371038735571
 30
0.0
 10
40.10116118980419
 20
225.85
 30
0.0
 10
40.17080174513791
 20
225.85
 30
0.0
  0
LINE
  5
45F
330
3CA
100
AcDbEntity
  8
410052031__BOX_0
  6
Continuous
 62
     7
100
AcDbLine
 10
40.1708017451
 20
225.85
 30
0.0
 11
18.0600901992
 21
225.85
 31
0.0
  0
LINE
  5
460
330
3CA
100
AcDbEntity
  8
410052031__BOX_0
  6
Continuous
 62
     7
100
AcDbLine
 10
18.0600901992
 20
225.85
 30
0.0
 11
10.45
 21
225.85
 31
0.0
  0
LINE
  5
461
330
3CA
100
AcDbEntity
  8
410052031__BOX_0
  6
Continuous
 62
     7
100
AcDbLine
 10
27.3674050043
 20
146.35
 30
0.0
 11
27.3674050043
 21
110.35
 31
0.0
  0
LINE
  5
462
330
3CA
100
AcDbEntity
  8
410052031__BOX_0
  6
Continuous
 62
     7
100
AcDbLine
 10
20.1628620413
 20
106.35
 30
0.0
 11
20.1628620413
 21
110.35
 31
0.0
  0
LINE
  5
463
330
3CA
100
AcDbEntity
  8
410052031__BOX_0
  6
Continuous
 62
     7
100
AcDbLine
 10
19.457943276
 20
146.35
 30
0.0
 11
19.457943276
 21
106.35
 31
0.0
  0
LINE
  5
464
330
3CA
100
AcDbEntity
  8
410052031__BOX_0
  6
Continuous
 62
     7
100
AcDbLine
 10
22.05
 20
217.85
 30
0.0
 11
22.05
 21
174.85
 31
0.0
  0
LINE
  5
465
330
3CA
100
AcDbEntity
  8
410052031__BOX_0
  6
Continuous
 62
     7
100
AcDbLine
 10
26.5464280705
 20
217.85
 30
0.0
 11
26.5464280705
 21
160.2
 31
0.0
  0
LINE
  5
466
330
3CA
100
AcDbEntity
  8
410052031__BOX_0
  6
Continuous
 62
     7
100
AcDbLine
 10
26.5464280705
 20
152.2
 30
0.0
 11
26.5464280705
 21
146.35
 31
0.0
  0
LINE
  5
467
330
3CA
100
AcDbEntity
  8
410052031__BOX_0
  6
Continuous
 62
     7
100
AcDbLine
 10
45.3582373362
 20
115.85
 30
0.0
 11
45.3582373362
 21
110.35
 31
0.0
  0
LINE
  5
468
330
3CA
100
AcDbEntity
  8
410052031__BOX_0
  6
Continuous
 62
     7
100
AcDbLine
 10
44.9054490272
 20
225.65
 30
0.0
 11
44.9054490272
 21
160.2
 31
0.0
  0
LINE
  5
469
330
3CA
100
AcDbEntity
  8
410052031__BOX_0
  6
Continuous
 62
     7
100
AcDbLine
 10
52.8098277495
 20
160.2
 30
0.0
 11
52.8098277495
 21
151.7
 31
0.0
  0
LINE
  5
46A
330
3CA
100
AcDbEntity
  8
410052031__BOX_0
  6
Continuous
 62
     7
100
AcDbLine
 10
44.9054490272
 20
151.7
 30
0.0
 11
44.9054490272
 21
146.35
 31
0.0
  0
ARC
  5
46B
330
3CA
100
AcDbEntity
  8
410052031__BOX_0
  6
Continuous
 62
     7
100
AcDbCircle
 10
91.45
 20
204.85
 30
0.0
 40
21.0
100
AcDbArc
 50
97.9138581623
 51
140.1878593826
  0
LINE
  5
46C
330
3CA
100
AcDbEntity
  8
410052031__BOX_0
  6
Continuous
 62
     7
100
AcDbLine
 10
75.0170212074
 20
217.85
 30
0.0
 11
75.3188947068
 21
218.2957220714
 31
0.0
  0
SPLINE
  5
46D
330
3CA
100
AcDbEntity
  8
410052031__BOX_0
  6
Continuous
 62
     7
100
AcDbSpline
210
0.0
220
0.0
230
1.0
 70
     8
 71
     3
 72
    53
 73
    49
 74
     0
 42
0.0000000071855237
 43
0.0000000001
 40
0.0
 40
0.0
 40
0.0
 40
0.0
 40
0.2805578459827756
 40
0.2805578459827756
 40
0.2805578459827756
 40
0.3758908726935927
 40
0.3758908726935927
 40
0.3758908726935927
 40
0.4196446642699859
 40
0.4196446642699859
 40
0.4196446642699859
 40
0.4465984729395043
 40
0.4465984729395043
 40
0.4465984729395043
 40
0.4644343548493648
 40
0.4644343548493648
 40
0.4644343548493648
 40
0.4796492610425216
 40
0.4796492610425216
 40
0.4796492610425216
 40
0.4901427811534535
 40
0.4901427811534535
 40
0.4901427811534535
 40
0.4951068964343082
 40
0.4951068964343082
 40
0.4951068964343082
 40
0.4992589276364983
 40
0.4992589276364983
 40
0.4992589276364983
 40
0.5034637893524471
 40
0.5034637893524471
 40
0.5034637893524471
 40
0.5070190758506637
 40
0.5070190758506637
 40
0.5070190758506637
 40
0.5134658523761144
 40
0.5134658523761144
 40
0.5134658523761144
 40
0.5313464710867751
 40
0.5313464710867751
 40
0.5313464710867751
 40
0.6067422893748273
 40
0.6067422893748273
 40
0.6067422893748273
 40
0.9057460141556515
 40
0.9057460141556515
 40
0.9057460141556515
 40
1.0
 40
1.0
 40
1.0
 40
1.0
 10
88.54483219073316
 20
225.85
 30
0.0
 10
88.67697681707764
 20
225.85
 30
0.0
 10
88.80913835638927
 20
225.8479631135029
 30
0.0
 10
88.94040314873715
 20
225.8409131747694
 30
0.0
 10
88.98502354807746
 20
225.8385167128089
 30
0.0
 10
89.02956900381356
 20
225.8355282070291
 30
0.0
 10
89.07373624428226
 20
225.8311919679494
 30
0.0
 10
89.09401135885383
 20
225.8292014033768
 30
0.0
 10
89.11421931763022
 20
225.8269229646996
 30
0.0
 10
89.13421986208166
 20
225.824087989876
 30
0.0
 10
89.14654136367093
 20
225.8223414800807
 30
0.0
 10
89.1587970962092
 20
225.8203849295155
 30
0.0
 10
89.17086530124911
 20
225.8180357219081
 30
0.0
 10
89.17885091895836
 20
225.8164812344089
 30
0.0
 10
89.18676793751905
 20
225.8147552916735
 30
0.0
 10
89.1944924468865
 20
225.8127144948925
 30
0.0
 10
89.20107529698518
 20
225.8109753217423
 30
0.0
 10
89.20756169341576
 20
225.8090136720604
 30
0.0
 10
89.21363415998448
 20
225.8065715595532
 30
0.0
 10
89.21781402658486
 20
225.804890577964
 30
0.0
 10
89.22186583463083
 20
225.8029675456926
 30
0.0
 10
89.22525774449845
 20
225.8005703176108
 30
0.0
 10
89.22686880666785
 20
225.7994317014256
 30
0.0
 10
89.2283408728712
 20
225.798167006339
 30
0.0
 10
89.22948391410834
 20
225.7967612756581
 30
0.0
 10
89.23043729380275
 20
225.7955887938233
 30
0.0
 10
89.23116981477855
 20
225.7942895635383
 30
0.0
 10
89.23152131130088
 20
225.7929325217213
 30
0.0
 10
89.23187560173146
 20
225.7915646933103
 30
0.0
 10
89.23183493666173
 20
225.7900989226605
 30
0.0
 10
89.23141203629866
 20
225.7886999094317
 30
0.0
 10
89.2310513346278
 20
225.7875066581288
 30
0.0
 10
89.23041939798132
 20
225.7863333990938
 30
0.0
 10
89.22961916836326
 20
225.7852324835988
 30
0.0
 10
89.22817629380265
 20
225.7832474496469
 30
0.0
 10
89.22617527262915
 20
225.7814393429968
 30
0.0
 10
89.22399709987467
 20
225.7798082924891
 30
0.0
 10
89.21800395684156
 20
225.7753205313751
 30
0.0
 10
89.21057292143959
 20
225.7718432737089
 30
0.0
 10
89.20310386059036
 20
225.7687338966342
 30
0.0
 10
89.17176733696512
 20
225.7556884722991
 30
0.0
 10
89.13700941765455
 20
225.7476673045827
 30
0.0
 10
89.10281989386309
 20
225.7398866342895
 30
0.0
 10
88.9672538716227
 20
225.7090352387433
 30
0.0
 10
88.82812931857535
 20
225.6889534245602
 30
0.0
 10
88.6897226395782
 20
225.6686840301104
 30
0.0
 10
88.64605358617621
 20
225.662288780437
 30
0.0
 10
88.60235210459973
 20
225.6560772302063
 30
0.0
 10
88.55863354103975
 20
225.65
 30
0.0
  0
SPLINE
  5
46E
330
3CA
100
AcDbEntity
  8
410052031__BOX_0
  6
Continuous
 62
     7
100
AcDbSpline
210
0.0
220
0.0
230
1.0
 70
     8
 71
     3
 72
    10
 73
     6
 74
     0
 42
0.0000000165156639
 43
0.0000000001
 40
0.0
 40
0.0
 40
0.0
 40
0.0
 40
0.5
 40
0.5
 40
1.0
 40
1.0
 40
1.0
 40
1.0
 10
44.90544902715285
 20
151.7
 30
0.0
 10
44.90544902715285
 20
151.8320894515828
 30
0.0
 10
44.88091883144605
 20
151.9612548267918
 30
0.0
 10
44.79741100503141
 20
152.1457436559956
 30
0.0
 10
44.73805424204402
 20
152.2
 30
0.0
 10
44.67905793059754
 20
152.2
 30
0.0
  0
SPLINE
  5
46F
330
3CA
100
AcDbEntity
  8
410052031__BOX_0
  6
Continuous
 62
     7
100
AcDbSpline
210
0.0
220
0.0
230
1.0
 70
     8
 71
     3
 72
    10
 73
     6
 74
     0
 42
0.0000000412875673
 43
0.0000000001
 40
0.0
 40
0.0
 40
0.0
 40
0.0
 40
0.5
 40
0.5
 40
1.0
 40
1.0
 40
1.0
 40
1.0
 10
44.90544902715286
 20
225.65
 30
0.0
 10
44.90544902715286
 20
225.7028485358757
 30
0.0
 10
44.91526618583677
 20
225.7545271208633
 30
0.0
 10
44.94868344365855
 20
225.8283257066344
 30
0.0
 10
44.97237836882164
 20
225.85
 30
0.0
 10
44.99600602691576
 20
225.85
 30
0.0
  0
LINE
  5
470
330
3CA
100
AcDbEntity
  8
410052031__BOX_0
  6
Continuous
 62
     7
100
AcDbLine
 10
21.172793036
 20
106.35
 30
0.0
 11
21.172793036
 21
110.35
 31
0.0
  0
LINE
  5
471
330
3CA
100
AcDbEntity
  8
410052031__BOX_0
  6
Continuous
 62
     7
100
AcDbLine
 10
81.45
 20
108.35
 30
0.0
 11
81.45
 21
110.35
 31
0.0
  0
LINE
  5
472
330
3CA
100
AcDbEntity
  8
410052031__BOX_0
  6
Continuous
 62
     7
100
AcDbLine
 10
162.2642135624
 20
173.85
 30
0.0
 11
163.0208962753
 21
173.85
 31
0.0
  0
ARC
  5
473
330
3CA
100
AcDbEntity
  8
410052031__BOX_0
  6
Continuous
 62
     7
100
AcDbCircle
 10
162.2642135624
 20
174.85
 30
0.0
 40
1.000000000000001
100
AcDbArc
 50
225.0
 51
270.0
  0
ELLIPSE
  5
474
330
3CA
100
AcDbEntity
  8
410052031__BOX_0
  6
Continuous
 62
     7
100
AcDbEllipse
 10
22.7571067812
 20
174.1428932188
 30
0.0
 11
0.7071067811866422
 21
-0.7071067811865659
 31
0.0
210
0.0
220
0.0
230
1.0
 40
0.9142814178
 41
3.141592653589793
 42
3.971739388674809
  0
LINE
  5
475
330
3CA
100
AcDbEntity
  8
410052031__BOX_0
  6
Continuous
 62
     7
100
AcDbLine
 10
20.6357864376
 20
173.85
 30
0.0
 11
19.8791037247
 21
173.85
 31
0.0
  0
ARC
  5
476
330
3CA
100
AcDbEntity
  8
410052031__BOX_0
  6
Continuous
 62
     7
100
AcDbCircle
 10
20.6357864376
 20
174.85
 30
0.0
 40
0.9999999999999966
100
AcDbArc
 50
270.0
 51
315.0
  0
LINE
  5
477
330
3CA
100
AcDbEntity
  8
410052031__BOX_0
  6
Continuous
 62
     7
100
AcDbLine
 10
162.35
 20
184.85
 30
0.0
 11
163.45
 21
184.85
 31
0.0
  0
LINE
  5
478
330
3CA
100
AcDbEntity
  8
410052031__BOX_0
  6
Continuous
 62
     7
100
AcDbLine
 10
160.85
 20
183.35
 30
0.0
 11
162.35
 21
184.85
 31
0.0
  0
LINE
  5
479
330
3CA
100
AcDbEntity
  8
410052031__BOX_0
  6
Continuous
 62
     7
100
AcDbLine
 10
157.6646002356
 20
152.4
 30
0.0
 11
157.6646002356
 21
160.2
 31
0.0
  0
LINE
  5
47A
330
3CA
100
AcDbEntity
  8
410052031__BOX_0
  6
Continuous
 62
     7
100
AcDbLine
 10
142.6646002356
 20
160.2
 30
0.0
 11
142.6646002356
 21
152.4
 31
0.0
  0
LINE
  5
47B
330
3CA
100
AcDbEntity
  8
410052031__BOX_0
  6
Continuous
 62
     7
100
AcDbLine
 10
172.45
 20
217.85
 30
0.0
 11
172.45
 21
225.85
 31
0.0
  0
ARC
  5
47C
330
3CA
100
AcDbEntity
  8
410052031__BOX_0
  6
Continuous
 62
     7
100
AcDbCircle
 10
157.4646002356
 20
152.4
 30
0.0
 40
0.2000000000000057
100
AcDbArc
 50
270.0
 51
0.0
  0
ARC
  5
47D
330
3CA
100
AcDbEntity
  8
410052031__BOX_0
  6
Continuous
 62
     7
100
AcDbCircle
 10
142.8646002356
 20
152.4
 30
0.0
 40
0.1999999999999988
100
AcDbArc
 50
180.0
 51
270.0
  0
LINE
  5
47E
330
3CA
100
AcDbEntity
  8
410052031__BOX_0
  6
Continuous
 62
     7
100
AcDbLine
 10
19.45
 20
184.85
 30
0.0
 11
20.55
 21
184.85
 31
0.0
  0
LINE
  5
47F
330
3CA
100
AcDbEntity
  8
410052031__BOX_0
  6
Continuous
 62
     7
100
AcDbLine
 10
20.55
 20
184.85
 30
0.0
 11
22.05
 21
183.35
 31
0.0
  0
LINE
  5
480
330
3CA
100
AcDbEntity
  8
410052031__BOX_0
  6
Continuous
 62
     7
100
AcDbLine
 10
40.2353997644
 20
152.4
 30
0.0
 11
40.2353997644
 21
160.2
 31
0.0
  0
LINE
  5
481
330
3CA
100
AcDbEntity
  8
410052031__BOX_0
  6
Continuous
 62
     7
100
AcDbLine
 10
25.2353997644
 20
160.2
 30
0.0
 11
25.2353997644
 21
152.4
 31
0.0
  0
LINE
  5
482
330
3CA
100
AcDbEntity
  8
410052031__BOX_0
  6
Continuous
 62
     7
100
AcDbLine
 10
10.45
 20
225.85
 30
0.0
 11
10.45
 21
217.85
 31
0.0
  0
ARC
  5
483
330
3CA
100
AcDbEntity
  8
410052031__BOX_0
  6
Continuous
 62
     7
100
AcDbCircle
 10
40.0353997644
 20
152.4
 30
0.0
 40
0.2000000000000057
100
AcDbArc
 50
270.0
 51
0.0
  0
ARC
  5
484
330
3CA
100
AcDbEntity
  8
410052031__BOX_0
  6
Continuous
 62
     7
100
AcDbCircle
 10
25.4353997644
 20
152.4
 30
0.0
 40
0.2000000000000057
100
AcDbArc
 50
180.0
 51
270.0
  0
LINE
  5
485
330
3CA
100
AcDbEntity
  8
410052031__BOX_0
  6
Continuous
 62
     7
100
AcDbLine
 10
164.1422166188
 20
173.1428932188
 30
0.0
 11
163.7280030565
 21
173.5571067812
 31
0.0
  0
LINE
  5
486
330
3CA
100
AcDbEntity
  8
410052031__BOX_0
  6
Continuous
 62
     7
100
AcDbLine
 10
19.1719969435
 20
173.5571067812
 30
0.0
 11
18.7577833812
 21
173.1428932188
 31
0.0
  0
ARC
  5
487
330
3CA
100
AcDbEntity
  8
410052031__BOX_0
  6
Continuous
 62
     7
100
AcDbCircle
 10
163.0208962753
 20
172.85
 30
0.0
 40
0.9999999999999966
100
AcDbArc
 50
45.0
 51
90.0
  0
ARC
  5
488
330
3CA
100
AcDbEntity
  8
410052031__BOX_0
  6
Continuous
 62
     7
100
AcDbCircle
 10
163.4351098376
 20
172.4357864376
 30
0.0
 40
1.000000000000001
100
AcDbArc
 50
0.0
 51
45.0
  0
ARC
  5
489
330
3CA
100
AcDbEntity
  8
410052031__BOX_0
  6
Continuous
 62
     7
100
AcDbCircle
 10
19.4648901624
 20
172.4357864376
 30
0.0
 40
0.9999999999999966
100
AcDbArc
 50
135.0
 51
180.0
  0
ARC
  5
48A
330
3CA
100
AcDbEntity
  8
410052031__BOX_0
  6
Continuous
 62
     7
100
AcDbCircle
 10
19.8791037247
 20
172.85
 30
0.0
 40
1.000000000000001
100
AcDbArc
 50
90.0
 51
135.0
  0
LINE
  5
48B
330
3CA
100
AcDbEntity
  8
410052031__BOX_0
  6
Continuous
 62
     7
100
AcDbLine
 10
18.4648901624
 20
150.35
 30
0.0
 11
18.4648901624
 21
146.35
 31
0.0
  0
LINE
  5
48C
330
3CA
100
AcDbEntity
  8
410052031__BOX_0
  6
Continuous
 62
     7
100
AcDbLine
 10
18.4648901624
 20
172.4357864376
 30
0.0
 11
18.4648901624
 21
169.715
 31
0.0
  0
LINE
  5
48D
330
3CA
100
AcDbEntity
  8
410052031__BOX_0
  6
Continuous
 62
     7
100
AcDbLine
 10
164.4351098376
 20
169.85
 30
0.0
 11
164.4351098376
 21
172.4357864376
 31
0.0
  0
LINE
  5
48E
330
3CA
100
AcDbEntity
  8
410052031__BOX_0
  6
Continuous
 62
     7
100
AcDbLine
 10
164.4351098376
 20
146.35
 30
0.0
 11
164.4351098376
 21
150.985
 31
0.0
  0
LINE
  5
48F
330
3CA
100
AcDbEntity
  8
410019031__STOP_
  6
Continuous
 62
     7
100
AcDbLine
 10
176.55
 20
187.85
 30
0.0
 11
176.55
 21
221.85
 31
0.0
  0
ARC
  5
490
330
3CA
100
AcDbEntity
  8
410019031__STOP_
  6
Continuous
 62
     7
100
AcDbCircle
 10
167.7892311564
 20
219.9729686136
 30
0.0
 40
8.485194997634414
100
AcDbArc
 50
332.3019170883
 51
27.6980829117
  0
SPLINE
  5
491
330
3CA
100
AcDbEntity
  8
410019031__STOP_
  6
Continuous
 62
     7
100
AcDbSpline
210
0.0
220
0.0
230
1.0
 70
     8
 71
     3
 72
    12
 73
     8
 74
     0
 42
0.0000000088741498
 43
0.0000000001
 40
0.500749967525582
 40
0.500749967525582
 40
0.500749967525582
 40
0.500749967525582
 40
0.6249999999999992
 40
0.6249999999999992
 40
0.7499999999999993
 40
0.7499999999999993
 40
1.0
 40
1.0
 40
1.0
 40
1.0
 10
175.0626902272785
 20
224.4260960890909
 30
0.0
 10
175.0626909906471
 20
224.4260943598015
 30
0.0
 10
175.0677996247318
 20
224.4151073262335
 30
0.0
 10
175.0882355115629
 20
224.3712449167784
 30
0.0
 10
175.1034790497877
 20
224.3385504719082
 30
0.0
 10
175.1637540023557
 20
224.2097022685194
 30
0.0
 10
175.2240401998388
 20
224.0812104140643
 30
0.0
 10
175.3021006898564
 20
223.9169926399874
 30
0.0
  0
LINE
  5
492
330
3CA
100
AcDbEntity
  8
410019031__STOP_
  6
Continuous
 62
     7
100
AcDbLine
 10
163.55
 20
216.0289445872
 30
0.0
 11
175.3021006899
 21
216.0289445872
 31
0.0
  0
SPLINE
  5
493
330
3CA
100
AcDbEntity
  8
410019031__STOP_
  6
Continuous
 62
     7
100
AcDbSpline
210
0.0
220
0.0
230
1.0
 70
     8
 71
     3
 72
    18
 73
    14
 74
     0
 42
0.0000000006273483
 43
0.0000000001
 40
0.0
 40
0.0
 40
0.0
 40
0.0
 40
0.1250000000000001
 40
0.1250000000000001
 40
0.2500000000000001
 40
0.2500000000000001
 40
0.5
 40
0.5
 40
0.625
 40
0.625
 40
0.75
 40
0.75
 40
1.0
 40
1.0
 40
1.0
 40
1.0
 10
175.3021006898567
 20
212.7380480528019
 30
0.0
 10
175.4565222792475
 20
212.0883270563415
 30
0.0
 10
175.5959327090309
 20
211.434814115251
 30
0.0
 10
175.8387060323762
 20
210.1273105105473
 30
0.0
 10
175.9423241551227
 20
209.4722028688055
 30
0.0
 10
176.1941786115576
 20
207.5023779186941
 30
0.0
 10
176.2826635560669
 20
206.1831012434912
 30
0.0
 10
176.2831302239777
 20
204.1940939921638
 30
0.0
 10
176.2614155006246
 20
203.5294227498181
 30
0.0
 10
176.1744315161633
 20
202.1967568090931
 30
0.0
 10
176.1089497077565
 20
201.5284290044991
 30
0.0
 10
175.8545529484559
 20
199.546600048148
 30
0.0
 10
175.6073808301625
 20
198.246402636648
 30
0.0
 10
175.3021006898564
 20
196.9619519471967
 30
0.0
  0
ARC
  5
494
330
3CA
100
AcDbEntity
  8
410019031__STOP_
  6
Continuous
 62
     7
100
AcDbCircle
 10
180.6863116992
 20
214.38349632
 30
0.0
 40
5.630029146717909
100
AcDbArc
 50
163.0065228086
 51
196.9934771914
  0
LINE
  5
495
330
3CA
100
AcDbEntity
  8
410019031__STOP_
  6
Continuous
 62
     7
100
AcDbLine
 10
175.3021006899
 20
212.7380480528
 30
0.0
 11
163.55
 21
212.7380480528
 31
0.0
  0
LINE
  5
496
330
3CA
100
AcDbEntity
  8
410019031__STOP_
  6
Continuous
 62
     7
100
AcDbLine
 10
163.55
 20
196.9619519472
 30
0.0
 11
175.3021006899
 21
196.9619519472
 31
0.0
  0
ARC
  5
497
330
3CA
100
AcDbEntity
  8
410019031__STOP_
  6
Continuous
 62
     7
100
AcDbCircle
 10
167.7892311564
 20
189.7270313864
 30
0.0
 40
8.485194997634304
100
AcDbArc
 50
332.3019170883
 51
27.6980829117
  0
ARC
  5
498
330
3CA
100
AcDbEntity
  8
410019031__STOP_
  6
Continuous
 62
     7
100
AcDbCircle
 10
180.6857946601
 20
195.31650368
 30
0.0
 40
5.629534684587693
100
AcDbArc
 50
163.0049848413
 51
196.9950151587
  0
LINE
  5
499
330
3CA
100
AcDbEntity
  8
410019031__STOP_
  6
Continuous
 62
     7
100
AcDbLine
 10
175.3021006899
 20
193.6710554128
 30
0.0
 11
163.55
 21
193.6710554128
 31
0.0
  0
SPLINE
  5
49A
330
3CA
100
AcDbEntity
  8
410019031__STOP_
  6
Continuous
 62
     7
100
AcDbSpline
210
0.0
220
0.0
230
1.0
 70
     8
 71
     3
 72
    14
 73
    10
 74
     0
 42
0.0000000089008107
 43
0.0000000001
 40
0.0
 40
0.0
 40
0.0
 40
0.0
 40
0.2499999999999995
 40
0.2499999999999995
 40
0.3749999999999996
 40
0.3749999999999996
 40
0.4999999999999997
 40
0.4999999999999997
 40
0.5007499675256936
 40
0.5007499675256936
 40
0.5007499675256936
 40
0.5007499675256936
 10
175.3021006898565
 20
185.7830073600129
 30
0.0
 10
175.2240583713907
 20
185.6188278138681
 30
0.0
 10
175.1648032426529
 20
185.4925359559604
 30
0.0
 10
175.1038620077795
 20
185.3622704699004
 30
0.0
 10
175.0883445025964
 20
185.3289887602247
 30
0.0
 10
175.0678897856635
 20
185.2850864418317
 30
0.0
 10
175.0627520387776
 20
185.2740367585324
 30
0.0
 10
175.0626904041569
 20
185.273904290258
 30
0.0
 10
175.0626902226708
 20
185.2739039004711
 30
0.0
 10
175.0626902272785
 20
185.273903910909
 30
0.0
  0
LINE
  5
49B
330
3CA
100
AcDbEntity
  8
410019031__STOP_
  6
Continuous
 62
     7
100
AcDbLine
 10
175.06269022
 20
185.2739038944
 30
0.0
 11
176.55
 21
187.85
 31
0.0
  0
LINE
  5
49C
330
3CA
100
AcDbEntity
  8
410019031__STOP_
  6
Continuous
 62
     7
100
AcDbLine
 10
176.55
 20
221.85
 30
0.0
 11
175.06269022
 21
224.4260961056
 31
0.0
  0
LINE
  5
49D
330
3CA
100
AcDbEntity
  8
410019031__STOP_
  6
Continuous
 62
     7
100
AcDbLine
 10
175.0679687193
 20
224.4260961056
 30
0.0
 11
172.45
 21
224.4260961056
 31
0.0
  0
LINE
  5
49E
330
3CA
100
AcDbEntity
  8
410019031__STOP_
  6
Continuous
 62
     7
100
AcDbLine
 10
163.55
 20
185.2739038944
 30
0.0
 11
175.0679687193
 21
185.2739038944
 31
0.0
  0
LINE
  5
49F
330
3CA
100
AcDbEntity
  8
410065031__BOX_S
  6
Continuous
 62
     7
100
AcDbLine
 10
65.5839664513
 20
115.85
 30
0.0
 11
34.9584884637
 21
115.85
 31
0.0
  0
LINE
  5
4A0
330
3CA
100
AcDbEntity
  8
410065031__BOX_S
  6
Continuous
 62
     7
100
AcDbLine
 10
117.3160335487
 20
115.85
 30
0.0
 11
65.5839664513
 21
115.85
 31
0.0
  0
LINE
  5
4A1
330
3CA
100
AcDbEntity
  8
410065031__BOX_S
  6
Continuous
 62
     7
100
AcDbLine
 10
147.9415115363
 20
115.85
 30
0.0
 11
117.3160335487
 21
115.85
 31
0.0
  0
LINE
  5
4A2
330
3CA
100
AcDbEntity
  8
410065031__BOX_S
  6
Continuous
 62
     7
100
AcDbLine
 10
34.9584884637
 20
145.85
 30
0.0
 11
34.9584884637
 21
115.85
 31
0.0
  0
LINE
  5
4A3
330
3CA
100
AcDbEntity
  8
410065031__BOX_S
  6
Continuous
 62
     7
100
AcDbLine
 10
147.9415115363
 20
145.85
 30
0.0
 11
147.9415115363
 21
115.85
 31
0.0
  0
ENDBLK
  5
4A5
330
3CA
100
AcDbEntity
  8
0
100
AcDbBlockEnd
  0
ENDSEC
  0
SECTION
  2
ENTITIES
  0
INSERT
  5
5F
330
1F
100
AcDbEntity
  8
Default
100
AcDbBlockReference
  2
SEANNOT_GROUP
 10
0.0
 20
0.0
 30
0.0
  0
LINE
  5
65
330
1F
100
AcDbEntity
  8
Default
  6
Continuous
 62
     7
100
AcDbLine
 10
18.4648901624
 20
169.715
 30
0.0
 11
18.4648901624
 21
150.373813147
 31
0.0
  0
LINE
  5
66
330
1F
100
AcDbEntity
  8
Default
  6
Continuous
 62
     7
100
AcDbLine
 10
164.4351098376
 20
169.861249388
 30
0.0
 11
164.4351098376
 21
150.9964329268
 31
0.0
  0
INSERT
  5
68
330
1F
100
AcDbEntity
  8
Default
100
AcDbBlockReference
  2
SEANNOT_GROUP1
 10
0.0
 20
0.0
 30
0.0
  0
INSERT
  5
6E
330
1F
100
AcDbEntity
  8
Default
100
AcDbBlockReference
  2
SEANNOT_GROUP2
 10
0.0
 20
0.0
 30
0.0
  0
INSERT
  5
78
330
1F
100
AcDbEntity
  8
Default
100
AcDbBlockReference
  2
SE
 10
0.0
 20
0.0
 30
0.0
  0
INSERT
  5
2EA
330
1F
100
AcDbEntity
  8
Default
100
AcDbBlockReference
  2
SE1
 10
0.0
 20
0.0
 30
0.0
  0
INSERT
  5
3CB
330
1F
100
AcDbEntity
  8
Default
100
AcDbBlockReference
  2
SE2
 10
0.0
 20
0.0
 30
0.0
  0
TEXT
  5
4A7
330
1F
100
AcDbEntity
  8
Default
  6
Continuous
 62
     7
100
AcDbText
 10
5.9362635081
 20
53.4225120485
 30
0.0
 40
10.0
  1
Grohe AG^J
  7
SEACAD_seiso_ttf
 11
5.9362635081
 21
63.4225120485
 31
0.0
100
AcDbText
 73
     3
  0
TEXT
  5
4A8
330
1F
100
AcDbEntity
  8
Default
  6
Continuous
 62
     7
100
AcDbText
 10
5.9362635081
 20
37.0588756849
 30
0.0
 40
10.0
  1
 
  7
SEACAD_seiso_ttf
 11
5.9362635081
 21
47.0588756849
 31
0.0
100
AcDbText
 73
     3
  0
TEXT
  5
4A9
330
1F
100
AcDbEntity
  8
Default
  6
Continuous
 62
     7
100
AcDbText
 10
5.9362635081
 20
20.6952393213
 30
0.0
 40
10.0
  1
ecn: 
  7
SEACAD_seiso_ttf
 11
5.9362635081
 21
30.6952393213
 31
0.0
100
AcDbText
 73
     3
  0
TEXT
  5
4AA
330
1F
100
AcDbEntity
  8
Default
  6
Continuous
 62
     7
100
AcDbText
 10
5.9362635081
 20
4.3316029576
 30
0.0
 40
10.0
  1
unit: mm
  7
SEACAD_seiso_ttf
 11
5.9362635081
 21
14.3316029576
 31
0.0
100
AcDbText
 73
     3
  0
LINE
  5
4AB
330
1F
100
AcDbEntity
  8
Default
  6
Continuous
 62
     7
100
AcDbLine
 10
0.0
 20
0.0
 30
0.0
 11
100.0
 21
0.0
 31
0.0
  0
LINE
  5
4AC
330
1F
100
AcDbEntity
  8
Default
  6
Continuous
 62
     7
100
AcDbLine
 10
0.0
 20
0.0
 30
0.0
 11
0.0
 21
100.0
 31
0.0
  0
TEXT
  5
4AD
330
1F
100
AcDbEntity
  8
Default
  6
Continuous
 62
     7
100
AcDbText
 10
24.3923665681
 20
-18.2375342018
 30
0.0
 40
10.0
  1
100 mm
  7
SEACAD_seiso_ttf
 11
24.3923665681
 21
-8.2375342018
 31
0.0
100
AcDbText
 73
     3
  0
TEXT
  5
4AE
330
1F
100
AcDbEntity
  8
Default
  6
Continuous
 62
     7
100
AcDbText
 10
-7.6150308803
 20
24.6231930421
 30
0.0
 40
10.0
  1
100 mm
 50
90.0
  7
SEACAD_seiso_ttf
 11
-17.6150308803
 21
24.6231930421
 31
0.0
100
AcDbText
 73
     3
  0
TEXT
  5
4AF
330
1F
100
AcDbEntity
  8
Default
  6
Continuous
 62
     7
100
AcDbText
 10
28.4878128572
 20
20.0907663715
 30
0.0
 40
10.0
  1
219326
  7
SEACAD_seiso_ttf
 11
28.4878128572
 21
30.0907663715
 31
0.0
100
AcDbText
 73
     3
  0
TEXT
  5
4B0
330
1F
100
AcDbEntity
  8
Default
  6
Continuous
 62
     7
100
AcDbText
 10
5.9012241913
 20
36.7242780188
 30
0.0
 40
10.0
  1
35026000
  7
SEACAD_seiso_ttf
 11
5.9012241913
 21
46.7242780188
 31
0.0
100
AcDbText
 73
     3
  0
ENDSEC
  0
SECTION
  2
OBJECTS
  0
DICTIONARY
  5
C
330
0
100
AcDbDictionary
281
     1
  3
ACAD_GROUP
350
D
  3
ACAD_LAYOUT
350
1A
  3
ACAD_MLEADERSTYLE
350
4B4
  3
ACAD_MLINESTYLE
350
17
  3
ACAD_PLOTSETTINGS
350
19
  3
ACAD_PLOTSTYLENAME
350
E
  3
ACAD_SCALELIST
350
3B
  3
ACAD_TABLESTYLE
350
4B3
  3
ACAD_VISUALSTYLE
350
2A
  3
AcDbVariableDictionary
350
4B1
  0
DICTIONARY
  5
D
102
{ACAD_REACTORS
330
C
102
}
330
C
100
AcDbDictionary
281
     1
  0
DICTIONARY
  5
1A
102
{ACAD_REACTORS
330
C
102
}
330
C
100
AcDbDictionary
281
     1
  3
Layout1
350
1E
  3
Model
350
22
  0
DICTIONARY
  5
4B4
102
{ACAD_REACTORS
330
C
102
}
330
C
100
AcDbDictionary
281
     1
  0
DICTIONARY
  5
17
102
{ACAD_REACTORS
330
C
102
}
330
C
100
AcDbDictionary
281
     1
  3
Standard
350
18
  0
DICTIONARY
  5
19
102
{ACAD_REACTORS
330
C
102
}
330
C
100
AcDbDictionary
281
     1
  0
ACDBDICTIONARYWDFLT
  5
E
102
{ACAD_REACTORS
330
C
102
}
330
C
100
AcDbDictionary
281
     1
  3
Normal
350
F
100
AcDbDictionaryWithDefault
340
F
  0
DICTIONARY
  5
3B
102
{ACAD_REACTORS
330
C
102
}
330
C
100
AcDbDictionary
281
     1
  3
A0
350
3C
  3
A1
350
3D
  3
A2
350
3E
  3
A3
350
3F
  3
A4
350
40
  3
A5
350
41
  3
A6
350
42
  3
A7
350
43
  3
A8
350
44
  3
A9
350
45
  3
B0
350
46
  3
B1
350
47
  3
B2
350
48
  3
B3
350
49
  3
B4
350
4A
  3
B5
350
4B
  3
B6
350
4C
  3
B7
350
4D
  3
B8
350
4E
  3
B9
350
4F
  3
C0
350
50
  3
C1
350
51
  3
C2
350
52
  3
C3
350
53
  3
C4
350
54
  3
C5
350
55
  3
C6
350
56
  3
C7
350
57
  3
C8
350
58
  3
C9
350
59
  3
D0
350
5A
  3
D1
350
5B
  3
D2
350
5C
  0
DICTIONARY
  5
4B3
102
{ACAD_REACTORS
330
C
102
}
330
C
100
AcDbDictionary
281
     1
  0
DICTIONARY
  5
2A
102
{ACAD_REACTORS
330
C
102
}
330
C
100
AcDbDictionary
281
     1
  3
2dWireframe
350
2F
  3
3D Hidden
350
31
  3
3dWireframe
350
30
  3
Basic
350
32
  3
Brighten
350
36
  3
ColorChange
350
3A
  3
Conceptual
350
34
  3
Dim
350
35
  3
Facepattern
350
39
  3
Flat
350
2B
  3
FlatWithEdges
350
2C
  3
Gouraud
350
2D
  3
GouraudWithEdges
350
2E
  3
Linepattern
350
38
  3
Realistic
350
33
  3
Thicken
350
37
  0
DICTIONARY
  5
4B1
102
{ACAD_REACTORS
330
C
102
}
330
C
100
AcDbDictionary
281
     1
  3
CANNOSCALE
350
4B2
  3
PSOLHEIGHT
350
4B6
  3
PSOLWIDTH
350
4B5
  0
LAYOUT
  5
1E
102
{ACAD_REACTORS
330
1A
102
}
330
1A
100
AcDbPlotSettings
  1

  2
none_device
  4

  6

 40
0.0
 41
0.0
 42
0.0
 43
0.0
 44
0.0
 45
0.0
 46
0.0
 47
0.0
 48
0.0
 49
0.0
140
0.0
141
0.0
142
1.0
143
1.0
 70
   688
 72
     0
 73
     0
 74
     5
  7

 75
    16
147
1.0
148
0.0
149
0.0
100
AcDbLayout
  1
Layout1
 70
     1
 71
     1
 10
0.0
 20
0.0
 11
1682.0
 21
2378.0
 12
0.0
 22
0.0
 32
0.0
 14
0.0
 24
0.0
 34
0.0
 15
1682.0
 25
2378.0
 35
0.0
146
0.0
 13
0.0
 23
0.0
 33
0.0
 16
1.0
 26
0.0
 36
0.0
 17
0.0
 27
1.0
 37
0.0
 76
     0
330
1B
  0
LAYOUT
  5
22
102
{ACAD_REACTORS
330
1A
102
}
330
1A
100
AcDbPlotSettings
  1

  2
none_device
  4

  6

 40
0.0
 41
0.0
 42
0.0
 43
0.0
 44
0.0
 45
0.0
 46
0.0
 47
0.0
 48
0.0
 49
0.0
140
0.0
141
0.0
142
1.0
143
1.0
 70
  1712
 72
     0
 73
     0
 74
     0
  7

 75
     0
147
1.0
148
0.0
149
0.0
100
AcDbLayout
  1
Model
 70
     1
 71
     0
 10
0.0
 20
0.0
 11
1682.0
 21
2378.0
 12
0.0
 22
0.0
 32
0.0
 14
0.0
 24
0.0
 34
0.0
 15
1682.0
 25
2378.0
 35
0.0
146
0.0
 13
0.0
 23
0.0
 33
0.0
 16
1.0
 26
0.0
 36
0.0
 17
0.0
 27
1.0
 37
0.0
 76
     0
330
1F
331
29
  0
MLINESTYLE
  5
18
102
{ACAD_REACTORS
330
17
102
}
330
17
100
AcDbMlineStyle
  2
Standard
 70
     0
  3

 62
   256
 51
90.0
 52
90.0
 71
     2
 49
0.5
 62
   256
  6
BYLAYER
 49
-0.5
 62
   256
  6
BYLAYER
  0
ACDBPLACEHOLDER
  5
F
102
{ACAD_REACTORS
330
E
102
}
330
E
  0
SCALE
  5
3C
102
{ACAD_REACTORS
330
3B
102
}
330
3B
100
AcDbScale
 70
     0
300
1:1
140
1.0
141
1.0
290
     1
  0
SCALE
  5
3D
102
{ACAD_REACTORS
330
3B
102
}
330
3B
100
AcDbScale
 70
     0
300
1:2
140
1.0
141
2.0
290
     0
  0
SCALE
  5
3E
102
{ACAD_REACTORS
330
3B
102
}
330
3B
100
AcDbScale
 70
     0
300
1:4
140
1.0
141
4.0
290
     0
  0
SCALE
  5
3F
102
{ACAD_REACTORS
330
3B
102
}
330
3B
100
AcDbScale
 70
     0
300
1:5
140
1.0
141
5.0
290
     0
  0
SCALE
  5
40
102
{ACAD_REACTORS
330
3B
102
}
330
3B
100
AcDbScale
 70
     0
300
1:8
140
1.0
141
8.0
290
     0
  0
SCALE
  5
41
102
{ACAD_REACTORS
330
3B
102
}
330
3B
100
AcDbScale
 70
     0
300
1:10
140
1.0
141
10.0
290
     0
  0
SCALE
  5
42
102
{ACAD_REACTORS
330
3B
102
}
330
3B
100
AcDbScale
 70
     0
300
1:16
140
1.0
141
16.0
290
     0
  0
SCALE
  5
43
102
{ACAD_REACTORS
330
3B
102
}
330
3B
100
AcDbScale
 70
     0
300
1:20
140
1.0
141
20.0
290
     0
  0
SCALE
  5
44
102
{ACAD_REACTORS
330
3B
102
}
330
3B
100
AcDbScale
 70
     0
300
1:30
140
1.0
141
30.0
290
     0
  0
SCALE
  5
45
102
{ACAD_REACTORS
330
3B
102
}
330
3B
100
AcDbScale
 70
     0
300
1:40
140
1.0
141
40.0
290
     0
  0
SCALE
  5
46
102
{ACAD_REACTORS
330
3B
102
}
330
3B
100
AcDbScale
 70
     0
300
1:50
140
1.0
141
50.0
290
     0
  0
SCALE
  5
47
102
{ACAD_REACTORS
330
3B
102
}
330
3B
100
AcDbScale
 70
     0
300
1:100
140
1.0
141
100.0
290
     0
  0
SCALE
  5
48
102
{ACAD_REACTORS
330
3B
102
}
330
3B
100
AcDbScale
 70
     0
300
2:1
140
2.0
141
1.0
290
     0
  0
SCALE
  5
49
102
{ACAD_REACTORS
330
3B
102
}
330
3B
100
AcDbScale
 70
     0
300
4:1
140
4.0
141
1.0
290
     0
  0
SCALE
  5
4A
102
{ACAD_REACTORS
330
3B
102
}
330
3B
100
AcDbScale
 70
     0
300
8:1
140
8.0
141
1.0
290
     0
  0
SCALE
  5
4B
102
{ACAD_REACTORS
330
3B
102
}
330
3B
100
AcDbScale
 70
     0
300
10:1
140
10.0
141
1.0
290
     0
  0
SCALE
  5
4C
102
{ACAD_REACTORS
330
3B
102
}
330
3B
100
AcDbScale
 70
     0
300
100:1
140
100.0
141
1.0
290
     0
  0
SCALE
  5
4D
102
{ACAD_REACTORS
330
3B
102
}
330
3B
100
AcDbScale
 70
     0
300
1/128" = 1'-0"
140
0.0078125
141
12.0
290
     0
  0
SCALE
  5
4E
102
{ACAD_REACTORS
330
3B
102
}
330
3B
100
AcDbScale
 70
     0
300
1/64" = 1'-0"
140
0.015625
141
12.0
290
     0
  0
SCALE
  5
4F
102
{ACAD_REACTORS
330
3B
102
}
330
3B
100
AcDbScale
 70
     0
300
1/32" = 1'-0"
140
0.03125
141
12.0
290
     0
  0
SCALE
  5
50
102
{ACAD_REACTORS
330
3B
102
}
330
3B
100
AcDbScale
 70
     0
300
1/16" = 1'-0"
140
0.0625
141
12.0
290
     0
  0
SCALE
  5
51
102
{ACAD_REACTORS
330
3B
102
}
330
3B
100
AcDbScale
 70
     0
300
3/32" = 1'-0"
140
0.09375
141
12.0
290
     0
  0
SCALE
  5
52
102
{ACAD_REACTORS
330
3B
102
}
330
3B
100
AcDbScale
 70
     0
300
1/8" = 1'-0"
140
0.125
141
12.0
290
     0
  0
SCALE
  5
53
102
{ACAD_REACTORS
330
3B
102
}
330
3B
100
AcDbScale
 70
     0
300
3/16" = 1'-0"
140
0.1875
141
12.0
290
     0
  0
SCALE
  5
54
102
{ACAD_REACTORS
330
3B
102
}
330
3B
100
AcDbScale
 70
     0
300
1/4" = 1'-0"
140
0.25
141
12.0
290
     0
  0
SCALE
  5
55
102
{ACAD_REACTORS
330
3B
102
}
330
3B
100
AcDbScale
 70
     0
300
3/8" = 1'-0"
140
0.375
141
12.0
290
     0
  0
SCALE
  5
56
102
{ACAD_REACTORS
330
3B
102
}
330
3B
100
AcDbScale
 70
     0
300
1/2" = 1'-0"
140
0.5
141
12.0
290
     0
  0
SCALE
  5
57
102
{ACAD_REACTORS
330
3B
102
}
330
3B
100
AcDbScale
 70
     0
300
3/4" = 1'-0"
140
0.75
141
12.0
290
     0
  0
SCALE
  5
58
102
{ACAD_REACTORS
330
3B
102
}
330
3B
100
AcDbScale
 70
     0
300
1" = 1'-0"
140
1.0
141
12.0
290
     0
  0
SCALE
  5
59
102
{ACAD_REACTORS
330
3B
102
}
330
3B
100
AcDbScale
 70
     0
300
1-1/2" = 1'-0"
140
1.5
141
12.0
290
     0
  0
SCALE
  5
5A
102
{ACAD_REACTORS
330
3B
102
}
330
3B
100
AcDbScale
 70
     0
300
3" = 1'-0"
140
3.0
141
12.0
290
     0
  0
SCALE
  5
5B
102
{ACAD_REACTORS
330
3B
102
}
330
3B
100
AcDbScale
 70
     0
300
6" = 1'-0"
140
6.0
141
12.0
290
     0
  0
SCALE
  5
5C
102
{ACAD_REACTORS
330
3B
102
}
330
3B
100
AcDbScale
 70
     0
300
1'-0" = 1'-0"
140
12.0
141
12.0
290
     0
  0
VISUALSTYLE
  5
2F
102
{ACAD_REACTORS
330
2A
102
}
330
2A
100
AcDbVisualStyle
  2
2dWireframe
 70
     4
 71
     0
 72
     2
 73
     0
 90
        0
 40
-0.6
 41
-30.0
 62
     5
 63
     7
 74
     1
 91
        4
 64
     7
 65
   257
 75
     1
175
     1
 42
1.0
 92
        0
 66
   257
 43
1.0
 76
     1
 77
     6
 78
     2
 67
     7
 79
     5
170
     0
171
     0
290
     0
174
     0
 93
        1
 44
0.0
173
     0
291
     0
 45
0.0
1001
ACAD
1000
AcDbSavedByObjectVersion
1070
     0
  0
VISUALSTYLE
  5
31
102
{ACAD_REACTORS
330
2A
102
}
330
2A
100
AcDbVisualStyle
  2
3D Hidden
 70
     6
 71
     1
 72
     2
 73
     2
 90
        0
 40
-0.6
 41
-30.0
 62
     5
 63
     7
 74
     2
 91
        2
 64
     7
 65
   257
 75
     2
175
     1
 42
40.0
 92
        0
 66
   257
 43
1.0
 76
     1
 77
     6
 78
     2
 67
     7
 79
     3
170
     0
171
     0
290
     0
174
     0
 93
        1
 44
0.0
173
     0
291
     0
 45
0.0
1001
ACAD
1000
AcDbSavedByObjectVersion
1070
     0
  0
VISUALSTYLE
  5
30
102
{ACAD_REACTORS
330
2A
102
}
330
2A
100
AcDbVisualStyle
  2
3dWireframe
 70
     5
 71
     0
 72
     2
 73
     0
 90
        0
 40
-0.6
 41
-30.0
 62
     5
 63
     7
 74
     1
 91
        4
 64
     7
 65
   257
 75
     1
175
     1
 42
1.0
 92
        0
 66
   257
 43
1.0
 76
     1
 77
     6
 78
     2
 67
     7
 79
     5
170
     0
171
     0
290
     0
174
     0
 93
        1
 44
0.0
173
     0
291
     0
 45
0.0
1001
ACAD
1000
AcDbSavedByObjectVersion
1070
     0
  0
VISUALSTYLE
  5
32
102
{ACAD_REACTORS
330
2A
102
}
330
2A
100
AcDbVisualStyle
  2
Basic
 70
     7
 71
     1
 72
     0
 73
     1
 90
        0
 40
-0.6
 41
-30.0
 62
     5
 63
     7
 74
     0
 91
        4
 64
     7
 65
   257
 75
     1
175
     1
 42
1.0
 92
        8
 66
     7
 43
1.0
 76
     1
 77
     6
 78
     2
 67
     7
 79
     5
170
     0
171
     0
290
     0
174
     0
 93
        1
 44
0.0
173
     0
291
     1
 45
0.0
1001
ACAD
1000
AcDbSavedByObjectVersion
1070
     0
  0
VISUALSTYLE
  5
36
102
{ACAD_REACTORS
330
2A
102
}
330
2A
100
AcDbVisualStyle
  2
Brighten
 70
    12
 71
     2
 72
     2
 73
     0
 90
        0
 40
-0.6
 41
-30.0
 62
     5
 63
     7
 74
     1
 91
        4
 64
     7
 65
   257
 75
     1
175
     1
 42
1.0
 92
        8
 66
     7
 43
1.0
 76
     1
 77
     6
 78
     2
 67
     7
 79
     5
170
     0
171
     0
290
     0
174
     0
 93
        1
 44
50.0
173
     0
291
     1
 45
0.0
1001
ACAD
1000
AcDbSavedByObjectVersion
1070
     0
  0
VISUALSTYLE
  5
3A
102
{ACAD_REACTORS
330
2A
102
}
330
2A
100
AcDbVisualStyle
  2
ColorChange
 70
    16
 71
     2
 72
     2
 73
     3
 90
        0
 40
-0.6
 41
-30.0
 62
     5
 63
     8
 74
     1
 91
        4
 64
     7
 65
   257
 75
     1
175
     1
 42
1.0
 92
        8
 66
     8
 43
1.0
 76
     1
 77
     6
 78
     2
 67
     7
 79
     5
170
     0
171
     0
290
     0
174
     0
 93
        1
 44
0.0
173
     0
291
     1
 45
0.0
1001
ACAD
1000
AcDbSavedByObjectVersion
1070
     0
  0
VISUALSTYLE
  5
34
102
{ACAD_REACTORS
330
2A
102
}
330
2A
100
AcDbVisualStyle
  2
Conceptual
 70
     9
 71
     3
 72
     2
 73
     0
 90
        0
 40
-0.6
 41
-30.0
 62
     5
 63
     7
 74
     2
 91
        2
 64
     7
 65
   257
 75
     1
175
     1
 42
40.0
 92
        8
 66
     7
 43
1.0
 76
     1
 77
     6
 78
     2
 67
     7
 79
     3
170
     0
171
     0
290
     0
174
     0
 93
        1
 44
0.0
173
     0
291
     0
 45
0.0
1001
ACAD
1000
AcDbSavedByObjectVersion
1070
     0
  0
VISUALSTYLE
  5
35
102
{ACAD_REACTORS
330
2A
102
}
330
2A
100
AcDbVisualStyle
  2
Dim
 70
    11
 71
     2
 72
     2
 73
     0
 90
        0
 40
-0.6
 41
-30.0
 62
     5
 63
     7
 74
     1
 91
        4
 64
     7
 65
   257
 75
     1
175
     1
 42
1.0
 92
        8
 66
     7
 43
1.0
 76
     1
 77
     6
 78
     2
 67
     7
 79
     5
170
     0
171
     0
290
     0
174
     0
 93
        1
 44
-50.0
173
     0
291
     1
 45
0.0
1001
ACAD
1000
AcDbSavedByObjectVersion
1070
     0
  0
VISUALSTYLE
  5
39
102
{ACAD_REACTORS
330
2A
102
}
330
2A
100
AcDbVisualStyle
  2
Facepattern
 70
    15
 71
     2
 72
     2
 73
     0
 90
        0
 40
-0.6
 41
-30.0
 62
     5
 63
     7
 74
     1
 91
        4
 64
     7
 65
   257
 75
     1
175
     1
 42
1.0
 92
        8
 66
     7
 43
1.0
 76
     1
 77
     6
 78
     2
 67
     7
 79
     5
170
     0
171
     0
290
     0
174
     0
 93
        1
 44
0.0
173
     0
291
     1
 45
0.0
1001
ACAD
1000
AcDbSavedByObjectVersion
1070
     0
  0
VISUALSTYLE
  5
2B
102
{ACAD_REACTORS
330
2A
102
}
330
2A
100
AcDbVisualStyle
  2
Flat
 70
     0
 71
     2
 72
     1
 73
     1
 90
        2
 40
-0.6
 41
30.0
 62
     5
 63
     7
 74
     0
 91
        4
 64
     7
 65
   257
 75
     1
175
     1
 42
1.0
 92
        8
 66
     7
 43
1.0
 76
     1
 77
     6
 78
     2
 67
     7
 79
     5
170
     0
171
     0
290
     0
174
     0
 93
       13
 44
0.0
173
     0
291
     1
 45
0.0
1001
ACAD
1000
AcDbSavedByObjectVersion
1070
     0
  0
VISUALSTYLE
  5
2C
102
{ACAD_REACTORS
330
2A
102
}
330
2A
100
AcDbVisualStyle
  2
FlatWithEdges
 70
     1
 71
     2
 72
     1
 73
     1
 90
        2
 40
-0.6
 41
30.0
 62
     5
 63
     7
 74
     1
 91
        4
 64
     7
 65
   257
 75
     1
175
     1
 42
1.0
 92
        0
 66
   257
 43
1.0
 76
     1
 77
     6
 78
     2
 67
     7
 79
     5
170
     0
171
     0
290
     0
174
     0
 93
       13
 44
0.0
173
     0
291
     1
 45
0.0
1001
ACAD
1000
AcDbSavedByObjectVersion
1070
     0
  0
VISUALSTYLE
  5
2D
102
{ACAD_REACTORS
330
2A
102
}
330
2A
100
AcDbVisualStyle
  2
Gouraud
 70
     2
 71
     2
 72
     2
 73
     1
 90
        2
 40
-0.6
 41
30.0
 62
     5
 63
     7
 74
     0
 91
        4
 64
     7
 65
   257
 75
     1
175
     1
 42
1.0
 92
        0
 66
     7
 43
1.0
 76
     1
 77
     6
 78
     2
 67
     7
 79
     5
170
     0
171
     0
290
     0
174
     0
 93
       13
 44
0.0
173
     0
291
     1
 45
0.0
1001
ACAD
1000
AcDbSavedByObjectVersion
1070
     0
  0
VISUALSTYLE
  5
2E
102
{ACAD_REACTORS
330
2A
102
}
330
2A
100
AcDbVisualStyle
  2
GouraudWithEdges
 70
     3
 71
     2
 72
     2
 73
     1
 90
        2
 40
-0.6
 41
30.0
 62
     5
 63
     7
 74
     1
 91
        4
 64
     7
 65
   257
 75
     1
175
     1
 42
1.0
 92
        0
 66
   257
 43
1.0
 76
     1
 77
     6
 78
     2
 67
     7
 79
     5
170
     0
171
     0
290
     0
174
     0
 93
       13
 44
0.0
173
     0
291
     1
 45
0.0
1001
ACAD
1000
AcDbSavedByObjectVersion
1070
     0
  0
VISUALSTYLE
  5
38
102
{ACAD_REACTORS
330
2A
102
}
330
2A
100
AcDbVisualStyle
  2
Linepattern
 70
    14
 71
     2
 72
     2
 73
     0
 90
        0
 40
-0.6
 41
-30.0
 62
     5
 63
     7
 74
     1
 91
        4
 64
     7
 65
   257
 75
     7
175
     7
 42
1.0
 92
        8
 66
     7
 43
1.0
 76
     1
 77
     6
 78
     2
 67
     7
 79
     5
170
     0
171
     0
290
     0
174
     0
 93
        1
 44
0.0
173
     0
291
     1
 45
0.0
1001
ACAD
1000
AcDbSavedByObjectVersion
1070
     0
  0
VISUALSTYLE
  5
33
102
{ACAD_REACTORS
330
2A
102
}
330
2A
100
AcDbVisualStyle
  2
Realistic
 70
     8
 71
     2
 72
     2
 73
     0
 90
        0
 40
-0.6
 41
-30.0
 62
     5
 63
     7
 74
     1
 91
        0
 64
     7
 65
   257
 75
     1
175
     1
 42
1.0
 92
        8
 66
     8
 43
1.0
 76
     1
 77
     6
 78
     2
 67
     7
 79
     5
170
     0
171
     0
290
     0
174
     0
 93
       13
 44
0.0
173
     0
291
     0
 45
0.0
1001
ACAD
1000
AcDbSavedByObjectVersion
1070
     0
  0
VISUALSTYLE
  5
37
102
{ACAD_REACTORS
330
2A
102
}
330
2A
100
AcDbVisualStyle
  2
Thicken
 70
    13
 71
     2
 72
     2
 73
     0
 90
        0
 40
-0.6
 41
-30.0
 62
     5
 63
     7
 74
     1
 91
        4
 64
     7
 65
   257
 75
     1
175
     1
 42
1.0
 92
       12
 66
     7
 43
1.0
 76
     1
 77
     6
 78
     2
 67
     7
 79
     5
170
     0
171
     0
290
     0
174
     0
 93
        1
 44
0.0
173
     0
291
     1
 45
0.0
1001
ACAD
1000
AcDbSavedByObjectVersion
1070
     0
  0
DICTIONARYVAR
  5
4B2
102
{ACAD_REACTORS
330
4B1
102
}
330
4B1
100
DictionaryVariables
280
     0
  1
1:1
  0
DICTIONARYVAR
  5
4B6
102
{ACAD_REACTORS
330
4B1
102
}
330
4B1
100
DictionaryVariables
280
     0
  1
80.000000
  0
DICTIONARYVAR
  5
4B5
102
{ACAD_REACTORS
330
4B1
102
}
330
4B1
100
DictionaryVariables
280
     0
  1
5.000000
  0
ENDSEC
  0
EOF
