  0
SECTION
  2
HEADER
  9
$ACADVER
  1
AC1015
  9
$ACADMAINTVER
 70
     6
  9
$DWGCODEPAGE
  3
ANSI_1252
  9
$INSBASE
 10
0.0
 20
0.0
 30
0.0
  9
$EXTMIN
 10
0.0
 20
0.0
 30
0.0
  9
$EXTMAX
 10
1682.0
 20
2378.0
 30
0.0
  9
$LIMMIN
 10
0.0
 20
0.0
  9
$LIMMAX
 10
1682.0
 20
2378.0
  9
$ORTHOMODE
 70
     0
  9
$REGENMODE
 70
     1
  9
$FILLMODE
 70
     1
  9
$QTEXTMODE
 70
     0
  9
$MIRRTEXT
 70
     1
  9
$LTSCALE
 40
1.0
  9
$ATTMODE
 70
     1
  9
$TEXTSIZE
 40
2.5
  9
$TRACEWID
 40
1.0
  9
$TEXTSTYLE
  7
Standard
  9
$CLAYER
  8
0
  9
$CELTYPE
  6
ByLayer
  9
$CECOLOR
 62
   256
  9
$CELTSCALE
 40
1.0
  9
$DISPSILH
 70
     0
  9
$DIMSCALE
 40
1.0
  9
$DIMASZ
 40
2.5
  9
$DIMEXO
 40
0.625
  9
$DIMDLI
 40
3.75
  9
$DIMRND
 40
0.0
  9
$DIMDLE
 40
0.0
  9
$DIMEXE
 40
1.25
  9
$DIMTP
 40
0.0
  9
$DIMTM
 40
0.0
  9
$DIMTXT
 40
2.5
  9
$DIMCEN
 40
2.5
  9
$DIMTSZ
 40
0.0
  9
$DIMTOL
 70
     0
  9
$DIMLIM
 70
     0
  9
$DIMTIH
 70
     0
  9
$DIMTOH
 70
     0
  9
$DIMSE1
 70
     0
  9
$DIMSE2
 70
     0
  9
$DIMTAD
 70
     1
  9
$DIMZIN
 70
     8
  9
$DIMBLK
  1

  9
$DIMASO
 70
     1
  9
$DIMSHO
 70
     1
  9
$DIMPOST
  1

  9
$DIMAPOST
  1

  9
$DIMALT
 70
     0
  9
$DIMALTD
 70
     3
  9
$DIMALTF
 40
0.0393700787
  9
$DIMLFAC
 40
1.0
  9
$DIMTOFL
 70
     1
  9
$DIMTVP
 40
0.0
  9
$DIMTIX
 70
     0
  9
$DIMSOXD
 70
     0
  9
$DIMSAH
 70
     0
  9
$DIMBLK1
  1

  9
$DIMBLK2
  1

  9
$DIMSTYLE
  2
ISO-25
  9
$DIMCLRD
 70
     0
  9
$DIMCLRE
 70
     0
  9
$DIMCLRT
 70
     0
  9
$DIMTFAC
 40
1.0
  9
$DIMGAP
 40
0.625
  9
$DIMJUST
 70
     0
  9
$DIMSD1
 70
     0
  9
$DIMSD2
 70
     0
  9
$DIMTOLJ
 70
     0
  9
$DIMTZIN
 70
     8
  9
$DIMALTZ
 70
     0
  9
$DIMALTTZ
 70
     0
  9
$DIMUPT
 70
     0
  9
$DIMDEC
 70
     2
  9
$DIMTDEC
 70
     2
  9
$DIMALTU
 70
     2
  9
$DIMALTTD
 70
     3
  9
$DIMTXSTY
  7
Standard
  9
$DIMAUNIT
 70
     0
  9
$DIMADEC
 70
     0
  9
$DIMALTRND
 40
0.0
  9
$DIMAZIN
 70
     0
  9
$DIMDSEP
 70
    44
  9
$DIMATFIT
 70
     3
  9
$DIMFRAC
 70
     0
  9
$DIMLDRBLK
  1

  9
$DIMLUNIT
 70
     2
  9
$DIMLWD
 70
    -2
  9
$DIMLWE
 70
    -2
  9
$DIMTMOVE
 70
     0
  9
$LUNITS
 70
     2
  9
$LUPREC
 70
     4
  9
$SKETCHINC
 40
1.0
  9
$FILLETRAD
 40
10.0
  9
$AUNITS
 70
     0
  9
$AUPREC
 70
     0
  9
$MENU
  1
.
  9
$ELEVATION
 40
0.0
  9
$PELEVATION
 40
0.0
  9
$THICKNESS
 40
0.0
  9
$LIMCHECK
 70
     0
  9
$CHAMFERA
 40
10.0
  9
$CHAMFERB
 40
10.0
  9
$CHAMFERC
 40
20.0
  9
$CHAMFERD
 40
0.0
  9
$SKPOLY
 70
     0
  9
$TDCREATE
 40
2455545.667474444
  9
$TDUCREATE
 40
2455545.625807778
  9
$TDUPDATE
 40
2455545.667474456
  9
$TDUUPDATE
 40
2455545.625807789
  9
$TDINDWG
 40
0.0000000116
  9
$TDUSRTIMER
 40
0.0000000116
  9
$USRTIMER
 70
     1
  9
$ANGBASE
 50
0.0
  9
$ANGDIR
 70
     0
  9
$PDMODE
 70
     0
  9
$PDSIZE
 40
0.0
  9
$PLINEWID
 40
0.0
  9
$SPLFRAME
 70
     0
  9
$SPLINETYPE
 70
     6
  9
$SPLINESEGS
 70
     8
  9
$HANDSEED
  5
185
  9
$SURFTAB1
 70
     6
  9
$SURFTAB2
 70
     6
  9
$SURFTYPE
 70
     6
  9
$SURFU
 70
     6
  9
$SURFV
 70
     6
  9
$UCSBASE
  2

  9
$UCSNAME
  2

  9
$UCSORG
 10
0.0
 20
0.0
 30
0.0
  9
$UCSXDIR
 10
1.0
 20
0.0
 30
0.0
  9
$UCSYDIR
 10
0.0
 20
1.0
 30
0.0
  9
$UCSORTHOREF
  2

  9
$UCSORTHOVIEW
 70
     0
  9
$UCSORGTOP
 10
0.0
 20
0.0
 30
0.0
  9
$UCSORGBOTTOM
 10
0.0
 20
0.0
 30
0.0
  9
$UCSORGLEFT
 10
0.0
 20
0.0
 30
0.0
  9
$UCSORGRIGHT
 10
0.0
 20
0.0
 30
0.0
  9
$UCSORGFRONT
 10
0.0
 20
0.0
 30
0.0
  9
$UCSORGBACK
 10
0.0
 20
0.0
 30
0.0
  9
$PUCSBASE
  2

  9
$PUCSNAME
  2

  9
$PUCSORG
 10
0.0
 20
0.0
 30
0.0
  9
$PUCSXDIR
 10
1.0
 20
0.0
 30
0.0
  9
$PUCSYDIR
 10
0.0
 20
1.0
 30
0.0
  9
$PUCSORTHOREF
  2

  9
$PUCSORTHOVIEW
 70
     0
  9
$PUCSORGTOP
 10
0.0
 20
0.0
 30
0.0
  9
$PUCSORGBOTTOM
 10
0.0
 20
0.0
 30
0.0
  9
$PUCSORGLEFT
 10
0.0
 20
0.0
 30
0.0
  9
$PUCSORGRIGHT
 10
0.0
 20
0.0
 30
0.0
  9
$PUCSORGFRONT
 10
0.0
 20
0.0
 30
0.0
  9
$PUCSORGBACK
 10
0.0
 20
0.0
 30
0.0
  9
$USERI1
 70
     0
  9
$USERI2
 70
     0
  9
$USERI3
 70
     0
  9
$USERI4
 70
     0
  9
$USERI5
 70
     0
  9
$USERR1
 40
0.0
  9
$USERR2
 40
0.0
  9
$USERR3
 40
0.0
  9
$USERR4
 40
0.0
  9
$USERR5
 40
0.0
  9
$WORLDVIEW
 70
     1
  9
$SHADEDGE
 70
     3
  9
$SHADEDIF
 70
    70
  9
$TILEMODE
 70
     1
  9
$MAXACTVP
 70
    64
  9
$PINSBASE
 10
0.0
 20
0.0
 30
0.0
  9
$PLIMCHECK
 70
     0
  9
$PEXTMIN
 10
0.0
 20
0.0
 30
0.0
  9
$PEXTMAX
 10
1682.0
 20
2378.0
 30
0.0
  9
$PLIMMIN
 10
0.0
 20
0.0
  9
$PLIMMAX
 10
1682.0
 20
2378.0
  9
$UNITMODE
 70
     0
  9
$VISRETAIN
 70
     1
  9
$PLINEGEN
 70
     0
  9
$PSLTSCALE
 70
     1
  9
$TREEDEPTH
 70
  3020
  9
$CMLSTYLE
  2
Standard
  9
$CMLJUST
 70
     0
  9
$CMLSCALE
 40
20.0
  9
$PROXYGRAPHICS
 70
     1
  9
$MEASUREMENT
 70
     1
  9
$CELWEIGHT
370
    -1
  9
$ENDCAPS
280
     0
  9
$JOINSTYLE
280
     0
  9
$LWDISPLAY
290
     0
  9
$INSUNITS
 70
     4
  9
$HYPERLINKBASE
  1

  9
$STYLESHEET
  1

  9
$XEDIT
290
     1
  9
$CEPSNTYPE
380
     0
  9
$PSTYLEMODE
290
     1
  9
$FINGERPRINTGUID
  2
{097351BC-8252-4D13-9E52-D8DF93B9B804}
  9
$VERSIONGUID
  2
{FAEB1C32-E019-11D5-929B-00C0DF256EC4}
  9
$EXTNAMES
290
     1
  9
$PSVPSCALE
 40
0.0
  9
$OLESTARTUP
290
     0
  0
ENDSEC
  0
SECTION
  2
CLASSES
  0
CLASS
  1
ACDBDICTIONARYWDFLT
  2
AcDbDictionaryWithDefault
  3
ObjectDBX Classes
 90
        0
280
     0
281
     0
  0
CLASS
  1
VISUALSTYLE
  2
AcDbVisualStyle
  3
ObjectDBX Classes
 90
     4095
280
     0
281
     0
  0
CLASS
  1
SCALE
  2
AcDbScale
  3
ObjectDBX Classes
 90
     1153
280
     0
281
     0
  0
CLASS
  1
DICTIONARYVAR
  2
AcDbDictionaryVar
  3
ObjectDBX Classes
 90
        0
280
     0
281
     0
  0
CLASS
  1
ACDBPLACEHOLDER
  2
AcDbPlaceHolder
  3
ObjectDBX Classes
 90
        0
280
     0
281
     0
  0
CLASS
  1
LAYOUT
  2
AcDbLayout
  3
ObjectDBX Classes
 90
        0
280
     0
281
     0
  0
ENDSEC
  0
SECTION
  2
TABLES
  0
TABLE
  2
VPORT
  5
8
330
0
100
AcDbSymbolTable
 70
     1
  0
VPORT
  5
29
330
8
100
AcDbSymbolTableRecord
100
AcDbViewportTableRecord
  2
*Active
 70
     0
 10
0.0
 20
0.0
 11
1.0
 21
1.0
 12
344.1869158879
 22
148.5
 13
0.0
 23
0.0
 14
10.0
 24
10.0
 15
10.0
 25
10.0
 16
0.0
 26
0.0
 36
1.0
 17
0.0
 27
0.0
 37
0.0
 40
297.0
 41
1.9729729729
 42
50.0
 43
0.0
 44
0.0
 50
0.0
 51
0.0
 71
     0
 72
   100
 73
     1
 74
     3
 75
     0
 76
     0
 77
     0
 78
     0
281
     0
 65
     1
110
0.0
120
0.0
130
0.0
111
1.0
121
0.0
131
0.0
112
0.0
122
1.0
132
0.0
 79
     0
146
0.0
  0
ENDTAB
  0
TABLE
  2
LTYPE
  5
5
330
0
100
AcDbSymbolTable
 70
     2
  0
LTYPE
  5
14
330
5
100
AcDbSymbolTableRecord
100
AcDbLinetypeTableRecord
  2
ByBlock
 70
     0
  3

 72
    65
 73
     0
 40
0.0
  0
LTYPE
  5
15
330
5
100
AcDbSymbolTableRecord
100
AcDbLinetypeTableRecord
  2
ByLayer
 70
     0
  3

 72
    65
 73
     0
 40
0.0
  0
LTYPE
  5
16
330
5
100
AcDbSymbolTableRecord
100
AcDbLinetypeTableRecord
  2
Continuous
 70
     0
  3
Solid line
 72
    65
 73
     0
 40
0.0
  0
LTYPE
  5
60
330
5
100
AcDbSymbolTableRecord
100
AcDbLinetypeTableRecord
  2
CENTER2
 70
     0
  3
Center (.5x) ___ _ ___ _ ___ _ ___ _ ___ _ ___
 72
    65
 73
     4
 40
28.575
 49
19.05
 74
     4
 75
     0
340
0
 46
0.0
 50
0.0
 44
0.0
 45
0.0
 49
-3.175
 74
     4
 75
     0
340
0
 46
0.0
 50
0.0
 44
0.0
 45
0.0
 49
3.175
 74
     4
 75
     0
340
0
 46
0.0
 50
0.0
 44
0.0
 45
0.0
 49
-3.175
 74
     4
 75
     0
340
0
 46
0.0
 50
0.0
 44
0.0
 45
0.0
  0
ENDTAB
  0
TABLE
  2
LAYER
  5
2
330
0
100
AcDbSymbolTable
 70
     9
  0
LAYER
  5
10
330
2
100
AcDbSymbolTableRecord
100
AcDbLayerTableRecord
  2
0
 70
     0
 62
     7
  6
Continuous
370
    -3
390
F
  0
LAYER
  5
5D
330
2
100
AcDbSymbolTableRecord
100
AcDbLayerTableRecord
  2
Default
 70
     0
 62
     7
  6
Continuous
370
    -3
390
F
  0
LAYER
  5
77
330
2
100
AcDbSymbolTableRecord
100
AcDbLayerTableRecord
  2
14086500_ESC_-_A
 70
     0
 62
     7
  6
Continuous
370
    -3
390
F
  0
LAYER
  5
A7
330
2
100
AcDbSymbolTableRecord
100
AcDbLayerTableRecord
  2
T14085010__SLEEV
 70
     0
 62
     7
  6
Continuous
370
    -3
390
F
  0
LAYER
  5
AC
330
2
100
AcDbSymbolTableRecord
100
AcDbLayerTableRecord
  2
14086700_KENSING
 70
     0
 62
     7
  6
Continuous
370
    -3
390
F
  0
LAYER
  5
AF
330
2
100
AcDbSymbolTableRecord
100
AcDbLayerTableRecord
  2
T14085060__BOW_C
 70
     0
 62
     7
  6
Continuous
370
    -3
390
F
  0
LAYER
  5
BA
330
2
100
AcDbSymbolTableRecord
100
AcDbLayerTableRecord
  2
12086000_CAP_-_P
 70
     0
 62
     7
  6
Continuous
370
    -3
390
F
  0
LAYER
  5
CE
330
2
100
AcDbSymbolTableRecord
100
AcDbLayerTableRecord
  2
T14085050__CAP_C
 70
     0
 62
     7
  6
Continuous
370
    -3
390
F
  0
LAYER
  5
104
330
2
100
AcDbSymbolTableRecord
100
AcDbLayerTableRecord
  2
T02083008_49437_
 70
     0
 62
     7
  6
Continuous
370
    -3
390
F
  0
ENDTAB
  0
TABLE
  2
STYLE
  5
3
330
0
100
AcDbSymbolTable
 70
     2
  0
STYLE
  5
11
330
3
100
AcDbSymbolTableRecord
100
AcDbTextStyleTableRecord
  2
Standard
 70
     0
 40
0.0
 41
1.0
 50
0.0
 71
     0
 42
2.5
  3
txt
  4

  0
STYLE
  5
174
330
3
100
AcDbSymbolTableRecord
100
AcDbTextStyleTableRecord
  2
SEACAD_seiso_ttf
 70
     0
 40
0.0
 41
1.0
 50
0.0
 71
     0
 42
0.2
  3
seiso.ttf
  4

  0
ENDTAB
  0
TABLE
  2
VIEW
  5
6
330
0
100
AcDbSymbolTable
 70
     0
  0
ENDTAB
  0
TABLE
  2
UCS
  5
7
330
0
100
AcDbSymbolTable
 70
     0
  0
ENDTAB
  0
TABLE
  2
APPID
  5
9
330
0
100
AcDbSymbolTable
 70
     1
  0
APPID
  5
12
330
9
100
AcDbSymbolTableRecord
100
AcDbRegAppTableRecord
  2
ACAD
 70
     0
  0
ENDTAB
  0
TABLE
  2
DIMSTYLE
  5
A
330
0
100
AcDbSymbolTable
 70
     1
100
AcDbDimStyleTable
  0
DIMSTYLE
105
27
330
A
100
AcDbSymbolTableRecord
100
AcDbDimStyleTableRecord
  2
ISO-25
 70
     0
 41
2.5
 42
0.625
 43
3.75
 44
1.25
 73
     0
 74
     0
 77
     1
 78
     8
140
2.5
141
2.5
143
0.0393700787
147
0.625
171
     3
172
     1
271
     2
272
     2
274
     3
278
    44
283
     0
284
     8
340
11
  0
ENDTAB
  0
TABLE
  2
BLOCK_RECORD
  5
1
330
0
100
AcDbSymbolTable
 70
     7
  0
BLOCK_RECORD
  5
1F
330
1
100
AcDbSymbolTableRecord
100
AcDbBlockTableRecord
  2
*Model_Space
340
22
  0
BLOCK_RECORD
  5
1B
330
1
100
AcDbSymbolTableRecord
100
AcDbBlockTableRecord
  2
*Paper_Space
340
1E
  0
BLOCK_RECORD
  5
5E
330
1
100
AcDbSymbolTableRecord
100
AcDbBlockTableRecord
  2
SEANNOT_GROUP
340
0
102
{BLKREFS
331
5F
102
}
  0
BLOCK_RECORD
  5
65
330
1
100
AcDbSymbolTableRecord
100
AcDbBlockTableRecord
  2
SEANNOT_GROUP1
340
0
102
{BLKREFS
331
66
102
}
  0
BLOCK_RECORD
  5
6B
330
1
100
AcDbSymbolTableRecord
100
AcDbBlockTableRecord
  2
SEANNOT_GROUP2
340
0
102
{BLKREFS
331
6C
102
}
  0
BLOCK_RECORD
  5
75
330
1
100
AcDbSymbolTableRecord
100
AcDbBlockTableRecord
  2
SE
340
0
102
{BLKREFS
331
76
102
}
  0
BLOCK_RECORD
  5
D9
330
1
100
AcDbSymbolTableRecord
100
AcDbBlockTableRecord
  2
SE1
340
0
102
{BLKREFS
331
DA
102
}
  0
BLOCK_RECORD
  5
130
330
1
100
AcDbSymbolTableRecord
100
AcDbBlockTableRecord
  2
SE2
340
0
102
{BLKREFS
331
131
102
}
  0
ENDTAB
  0
ENDSEC
  0
SECTION
  2
BLOCKS
  0
BLOCK
  5
20
330
1F
100
AcDbEntity
  8
0
100
AcDbBlockBegin
  2
*Model_Space
 70
     0
 10
0.0
 20
0.0
 30
0.0
  3
*Model_Space
  1

  0
ENDBLK
  5
21
330
1F
100
AcDbEntity
  8
0
100
AcDbBlockEnd
  0
BLOCK
  5
1C
330
1B
100
AcDbEntity
 67
     1
  8
0
100
AcDbBlockBegin
  2
*Paper_Space
 70
     0
 10
0.0
 20
0.0
 30
0.0
  3
*Paper_Space
  1

  0
ENDBLK
  5
1D
330
1B
100
AcDbEntity
 67
     1
  8
0
100
AcDbBlockEnd
  0
BLOCK
  5
63
330
5E
100
AcDbEntity
  8
0
100
AcDbBlockBegin
  2
SEANNOT_GROUP
 70
     0
 10
0.0
 20
0.0
 30
0.0
  3
SEANNOT_GROUP
  1

  0
LINE
  5
61
330
5E
100
AcDbEntity
  8
Default
  6
CENTER2
 62
     7
100
AcDbLine
 10
180.1707128212
 20
111.4361348046
 30
0.0
 11
140.1707137153
 21
111.4361348046
 31
0.0
  0
LINE
  5
62
330
5E
100
AcDbEntity
  8
Default
  6
CENTER2
 62
     7
100
AcDbLine
 10
160.1707132683
 20
131.4361343576
 30
0.0
 11
160.1707132683
 21
91.4361352517
 31
0.0
  0
ENDBLK
  5
64
330
5E
100
AcDbEntity
  8
0
100
AcDbBlockEnd
  0
BLOCK
  5
69
330
65
100
AcDbEntity
  8
0
100
AcDbBlockBegin
  2
SEANNOT_GROUP1
 70
     0
 10
0.0
 20
0.0
 30
0.0
  3
SEANNOT_GROUP1
  1

  0
LINE
  5
67
330
65
100
AcDbEntity
  8
Default
  6
CENTER2
 62
     7
100
AcDbLine
 10
249.0565037507
 20
195.6614032941
 30
0.0
 11
209.0565046448
 21
195.6614032941
 31
0.0
  0
LINE
  5
68
330
65
100
AcDbEntity
  8
Default
  6
CENTER2
 62
     7
100
AcDbLine
 10
229.0565041978
 20
215.6614028471
 30
0.0
 11
229.0565041978
 21
175.6614037411
 31
0.0
  0
ENDBLK
  5
6A
330
65
100
AcDbEntity
  8
0
100
AcDbBlockEnd
  0
BLOCK
  5
73
330
6B
100
AcDbEntity
  8
0
100
AcDbBlockBegin
  2
SEANNOT_GROUP2
 70
     0
 10
0.0
 20
0.0
 30
0.0
  3
SEANNOT_GROUP2
  1

  0
LINE
  5
6D
330
6B
100
AcDbEntity
  8
Default
  6
CENTER2
 62
     7
100
AcDbLine
 10
180.1707128212
 20
195.6614032941
 30
0.0
 11
140.1707137153
 21
195.6614032941
 31
0.0
  0
LINE
  5
6E
330
6B
100
AcDbEntity
  8
Default
  6
CENTER2
 62
     7
100
AcDbLine
 10
160.1707132683
 20
215.6614028471
 30
0.0
 11
160.1707132683
 21
175.6614037411
 31
0.0
  0
LINE
  5
6F
330
6B
100
AcDbEntity
  8
Default
  6
CENTER2
 62
     7
100
AcDbLine
 10
185.1707127095
 20
195.6614032941
 30
0.0
 11
181.6207132683
 21
195.6614032941
 31
0.0
  0
LINE
  5
70
330
6B
100
AcDbEntity
  8
Default
  6
CENTER2
 62
     7
100
AcDbLine
 10
160.1707132683
 20
220.6614027353
 30
0.0
 11
160.1707132683
 21
217.1114032941
 31
0.0
  0
LINE
  5
71
330
6B
100
AcDbEntity
  8
Default
  6
CENTER2
 62
     7
100
AcDbLine
 10
135.170713827
 20
195.6614032941
 30
0.0
 11
138.7207132683
 21
195.6614032941
 31
0.0
  0
LINE
  5
72
330
6B
100
AcDbEntity
  8
Default
  6
CENTER2
 62
     7
100
AcDbLine
 10
160.1707132683
 20
170.6614038529
 30
0.0
 11
160.1707132683
 21
174.2114032941
 31
0.0
  0
ENDBLK
  5
74
330
6B
100
AcDbEntity
  8
0
100
AcDbBlockEnd
  0
BLOCK
  5
D7
330
75
100
AcDbEntity
  8
0
100
AcDbBlockBegin
  2
SE
 70
     0
 10
0.0
 20
0.0
 30
0.0
  3
SE
  1

  0
ELLIPSE
  5
78
330
75
100
AcDbEntity
  8
14086500_ESC_-_A
  6
Continuous
 62
     7
100
AcDbEllipse
 10
136.9845872506
 20
201.8741070362
 30
0.0
 11
0.4880358840482595
 21
-0.1087243113623172
 31
0.0
210
0.0
220
0.0
230
1.0
 40
0.2681301623
 41
3.141592653589749
 42
3.278357139270287
  0
ELLIPSE
  5
79
330
75
100
AcDbEntity
  8
14086500_ESC_-_A
  6
Continuous
 62
     7
100
AcDbEllipse
 10
136.9845872505
 20
189.448699552
 30
0.0
 11
0.4770136292346627
 21
0.1498599263458607
 31
0.0
210
0.0
220
0.0
230
0.9999999999999998
 40
0.2681301622
 41
3.141592653589819
 42
3.278397580496034
  0
ELLIPSE
  5
7A
330
75
100
AcDbEntity
  8
14086500_ESC_-_A
  6
Continuous
 62
     7
100
AcDbEllipse
 10
136.9845872506
 20
189.448699552
 30
0.0
 11
0.4880358840176971
 21
0.1087243114999414
 31
0.0
210
0.0
220
0.0
230
1.0
 40
0.2681301606
 41
3.004087921288546
 42
3.141592653589777
  0
ELLIPSE
  5
7B
330
75
100
AcDbEntity
  8
14086500_ESC_-_A
  6
Continuous
 62
     7
100
AcDbEllipse
 10
143.1972909926
 20
212.6348255698
 30
0.0
 11
0.3682893178630249
 21
-0.338175957672892
 31
0.0
210
0.0
220
0.0
230
1.0
 40
0.2681301623
 41
3.141592653589844
 42
3.27835567387363
  0
ELLIPSE
  5
7C
330
75
100
AcDbEntity
  8
14086500_ESC_-_A
  6
Continuous
 62
     7
100
AcDbEllipse
 10
143.1972909926
 20
212.6348255697
 30
0.0
 11
0.3381759577995372
 21
-0.3682893177467048
 31
0.0
210
0.0
220
0.0
230
1.0
 40
0.2681301606
 41
3.009764489500529
 42
3.141592653589793
  0
ELLIPSE
  5
7D
330
75
100
AcDbEntity
  8
14086500_ESC_-_A
  6
Continuous
 62
     7
100
AcDbEllipse
 10
143.1972909926
 20
178.6879810184
 30
0.0
 11
0.338175957695714
 21
0.368289317842066
 31
0.0
210
0.0
220
0.0
230
1.0
 40
0.2681301622
 41
3.141592653589793
 42
3.278394167858021
  0
ELLIPSE
  5
7E
330
75
100
AcDbEntity
  8
14086500_ESC_-_A
  6
Continuous
 62
     7
100
AcDbEllipse
 10
143.1972909926
 20
178.6879810184
 30
0.0
 11
0.3682893177677019
 21
0.3381759577767638
 31
0.0
210
0.0
220
0.0
230
1.0
 40
0.2681301606
 41
3.004088545984263
 42
3.141592653589812
  0
ELLIPSE
  5
7F
330
75
100
AcDbEntity
  8
14086500_ESC_-_A
  6
Continuous
 62
     7
100
AcDbEllipse
 10
153.9580095262
 20
218.8475293118
 30
0.0
 11
0.1498599263754022
 21
-0.4770136292253646
 31
0.0
210
0.0
220
0.0
230
0.9999999999999999
 40
0.2681301623
 41
3.141592653589527
 42
3.278328027953635
  0
ELLIPSE
  5
80
330
75
100
AcDbEntity
  8
14086500_ESC_-_A
  6
Continuous
 62
     7
100
AcDbEllipse
 10
153.9580095262
 20
218.8475293118
 30
0.0
 11
0.1087243115301586
 21
-0.4880358840108831
 31
0.0
210
0.0
220
0.0
230
1.0
 40
0.2681301606
 41
3.004096209662857
 42
3.141592653589793
  0
ELLIPSE
  5
81
330
75
100
AcDbEntity
  8
14086500_ESC_-_A
  6
Continuous
 62
     7
100
AcDbEllipse
 10
153.9580095262
 20
172.4752772764
 30
0.0
 11
0.1087243113925516
 21
0.4880358840415356
 31
0.0
210
0.0
220
0.0
230
0.9999999999999999
 40
0.2681301622
 41
3.14159265358973
 42
3.278395576531373
  0
ELLIPSE
  5
82
330
75
100
AcDbEntity
  8
14086500_ESC_-_A
  6
Continuous
 62
     7
100
AcDbEllipse
 10
166.3834170103
 20
218.8475293118
 30
0.0
 11
-0.1087243113623276
 21
-0.4880358840482525
 31
0.0
210
0.0
220
0.0
230
1.0
 40
0.2681301623
 41
3.141592653574199
 42
3.278357139295442
  0
ELLIPSE
  5
83
330
75
100
AcDbEntity
  8
14086500_ESC_-_A
  6
Continuous
 62
     7
100
AcDbEllipse
 10
166.3834170103
 20
218.8475293118
 30
0.0
 11
-0.1498599262113321
 21
-0.4770136292768929
 31
0.0
210
0.0
220
0.0
230
1.0
 40
0.2681301606
 41
3.004096850162499
 42
3.14159265359012
  0
ELLIPSE
  5
84
330
75
100
AcDbEntity
  8
14086500_ESC_-_A
  6
Continuous
 62
     7
100
AcDbEllipse
 10
166.3834170103
 20
172.4752772764
 30
0.0
 11
-0.1498599263458442
 21
0.4770136292346974
 31
0.0
210
0.0
220
0.0
230
1.0
 40
0.2681301622
 41
3.141592653589749
 42
3.278395657335816
  0
ELLIPSE
  5
85
330
75
100
AcDbEntity
  8
14086500_ESC_-_A
  6
Continuous
 62
     7
100
AcDbEllipse
 10
166.3834170103
 20
172.4752772764
 30
0.0
 11
-0.108724311499951
 21
0.4880358840176624
 31
0.0
210
0.0
220
0.0
230
0.9999999999999998
 40
0.2681301606
 41
3.004087921288681
 42
3.141592653589904
  0
ELLIPSE
  5
86
330
75
100
AcDbEntity
  8
14086500_ESC_-_A
  6
Continuous
 62
     7
100
AcDbEllipse
 10
177.1441355439
 20
212.6348255697
 30
0.0
 11
-0.3381759576729024
 21
-0.3682893178630145
 31
0.0
210
0.0
220
0.0
230
1.0
 40
0.2681301623
 41
3.141592653574196
 42
3.278359201802993
  0
ELLIPSE
  5
87
330
75
100
AcDbEntity
  8
14086500_ESC_-_A
  6
Continuous
 62
     7
100
AcDbEllipse
 10
177.1441355439
 20
212.6348255697
 30
0.0
 11
-0.3682893177466979
 21
-0.3381759577995407
 31
0.0
210
0.0
220
0.0
230
1.0
 40
0.2681301606
 41
3.009768569349009
 42
3.141592653589905
  0
ELLIPSE
  5
88
330
75
100
AcDbEntity
  8
14086500_ESC_-_A
  6
Continuous
 62
     7
100
AcDbEllipse
 10
177.1441355439
 20
178.6879810184
 30
0.0
 11
-0.368289317842111
 21
0.3381759576957313
 31
0.0
210
0.0
220
0.0
230
1.0
 40
0.2681301622
 41
3.141592653589757
 42
3.278397580495912
  0
ELLIPSE
  5
89
330
75
100
AcDbEntity
  8
14086500_ESC_-_A
  6
Continuous
 62
     7
100
AcDbEllipse
 10
177.1441355439
 20
178.6879810184
 30
0.0
 11
-0.3381759577767672
 21
0.3682893177676949
 31
0.0
210
0.0
220
0.0
230
1.0
 40
0.2681301606
 41
3.004089686518731
 42
3.141592653589793
  0
ELLIPSE
  5
8A
330
75
100
AcDbEntity
  8
14086500_ESC_-_A
  6
Continuous
 62
     7
100
AcDbEllipse
 10
183.356839286
 20
201.8741070361
 30
0.0
 11
-0.4770136292253542
 21
-0.1498599263753874
 31
0.0
210
0.0
220
0.0
230
1.0
 40
0.2681301623
 41
3.141592653589874
 42
3.278326933064875
  0
ELLIPSE
  5
8B
330
75
100
AcDbEntity
  8
14086500_ESC_-_A
  6
Continuous
 62
     7
100
AcDbEllipse
 10
183.356839286
 20
201.8741070361
 30
0.0
 11
-0.4880358840108762
 21
-0.108724311530202
 31
0.0
210
0.0
220
0.0
230
1.0
 40
0.2681301606
 41
3.004096209662975
 42
3.141592653589793
  0
ELLIPSE
  5
8C
330
75
100
AcDbEntity
  8
14086500_ESC_-_A
  6
Continuous
 62
     7
100
AcDbEllipse
 10
183.356839286
 20
189.448699552
 30
0.0
 11
-0.4880358840415461
 21
0.1087243113925525
 31
0.0
210
0.0
220
0.0
230
1.0
 40
0.2681301622
 41
3.141592653589719
 42
3.278395576556098
  0
ELLIPSE
  5
8D
330
75
100
AcDbEntity
  8
14086500_ESC_-_A
  6
Continuous
 62
     7
100
AcDbEllipse
 10
183.356839286
 20
189.4486995521
 30
0.0
 11
-0.477013629267612
 21
0.1498599262408778
 31
0.0
210
0.0
220
0.0
230
1.0
 40
0.2681301606
 41
3.00408854598426
 42
3.141592653589793
  0
ARC
  5
8E
330
75
100
AcDbEntity
  8
14086500_ESC_-_A
  6
Continuous
 62
     7
100
AcDbCircle
 10
136.9845872506
 20
201.8741070362
 30
0.0
 40
0.4999999999999993
100
AcDbArc
 50
162.3608518936
 51
167.4407776132
  0
ARC
  5
8F
330
75
100
AcDbEntity
  8
14086500_ESC_-_A
  6
Continuous
 62
     7
100
AcDbCircle
 10
136.9845872505
 20
189.448699552
 30
0.0
 40
0.4999999999999793
100
AcDbArc
 50
192.5592224063
 51
197.4407776096
  0
ARC
  5
90
330
75
100
AcDbEntity
  8
14086500_ESC_-_A
  6
Continuous
 62
     7
100
AcDbCircle
 10
143.1972909926
 20
212.6348255698
 30
0.0
 40
0.4999999999988411
100
AcDbArc
 50
132.5592224094
 51
137.4407776132
  0
ARC
  5
91
330
75
100
AcDbEntity
  8
14086500_ESC_-_A
  6
Continuous
 62
     7
100
AcDbCircle
 10
143.1972909926
 20
178.6879810184
 30
0.0
 40
0.5000000000000024
100
AcDbArc
 50
222.5592224063
 51
227.4407776096
  0
ARC
  5
92
330
75
100
AcDbEntity
  8
14086500_ESC_-_A
  6
Continuous
 62
     7
100
AcDbCircle
 10
153.9580095262
 20
218.8475293118
 30
0.0
 40
0.4999999999988412
100
AcDbArc
 50
102.5592224094
 51
107.4407776132
  0
ARC
  5
93
330
75
100
AcDbEntity
  8
14086500_ESC_-_A
  6
Continuous
 62
     7
100
AcDbCircle
 10
153.9580095262
 20
172.4752772764
 30
0.0
 40
0.4999999999999993
100
AcDbArc
 50
252.4124137808
 51
257.4407776096
  0
ARC
  5
94
330
75
100
AcDbEntity
  8
14086500_ESC_-_A
  6
Continuous
 62
     7
100
AcDbCircle
 10
166.3834170103
 20
218.8475293118
 30
0.0
 40
0.4999999999999991
100
AcDbArc
 50
72.5592224065
 51
77.4407776098
  0
ARC
  5
95
330
75
100
AcDbEntity
  8
14086500_ESC_-_A
  6
Continuous
 62
     7
100
AcDbCircle
 10
166.3834170103
 20
172.4752772764
 30
0.0
 40
0.499999999999977
100
AcDbArc
 50
282.5592224063
 51
287.4407776096
  0
ARC
  5
96
330
75
100
AcDbEntity
  8
14086500_ESC_-_A
  6
Continuous
 62
     7
100
AcDbCircle
 10
177.1441355439
 20
212.6348255697
 30
0.0
 40
0.500000000000002
100
AcDbArc
 50
42.5592224065
 51
47.4407776098
  0
ARC
  5
97
330
75
100
AcDbEntity
  8
14086500_ESC_-_A
  6
Continuous
 62
     7
100
AcDbCircle
 10
177.1441355439
 20
178.6879810184
 30
0.0
 40
0.5000000000000071
100
AcDbArc
 50
312.5592224063
 51
317.4407776096
  0
ARC
  5
98
330
75
100
AcDbEntity
  8
14086500_ESC_-_A
  6
Continuous
 62
     7
100
AcDbCircle
 10
183.356839286
 20
201.8741070361
 30
0.0
 40
0.4999999999999967
100
AcDbArc
 50
12.5592224065
 51
17.4407776098
  0
ARC
  5
99
330
75
100
AcDbEntity
  8
14086500_ESC_-_A
  6
Continuous
 62
     7
100
AcDbCircle
 10
183.356839286
 20
189.448699552
 30
0.0
 40
0.5000000000000073
100
AcDbArc
 50
342.5592224063
 51
347.4407776096
  0
ARC
  5
9A
330
75
100
AcDbEntity
  8
14086500_ESC_-_A
  6
Continuous
 62
     7
100
AcDbCircle
 10
153.8752402586
 20
195.6606307928
 30
0.0
 40
30.62277884404991
100
AcDbArc
 50
348.1251690067
 51
11.8773945912
  0
ARC
  5
9B
330
75
100
AcDbEntity
  8
14086500_ESC_-_A
  6
Continuous
 62
     7
100
AcDbCircle
 10
154.7168333434
 20
198.8093140816
 30
0.0
 40
30.62442385826071
100
AcDbArc
 50
318.1258108041
 51
341.8768035262
  0
ARC
  5
9C
330
75
100
AcDbEntity
  8
14086500_ESC_-_A
  6
Continuous
 62
     7
100
AcDbCircle
 10
154.6771281886
 20
192.4952863755
 30
0.0
 40
30.66815183451625
100
AcDbArc
 50
18.1322882094
 51
41.8514467427
  0
ARC
  5
9D
330
75
100
AcDbEntity
  8
14086500_ESC_-_A
  6
Continuous
 62
     7
100
AcDbCircle
 10
157.0216693525
 20
201.1141686618
 30
0.0
 40
30.6240343362171
100
AcDbArc
 50
288.1256570614
 51
311.8769574143
  0
ARC
  5
9E
330
75
100
AcDbEntity
  8
14086500_ESC_-_A
  6
Continuous
 62
     7
100
AcDbCircle
 10
157.0228109326
 20
190.2075369767
 30
0.0
 40
30.62440772620502
100
AcDbArc
 50
48.1258569324
 51
71.8767486973
  0
ARC
  5
9F
330
75
100
AcDbEntity
  8
14086500_ESC_-_A
  6
Continuous
 62
     7
100
AcDbCircle
 10
160.1699421567
 20
201.9568858648
 30
0.0
 40
30.62278848647666
100
AcDbArc
 50
258.1251701431
 51
281.8774503212
  0
ARC
  5
A0
330
75
100
AcDbEntity
  8
14086500_ESC_-_A
  6
Continuous
 62
     7
100
AcDbCircle
 10
160.1714848998
 20
189.3659361898
 30
0.0
 40
30.62277288608745
100
AcDbArc
 50
78.1252164612
 51
81.0539367966
  0
ARC
  5
A1
330
75
100
AcDbEntity
  8
14086500_ESC_-_A
  6
Continuous
 62
     7
100
AcDbCircle
 10
160.1714848998
 20
189.3659361898
 30
0.0
 40
30.62277288608745
100
AcDbArc
 50
98.9461214241
 51
101.8773952727
  0
ARC
  5
A2
330
75
100
AcDbEntity
  8
14086500_ESC_-_A
  6
Continuous
 62
     7
100
AcDbCircle
 10
163.334684717
 20
201.136323937
 30
0.0
 40
30.65081280218041
100
AcDbArc
 50
228.1297086384
 51
252.002144905
  0
ARC
  5
A3
330
75
100
AcDbEntity
  8
14086500_ESC_-_A
  6
Continuous
 62
     7
100
AcDbCircle
 10
163.3368403388
 20
190.1678043857
 30
0.0
 40
30.668167824645
100
AcDbArc
 50
108.1322984474
 51
131.8514425453
  0
ARC
  5
A4
330
75
100
AcDbEntity
  8
14086500_ESC_-_A
  6
Continuous
 62
     7
100
AcDbCircle
 10
165.6238239415
 20
198.8106464644
 30
0.0
 40
30.62442385826267
100
AcDbArc
 50
198.1258108041
 51
221.8768035262
  0
ARC
  5
A5
330
75
100
AcDbEntity
  8
14086500_ESC_-_A
  6
Continuous
 62
     7
100
AcDbCircle
 10
165.6456286249
 20
192.4974338963
 30
0.0
 40
30.6508071408975
100
AcDbArc
 50
138.129756176
 51
162.0021454983
  0
ARC
  5
A6
330
75
100
AcDbEntity
  8
14086500_ESC_-_A
  6
Continuous
 62
     7
100
AcDbCircle
 10
166.4661899337
 20
195.6621735358
 30
0.0
 40
30.62278252862496
100
AcDbArc
 50
168.1252175977
 51
191.8774510028
  0
ARC
  5
A8
330
75
100
AcDbEntity
  8
T14085010__SLEEV
  6
Continuous
 62
     7
100
AcDbCircle
 10
160.1707132683
 20
195.6614032941
 30
0.0
 40
17.94999999999999
100
AcDbArc
 50
0.0
 51
74.6140120249
  0
ARC
  5
A9
330
75
100
AcDbEntity
  8
T14085010__SLEEV
  6
Continuous
 62
     7
100
AcDbCircle
 10
160.1707132683
 20
195.6614032941
 30
0.0
 40
17.94999999999999
100
AcDbArc
 50
105.3859879751
 51
360.0
  0
ARC
  5
AA
330
75
100
AcDbEntity
  8
T14085010__SLEEV
  6
Continuous
 62
     7
100
AcDbCircle
 10
160.1707132683
 20
195.6614032941
 30
0.0
 40
18.01446922828351
100
AcDbArc
 50
0.0
 51
74.6704298253
  0
ARC
  5
AB
330
75
100
AcDbEntity
  8
T14085010__SLEEV
  6
Continuous
 62
     7
100
AcDbCircle
 10
160.1707132683
 20
195.6614032941
 30
0.0
 40
18.01446922828351
100
AcDbArc
 50
105.3295701747
 51
360.0
  0
CIRCLE
  5
AD
330
75
100
AcDbEntity
  8
14086700_KENSING
  6
Continuous
 62
     7
100
AcDbCircle
 10
160.1707132683
 20
195.6614032941
 30
0.0
 40
8.75
  0
CIRCLE
  5
AE
330
75
100
AcDbEntity
  8
14086700_KENSING
  6
Continuous
 62
     7
100
AcDbCircle
 10
160.1707132683
 20
195.6614032941
 30
0.0
 40
13.83514646558062
  0
LINE
  5
B0
330
75
100
AcDbEntity
  8
T14085060__BOW_C
  6
Continuous
 62
     7
100
AcDbLine
 10
91.4600312333
 20
248.1614032941
 30
0.0
 11
91.4600312333
 21
135.3614032941
 31
0.0
  0
LINE
  5
B1
330
75
100
AcDbEntity
  8
T14085060__BOW_C
  6
Continuous
 62
     7
100
AcDbLine
 10
100.9850312333
 20
135.3614032941
 30
0.0
 11
100.9850312333
 21
248.1614032941
 31
0.0
  0
SPLINE
  5
B2
330
75
100
AcDbEntity
  8
T14085060__BOW_C
  6
Continuous
 62
     7
100
AcDbSpline
210
0.0
220
0.0
230
1.0
 70
     8
 71
     3
 72
    29
 73
    25
 74
     0
 42
0.0000000005102432
 43
0.0000000001
 40
0.0
 40
0.0
 40
0.0
 40
0.0
 40
0.0223897159049334
 40
0.0698714443389596
 40
0.1173572250830049
 40
0.1648490364590273
 40
0.2123595284447177
 40
0.2599027469809612
 40
0.3074946159115661
 40
0.3551533542211078
 40
0.4028997881388651
 40
0.4507575061837967
 40
0.4987527869750644
 40
0.546914208705388
 40
0.5952718284252999
 40
0.6438558050713377
 40
0.6926943445393297
 40
0.7418108879262317
 40
0.7912205728443816
 40
0.8409262003309795
 40
0.8909142433559383
 40
0.9411517852073149
 40
0.9890593793374628
 40
1.0
 40
1.0
 40
1.0
 40
1.0
 10
100.9850312332709
 20
248.161403294085
 30
0.0
 10
100.9864195754015
 20
248.3357930279744
 30
0.0
 10
100.9914988951119
 20
248.7986783912509
 30
0.0
 10
101.0479048637149
 20
249.6497960381494
 30
0.0
 10
101.181109708807
 20
250.6405394328392
 30
0.0
 10
101.3818143553228
 20
251.6252353046999
 30
0.0
 10
101.6476713318539
 20
252.5867633569401
 30
0.0
 10
101.977202844666
 20
253.5226012236607
 30
0.0
 10
102.3682256914613
 20
254.4265801769457
 30
0.0
 10
102.8183077289702
 20
255.293804102506
 30
0.0
 10
103.3246885921769
 20
256.1193691302112
 30
0.0
 10
103.8843489625999
 20
256.8987369770772
 30
0.0
 10
104.4940426684433
 20
257.6276536893218
 30
0.0
 10
105.1503374637495
 20
258.3021783443928
 30
0.0
 10
105.8496505171464
 20
258.9186697627444
 30
0.0
 10
106.58826685966
 20
259.473772437476
 30
0.0
 10
107.3623758855363
 20
259.964395576038
 30
0.0
 10
108.1679677014436
 20
260.3876853156486
 30
0.0
 10
109.0011658912917
 20
260.7410272343172
 30
0.0
 10
109.8568173320077
 20
261.0219759223219
 30
0.0
 10
110.7335565705791
 20
261.2285488271468
 30
0.0
 10
111.5996967550383
 20
261.3561091476942
 30
0.0
 10
112.2662090326725
 20
261.3963136868034
 30
0.0
 10
112.5949620555673
 20
261.3985647582322
 30
0.0
 10
112.6663494708378
 20
261.398903294085
 30
0.0
  0
ARC
  5
B3
330
75
100
AcDbEntity
  8
T14085060__BOW_C
  6
Continuous
 62
     7
100
AcDbCircle
 10
113.4657820742
 20
248.919611502
 30
0.0
 40
22.01880899958892
100
AcDbArc
 50
92.0806839823
 51
181.9733456094
  0
LINE
  5
B4
330
75
100
AcDbEntity
  8
T14085060__BOW_C
  6
Continuous
 62
     7
100
AcDbLine
 10
143.7268950307
 20
270.9239032941
 30
0.0
 11
112.6663494708
 21
270.9239032941
 31
0.0
  0
LINE
  5
B5
330
75
100
AcDbEntity
  8
T14085060__BOW_C
  6
Continuous
 62
     7
100
AcDbLine
 10
112.6663494708
 20
261.3989032941
 30
0.0
 11
143.7268950307
 21
261.3989032941
 31
0.0
  0
SPLINE
  5
B6
330
75
100
AcDbEntity
  8
T14085060__BOW_C
  6
Continuous
 62
     7
100
AcDbSpline
210
0.0
220
0.0
230
1.0
 70
     8
 71
     3
 72
    28
 73
    24
 74
     0
 42
0.0000000005102339
 43
0.0000000001
 40
0.0
 40
0.0
 40
0.0
 40
0.0
 40
0.0219919406157521
 40
0.0725771752108322
 40
0.1231308688501739
 40
0.1735593778845811
 40
0.2237929063438953
 40
0.2737805282481401
 40
0.3234919023366096
 40
0.3729158166430907
 40
0.4220567192407141
 40
0.4709304647557789
 40
0.5195601959144138
 40
0.5679728738095873
 40
0.6161966395843045
 40
0.6642589843932416
 40
0.7121856064162517
 40
0.7599998057544706
 40
0.8077222770319877
 40
0.8553711834491755
 40
0.9029624227648773
 40
0.950510019637013
 40
1.0
 40
1.0
 40
1.0
 40
1.0
 10
143.7268950306863
 20
261.398903294085
 30
0.0
 10
143.8703860619054
 20
261.3975357653597
 30
0.0
 10
144.2735130797677
 20
261.3921997986178
 30
0.0
 10
145.0224390644521
 20
261.3302392365331
 30
0.0
 10
145.9076114086916
 20
261.1784035029996
 30
0.0
 10
146.7880542674917
 20
260.9479699035905
 30
0.0
 10
147.6476804684421
 20
260.6416484185684
 30
0.0
 10
148.4838166904081
 20
260.2613453754504
 30
0.0
 10
149.2906535432327
 20
259.8098045648214
 30
0.0
 10
150.0636668538654
 20
259.2900545285806
 30
0.0
 10
150.7984225178726
 20
258.7054635979155
 30
0.0
 10
151.4908556081715
 20
258.0596663554037
 30
0.0
 10
152.1371574736989
 20
257.3565541529431
 30
0.0
 10
152.7337797513243
 20
256.6002668826081
 30
0.0
 10
153.277423368545
 20
255.7951998588737
 30
0.0
 10
153.7650524263149
 20
254.9459853360696
 30
0.0
 10
154.1938983868919
 20
254.0575585234547
 30
0.0
 10
154.5615351088028
 20
253.1348861111487
 30
0.0
 10
154.8657168671266
 20
252.1839171299303
 30
0.0
 10
155.1051072321118
 20
251.2079506159871
 30
0.0
 10
155.2766880474679
 20
250.2210352938152
 30
0.0
 10
155.3870288237493
 20
249.1837390147001
 30
0.0
 10
155.4014274027751
 20
248.5468052197855
 30
0.0
 10
155.4082132682532
 20
248.161403294085
 30
0.0
  0
ARC
  5
B7
330
75
100
AcDbEntity
  8
T14085060__BOW_C
  6
Continuous
 62
     7
100
AcDbCircle
 10
142.9324899347
 20
248.9242952986
 30
0.0
 40
22.01394629341593
100
AcDbArc
 50
358.0140205049
 51
87.9319499034
  0
LINE
  5
B8
330
75
100
AcDbEntity
  8
T14085060__BOW_C
  6
Continuous
 62
     7
100
AcDbLine
 10
164.9332132683
 20
208.6510095804
 30
0.0
 11
164.9332132683
 21
248.1614032941
 31
0.0
  0
LINE
  5
B9
330
75
100
AcDbEntity
  8
T14085060__BOW_C
  6
Continuous
 62
     7
100
AcDbLine
 10
155.4082132683
 20
248.1614032941
 30
0.0
 11
155.4082132683
 21
208.6510095804
 31
0.0
  0
LINE
  5
BB
330
75
100
AcDbEntity
  8
12086000_CAP_-_P
  6
Continuous
 62
     7
100
AcDbLine
 10
165.2341956595
 20
195.6614032941
 30
0.0
 11
168.4573587841
 21
195.6614032941
 31
0.0
  0
LINE
  5
BC
330
75
100
AcDbEntity
  8
12086000_CAP_-_P
  6
Continuous
 62
     7
100
AcDbLine
 10
155.267906786
 20
195.6614032941
 30
0.0
 11
155.107230877
 21
195.6614032941
 31
0.0
  0
LINE
  5
BD
330
75
100
AcDbEntity
  8
12086000_CAP_-_P
  6
Continuous
 62
     7
100
AcDbLine
 10
157.7193100271
 20
199.9073582575
 30
0.0
 11
157.6389720726
 21
200.0465076766
 31
0.0
  0
LINE
  5
BE
330
75
100
AcDbEntity
  8
12086000_CAP_-_P
  6
Continuous
 62
     7
100
AcDbLine
 10
162.6221165094
 20
199.9073582575
 30
0.0
 11
162.7024544639
 21
200.0465076766
 31
0.0
  0
LINE
  5
BF
330
75
100
AcDbEntity
  8
12086000_CAP_-_P
  6
Continuous
 62
     7
100
AcDbLine
 10
165.0735197505
 20
195.6614032941
 30
0.0
 11
165.2341956595
 21
195.6614032941
 31
0.0
  0
LINE
  5
C0
330
75
100
AcDbEntity
  8
12086000_CAP_-_P
  6
Continuous
 62
     7
100
AcDbLine
 10
162.6221165094
 20
191.4154483306
 30
0.0
 11
162.7024544639
 21
191.2762989116
 31
0.0
  0
LINE
  5
C1
330
75
100
AcDbEntity
  8
12086000_CAP_-_P
  6
Continuous
 62
     7
100
AcDbLine
 10
157.7193100271
 20
191.4154483306
 30
0.0
 11
157.6389720726
 21
191.2762989116
 31
0.0
  0
LINE
  5
C2
330
75
100
AcDbEntity
  8
12086000_CAP_-_P
  6
Continuous
 62
     7
100
AcDbLine
 10
164.3140360262
 20
202.837848823
 30
0.0
 11
162.7024544639
 21
200.0465076766
 31
0.0
  0
LINE
  5
C3
330
75
100
AcDbEntity
  8
12086000_CAP_-_P
  6
Continuous
 62
     7
100
AcDbLine
 10
156.0273905103
 20
202.837848823
 30
0.0
 11
157.6389720726
 21
200.0465076766
 31
0.0
  0
LINE
  5
C4
330
75
100
AcDbEntity
  8
12086000_CAP_-_P
  6
Continuous
 62
     7
100
AcDbLine
 10
151.8840677524
 20
195.6614032941
 30
0.0
 11
155.107230877
 21
195.6614032941
 31
0.0
  0
LINE
  5
C5
330
75
100
AcDbEntity
  8
12086000_CAP_-_P
  6
Continuous
 62
     7
100
AcDbLine
 10
164.3140360262
 20
188.4849577652
 30
0.0
 11
162.7024544639
 21
191.2762989116
 31
0.0
  0
LINE
  5
C6
330
75
100
AcDbEntity
  8
12086000_CAP_-_P
  6
Continuous
 62
     7
100
AcDbLine
 10
156.0273905103
 20
188.4849577652
 30
0.0
 11
157.6389720726
 21
191.2762989116
 31
0.0
  0
LINE
  5
C7
330
75
100
AcDbEntity
  8
12086000_CAP_-_P
  6
Continuous
 62
     7
100
AcDbLine
 10
164.3140360262
 20
188.4849577652
 30
0.0
 11
164.5039816817
 21
188.1559622392
 31
0.0
  0
LINE
  5
C8
330
75
100
AcDbEntity
  8
12086000_CAP_-_P
  6
Continuous
 62
     7
100
AcDbLine
 10
155.8374448548
 20
188.1559622392
 30
0.0
 11
156.0273905103
 21
188.4849577652
 31
0.0
  0
LINE
  5
C9
330
75
100
AcDbEntity
  8
12086000_CAP_-_P
  6
Continuous
 62
     7
100
AcDbLine
 10
168.4573587841
 20
195.6614032941
 30
0.0
 11
168.8372500952
 21
195.6614032941
 31
0.0
  0
LINE
  5
CA
330
75
100
AcDbEntity
  8
12086000_CAP_-_P
  6
Continuous
 62
     7
100
AcDbLine
 10
151.5041764414
 20
195.6614032941
 30
0.0
 11
151.8840677524
 21
195.6614032941
 31
0.0
  0
LINE
  5
CB
330
75
100
AcDbEntity
  8
12086000_CAP_-_P
  6
Continuous
 62
     7
100
AcDbLine
 10
164.3140360262
 20
202.837848823
 30
0.0
 11
164.5039816817
 21
203.166844349
 31
0.0
  0
LINE
  5
CC
330
75
100
AcDbEntity
  8
12086000_CAP_-_P
  6
Continuous
 62
     7
100
AcDbLine
 10
155.8374448548
 20
203.166844349
 30
0.0
 11
156.0273905103
 21
202.837848823
 31
0.0
  0
CIRCLE
  5
CD
330
75
100
AcDbEntity
  8
12086000_CAP_-_P
  6
Continuous
 62
     7
100
AcDbCircle
 10
160.1707132683
 20
195.6614032941
 30
0.0
 40
8.691196303513935
  0
LINE
  5
CF
330
75
100
AcDbEntity
  8
T14085050__CAP_C
  6
Continuous
 62
     7
100
AcDbLine
 10
104.7225312333
 20
135.3614032941
 30
0.0
 11
87.7225312333
 21
135.3614032941
 31
0.0
  0
LINE
  5
D0
330
75
100
AcDbEntity
  8
T14085050__CAP_C
  6
Continuous
 62
     7
100
AcDbLine
 10
87.7225312333
 20
127.3614032941
 30
0.0
 11
104.7225312333
 21
127.3614032941
 31
0.0
  0
LINE
  5
D1
330
75
100
AcDbEntity
  8
T14085050__CAP_C
  6
Continuous
 62
     7
100
AcDbLine
 10
105.2225312333
 20
127.8614032941
 30
0.0
 11
105.2225312333
 21
134.8614032941
 31
0.0
  0
LINE
  5
D2
330
75
100
AcDbEntity
  8
T14085050__CAP_C
  6
Continuous
 62
     7
100
AcDbLine
 10
87.2225312333
 20
134.8614032941
 30
0.0
 11
87.2225312333
 21
127.8614032941
 31
0.0
  0
ARC
  5
D3
330
75
100
AcDbEntity
  8
T14085050__CAP_C
  6
Continuous
 62
     7
100
AcDbCircle
 10
104.7225312333
 20
134.8614032941
 30
0.0
 40
0.4999999999999935
100
AcDbArc
 50
0.0
 51
90.0
  0
ARC
  5
D4
330
75
100
AcDbEntity
  8
T14085050__CAP_C
  6
Continuous
 62
     7
100
AcDbCircle
 10
87.7225312333
 20
134.8614032941
 30
0.0
 40
0.5000000000000004
100
AcDbArc
 50
90.0
 51
180.0
  0
ARC
  5
D5
330
75
100
AcDbEntity
  8
T14085050__CAP_C
  6
Continuous
 62
     7
100
AcDbCircle
 10
104.7225312333
 20
127.8614032941
 30
0.0
 40
0.5000000000000004
100
AcDbArc
 50
270.0
 51
0.0
  0
ARC
  5
D6
330
75
100
AcDbEntity
  8
T14085050__CAP_C
  6
Continuous
 62
     7
100
AcDbCircle
 10
87.7225312333
 20
127.8614032941
 30
0.0
 40
0.4999999999999866
100
AcDbArc
 50
180.0
 51
270.0
  0
ENDBLK
  5
D8
330
75
100
AcDbEntity
  8
0
100
AcDbBlockEnd
  0
BLOCK
  5
12E
330
D9
100
AcDbEntity
  8
0
100
AcDbBlockBegin
  2
SE1
 70
     0
 10
0.0
 20
0.0
 30
0.0
  3
SE1
  1

  0
LINE
  5
DB
330
D9
100
AcDbEntity
  8
14086500_ESC_-_A
  6
Continuous
 62
     7
100
AcDbLine
 10
230.7004377289
 20
171.4370649987
 30
0.0
 11
231.5249849611
 21
172.0812718996
 31
0.0
  0
LINE
  5
DC
330
D9
100
AcDbEntity
  8
14086500_ESC_-_A
  6
Continuous
 62
     7
100
AcDbLine
 10
237.8255197151
 20
177.0037891422
 30
0.0
 11
237.7223774531
 21
176.9232055754
 31
0.0
  0
LINE
  5
DD
330
D9
100
AcDbEntity
  8
14086500_ESC_-_A
  6
Continuous
 62
     7
100
AcDbLine
 10
237.7223774531
 20
176.9232055754
 30
0.0
 11
231.5249849609
 21
172.0812718994
 31
0.0
  0
LINE
  5
DE
330
D9
100
AcDbEntity
  8
14086500_ESC_-_A
  6
Continuous
 62
     7
100
AcDbLine
 10
237.7223774531
 20
214.3996010128
 30
0.0
 11
237.8255197151
 21
214.319017446
 31
0.0
  0
LINE
  5
DF
330
D9
100
AcDbEntity
  8
14086500_ESC_-_A
  6
Continuous
 62
     7
100
AcDbLine
 10
231.5249849611
 20
219.2415346886
 30
0.0
 11
237.7223774531
 21
214.3996010128
 31
0.0
  0
LINE
  5
E0
330
D9
100
AcDbEntity
  8
14086500_ESC_-_A
  6
Continuous
 62
     7
100
AcDbLine
 10
238.0565041978
 20
177.8725743653
 30
0.0
 11
238.0565041978
 21
213.4502322229
 31
0.0
  0
LINE
  5
E1
330
D9
100
AcDbEntity
  8
14086500_ESC_-_A
  6
Continuous
 62
     7
100
AcDbLine
 10
229.0565041978
 20
171.7764374318
 30
0.0
 11
229.0565041978
 21
219.5463691564
 31
0.0
  0
ARC
  5
E2
330
D9
100
AcDbEntity
  8
14086500_ESC_-_A
  6
Continuous
 62
     7
100
AcDbCircle
 10
230.3895586379
 20
171.8421843905
 30
0.0
 40
0.5103700233373293
100
AcDbArc
 50
255.5784235867
 51
298.5926809974
  0
SPLINE
  5
E3
330
D9
100
AcDbEntity
  8
14086500_ESC_-_A
  6
Continuous
 62
     7
100
AcDbSpline
210
0.0
220
0.0
230
1.0
 70
     8
 71
     3
 72
    11
 73
     7
 74
     0
 42
0.0000000067414032
 43
0.0000000001
 40
0.0
 40
0.0
 40
0.0
 40
0.0
 40
0.2397488513182245
 40
0.4920024129334648
 40
0.7455482974835885
 40
1.0
 40
1.0
 40
1.0
 40
1.0
 10
231.5234641273197
 20
219.2419941743122
 30
0.0
 10
231.3520087892022
 20
219.3734119358611
 30
0.0
 10
231.0583189881432
 20
219.5969510346972
 30
0.0
 10
230.6888129724007
 20
219.8361394912444
 30
0.0
 10
230.4057346636419
 20
219.9737351145758
 30
0.0
 10
230.3140186368474
 20
219.9764016813426
 30
0.0
 10
230.2624486267015
 20
219.974910176276
 30
0.0
  0
SPLINE
  5
E4
330
D9
100
AcDbEntity
  8
14086500_ESC_-_A
  6
Continuous
 62
     7
100
AcDbSpline
210
0.0
220
0.0
230
1.0
 70
     8
 71
     3
 72
    11
 73
     7
 74
     0
 42
0.0000000247801638
 43
0.0000000001
 40
0.0
 40
0.0
 40
0.0
 40
0.0
 40
0.2500000000034359
 40
0.5000000000046961
 40
0.7500000000102633
 40
1.0
 40
1.0
 40
1.0
 40
1.0
 10
237.8255197151431
 20
177.0037891422043
 30
0.0
 10
237.8533236873114
 20
177.0278549354556
 30
0.0
 10
237.8999444829537
 20
177.0694625115462
 30
0.0
 10
237.9579553323141
 20
177.1539841122827
 30
0.0
 10
237.9988164487901
 20
177.2480028805928
 30
0.0
 10
238.0093464913483
 20
177.3095967697217
 30
0.0
 10
238.0149921279057
 20
177.3459333912056
 30
0.0
  0
SPLINE
  5
E5
330
D9
100
AcDbEntity
  8
14086500_ESC_-_A
  6
Continuous
 62
     7
100
AcDbSpline
210
0.0
220
0.0
230
1.0
 70
     8
 71
     3
 72
    11
 73
     7
 74
     0
 42
0.0000000247801638
 43
0.0000000001
 40
0.0
 40
0.0
 40
0.0
 40
0.0
 40
0.2499999999898355
 40
0.4999999999954099
 40
0.7499999999966636
 40
1.0
 40
1.0
 40
1.0
 40
1.0
 10
238.0149921279737
 20
213.9768731963123
 30
0.0
 10
238.0093464914518
 20
214.0132098178622
 30
0.0
 10
237.9988164489504
 20
214.0748037071053
 30
0.0
 10
237.9579553324833
 20
214.1688224756039
 30
0.0
 10
237.8999444830692
 20
214.253344076509
 30
0.0
 10
237.8533236873546
 20
214.294951652673
 30
0.0
 10
237.825519715143
 20
214.3190174459658
 30
0.0
  0
ARC
  5
E6
330
D9
100
AcDbEntity
  8
14086500_ESC_-_A
  6
Continuous
 62
     7
100
AcDbCircle
 10
227.6080480383
 20
178.4312093233
 30
0.0
 40
10.46337943180476
100
AcDbArc
 50
353.9871758192
 51
356.9395498828
  0
ARC
  5
E7
330
D9
100
AcDbEntity
  8
14086500_ESC_-_A
  6
Continuous
 62
     7
100
AcDbCircle
 10
227.6080480383
 20
212.8915972649
 30
0.0
 40
10.46337943180474
100
AcDbArc
 50
3.0604501172
 51
6.0143449954
  0
ARC
  5
E8
330
D9
100
AcDbEntity
  8
14086500_ESC_-_A
  6
Continuous
 62
     7
100
AcDbCircle
 10
232.3694880336
 20
179.1883293324
 30
0.0
 40
8.118620784498187
100
AcDbArc
 50
245.9162061553
 51
254.9599509297
  0
ARC
  5
E9
330
D9
100
AcDbEntity
  8
14086500_ESC_-_A
  6
Continuous
 62
     7
100
AcDbCircle
 10
232.3694880336
 20
212.1344772558
 30
0.0
 40
8.118620784498178
100
AcDbArc
 50
105.0478799209
 51
114.0837938447
  0
LINE
  5
EA
330
D9
100
AcDbEntity
  8
T14085010__SLEEV
  6
Continuous
 62
     7
100
AcDbLine
 10
276.4565041978
 20
205.411606444
 30
0.0
 11
276.4565041978
 21
185.9112001442
 31
0.0
  0
LINE
  5
EB
330
D9
100
AcDbEntity
  8
T14085010__SLEEV
  6
Continuous
 62
     7
100
AcDbLine
 10
239.0499333003
 20
213.6114032941
 30
0.0
 11
239.0499333003
 21
177.7114032941
 31
0.0
  0
CIRCLE
  5
EC
330
D9
100
AcDbEntity
  8
T14085010__SLEEV
  6
Continuous
 62
     7
100
AcDbCircle
 10
256.8565041978
 20
195.6614032941
 30
0.0
 40
3.30000000000003
  0
LINE
  5
ED
330
D9
100
AcDbEntity
  8
T14085010__SLEEV
  6
Continuous
 62
     7
100
AcDbLine
 10
275.5442812152
 20
185.0898308813
 30
0.0
 11
276.4565041978
 21
185.9112001442
 31
0.0
  0
LINE
  5
EE
330
D9
100
AcDbEntity
  8
T14085010__SLEEV
  6
Continuous
 62
     7
100
AcDbLine
 10
276.4565041978
 20
205.411606444
 30
0.0
 11
275.5442812152
 21
206.2329757068
 31
0.0
  0
ARC
  5
EF
330
D9
100
AcDbEntity
  8
T14085010__SLEEV
  6
Continuous
 62
     7
100
AcDbCircle
 10
275.209715912
 20
205.8614032941
 30
0.0
 40
0.5000000000000012
100
AcDbArc
 50
48.0
 51
100.2120265005
  0
ARC
  5
F0
330
D9
100
AcDbEntity
  8
T14085010__SLEEV
  6
Continuous
 62
     7
100
AcDbCircle
 10
275.209715912
 20
185.4614032941
 30
0.0
 40
0.5000000000000006
100
AcDbArc
 50
259.7879734995
 51
312.0
  0
ARC
  5
F1
330
D9
100
AcDbEntity
  8
T14085010__SLEEV
  6
Continuous
 62
     7
100
AcDbCircle
 10
266.2565041978
 20
255.5614032941
 30
0.0
 40
50.0
100
AcDbArc
 50
237.0346722594
 51
280.2120265005
  0
ARC
  5
F2
330
D9
100
AcDbEntity
  8
T14085010__SLEEV
  6
Continuous
 62
     7
100
AcDbCircle
 10
266.2565041978
 20
135.7614032941
 30
0.0
 40
50.0
100
AcDbArc
 50
79.7879734995
 51
122.9653277406
  0
ARC
  5
F3
330
D9
100
AcDbEntity
  8
T14085010__SLEEV
  6
Continuous
 62
     7
100
AcDbCircle
 10
238.7565041978
 20
212.9758725224
 30
0.0
 40
0.7000000000000017
100
AcDbArc
 50
65.2168920114
 51
180.0
  0
ARC
  5
F4
330
D9
100
AcDbEntity
  8
T14085010__SLEEV
  6
Continuous
 62
     7
100
AcDbCircle
 10
238.7565041978
 20
178.3469340658
 30
0.0
 40
0.6999999999999993
100
AcDbArc
 50
180.0
 51
294.7831079886
  0
SPLINE
  5
F5
330
D9
100
AcDbEntity
  8
14086700_KENSING
  6
Continuous
 62
     7
100
AcDbSpline
210
0.0
220
0.0
230
1.0
 70
     8
 71
     3
 72
    12
 73
     8
 74
     0
 42
0.0000000005675412
 43
0.0000000001
 40
0.3788640219189034
 40
0.3788640219189034
 40
0.3788640219189034
 40
0.3788640219189034
 40
0.4375000000000001
 40
0.4375000000000001
 40
0.5000000000000001
 40
0.5000000000000001
 40
0.5513325215815089
 40
0.5513325215815089
 40
0.5513325215815089
 40
0.5513325215815089
 10
290.381031119588
 20
208.1928530717536
 30
0.0
 10
290.3806729120425
 20
208.1924345927981
 30
0.0
 10
290.2611516068964
 20
208.1033577103509
 30
0.0
 10
289.7972867535109
 20
207.7726078892412
 30
0.0
 10
289.4480519720021
 20
207.5287939387227
 30
0.0
 10
288.6733276959346
 20
207.0352873403372
 30
0.0
 10
288.2698940482509
 20
206.7920932909495
 30
0.0
 10
287.8247519651062
 20
206.5557243890051
 30
0.0
  0
ARC
  5
F6
330
D9
100
AcDbEntity
  8
14086700_KENSING
  6
Continuous
 62
     7
100
AcDbCircle
 10
294.3148930454
 20
208.4965497597
 30
0.0
 40
1.000000000000007
100
AcDbArc
 50
32.4251674377
 51
110.7724246819
  0
ARC
  5
F7
330
D9
100
AcDbEntity
  8
14086700_KENSING
  6
Continuous
 62
     7
100
AcDbCircle
 10
294.3148930454
 20
182.8262568285
 30
0.0
 40
0.9999999999999957
100
AcDbArc
 50
249.2275753181
 51
327.5748325623
  0
ARC
  5
F8
330
D9
100
AcDbEntity
  8
14086700_KENSING
  6
Continuous
 62
     7
100
AcDbCircle
 10
276.9565041978
 20
205.0055508413
 30
0.0
 40
0.4999999999999966
100
AcDbArc
 50
95.1765129594
 51
180.0
  0
ARC
  5
F9
330
D9
100
AcDbEntity
  8
14086700_KENSING
  6
Continuous
 62
     7
100
AcDbCircle
 10
276.9565041978
 20
186.3172557469
 30
0.0
 40
0.5000000000000004
100
AcDbArc
 50
180.0
 51
264.8234870407
  0
ARC
  5
FA
330
D9
100
AcDbEntity
  8
14086700_KENSING
  6
Continuous
 62
     7
100
AcDbCircle
 10
273.7435052843
 20
195.8939352968
 30
0.0
 40
25.37101177561875
100
AcDbArc
 50
327.5748325623
 51
338.2689886123
  0
ARC
  5
FB
330
D9
100
AcDbEntity
  8
14086700_KENSING
  6
Continuous
 62
     7
100
AcDbCircle
 10
273.7435052843
 20
195.4288712914
 30
0.0
 40
25.37101177561875
100
AcDbArc
 50
21.7310113877
 51
32.4251674377
  0
ARC
  5
FC
330
D9
100
AcDbEntity
  8
14086700_KENSING
  6
Continuous
 62
     7
100
AcDbCircle
 10
297.0327781599
 20
204.7114032941
 30
0.0
 40
0.2999999999999947
100
AcDbArc
 50
0.0
 51
21.7310113877
  0
ARC
  5
FD
330
D9
100
AcDbEntity
  8
14086700_KENSING
  6
Continuous
 62
     7
100
AcDbCircle
 10
297.0327781599
 20
186.6114032941
 30
0.0
 40
0.3000000000000084
100
AcDbArc
 50
338.2689886123
 51
0.0
  0
LINE
  5
FE
330
D9
100
AcDbEntity
  8
14086700_KENSING
  6
Continuous
 62
     7
100
AcDbLine
 10
297.3327781599
 20
186.6114032941
 30
0.0
 11
297.3327781599
 21
204.7114032941
 31
0.0
  0
ARC
  5
FF
330
D9
100
AcDbEntity
  8
14086700_KENSING
  6
Continuous
 62
     7
100
AcDbCircle
 10
271.0943325908
 20
269.7138432047
 30
0.0
 40
64.4732880231175
100
AcDbArc
 50
275.1765129594
 51
278.2726912946
  0
ARC
  5
100
330
D9
100
AcDbEntity
  8
14086700_KENSING
  6
Continuous
 62
     7
100
AcDbCircle
 10
271.0943325908
 20
269.7138432047
 30
0.0
 40
64.4732880231175
100
AcDbArc
 50
287.3906307681
 51
290.7724246819
  0
ARC
  5
101
330
D9
100
AcDbEntity
  8
14086700_KENSING
  6
Continuous
 62
     7
100
AcDbCircle
 10
271.0943325908
 20
121.6089633835
 30
0.0
 40
64.47328802311748
100
AcDbArc
 50
69.2275753181
 51
84.8234870406
  0
SPLINE
  5
102
330
D9
100
AcDbEntity
  8
14086700_KENSING
  6
Continuous
 62
     7
100
AcDbSpline
210
0.0
220
0.0
230
1.0
 70
     8
 71
     3
 72
    16
 73
    12
 74
     0
 42
0.0000000114823504
 43
0.0000000001
 40
0.7453649990118315
 40
0.7453649990118315
 40
0.7453649990118315
 40
0.7453649990118315
 40
0.8190954766406934
 40
0.9093162589677465
 40
0.9557138826770712
 40
0.9642486078884459
 40
0.9688884251100519
 40
0.9717722313565719
 40
0.9755956553765645
 40
0.9878163958988675
 40
1.0
 40
1.0
 40
1.0
 40
1.0
 10
280.5853347586267
 20
205.8652345337046
 30
0.0
 10
280.5681011764999
 20
205.8713404036165
 30
0.0
 10
280.5353250868137
 20
205.8830710723228
 30
0.0
 10
280.5080931323939
 20
205.8927494113659
 30
0.0
 10
280.5022981563456
 20
205.8948277335871
 30
0.0
 10
280.4943463240641
 20
205.897483425078
 30
0.0
 10
280.4884368926224
 20
205.8993583356059
 30
0.0
 10
280.4793608690235
 20
205.9019909486478
 30
0.0
 10
280.4570534445596
 20
205.9075900860459
 30
0.0
 10
280.4185025972835
 20
205.9135913249541
 30
0.0
 10
280.3887500337377
 20
205.9113172215667
 30
0.0
 10
280.3710893048714
 20
205.9098406771707
 30
0.0
  0
SPLINE
  5
103
330
D9
100
AcDbEntity
  8
14086700_KENSING
  6
Continuous
 62
     7
100
AcDbSpline
210
0.0
220
0.0
230
1.0
 70
     8
 71
     3
 72
    23
 73
    19
 74
     0
 42
0.0000000012707515
 43
0.0000000001
 40
0.0
 40
0.0
 40
0.0
 40
0.0
 40
0.0621101757038338
 40
0.1325904467066541
 40
0.2001911736959305
 40
0.2646146684095456
 40
0.3257113764794927
 40
0.3854782587727724
 40
0.4446354531950184
 40
0.5040282103978525
 40
0.5659148664202167
 40
0.6296637382714612
 40
0.6953682392247296
 40
0.7624933876446093
 40
0.8293762454171641
 40
0.8958193367792078
 40
0.9425892549026493
 40
0.9566456377648532
 40
0.9566456377648532
 40
0.9566456377648532
 40
0.9566456377648532
 10
287.7574169381323
 20
206.5535410227782
 30
0.0
 10
287.5602666470852
 20
206.4516681089405
 30
0.0
 10
287.2017472644548
 20
206.268828799658
 30
0.0
 10
286.5508598327722
 20
205.9859592256188
 30
0.0
 10
285.8735209487454
 20
205.7431475970433
 30
0.0
 10
285.1980449071657
 20
205.5546184984984
 30
0.0
 10
284.541680566324
 20
205.429390630591
 30
0.0
 10
283.9112423078176
 20
205.3602789854854
 30
0.0
 10
283.3115540126217
 20
205.3451478849838
 30
0.0
 10
282.7438924233398
 20
205.375443030048
 30
0.0
 10
282.2130929919253
 20
205.4410403342511
 30
0.0
 10
281.7299765296156
 20
205.5333760591908
 30
0.0
 10
281.3071857405227
 20
205.6377917269017
 30
0.0
 10
280.9616929870988
 20
205.7389720494084
 30
0.0
 10
280.7067871332241
 20
205.822560703998
 30
0.0
 10
280.5613194900527
 20
205.8736722430774
 30
0.0
 10
280.5141222819547
 20
205.8903984976419
 30
0.0
 10
280.5067914938607
 20
205.8930739220873
 30
0.0
 10
280.5067919339089
 20
205.8930743588941
 30
0.0
  0
CIRCLE
  5
105
330
D9
100
AcDbEntity
  8
T02083008_49437_
  6
Continuous
 62
     7
100
AcDbCircle
 10
256.8565041978
 20
195.6614032941
 30
0.0
 40
3.0
  0
LINE
  5
106
330
D9
100
AcDbEntity
  8
T02083008_49437_
  6
Continuous
 62
     7
100
AcDbLine
 10
258.5885550054
 20
195.6614032941
 30
0.0
 11
257.7225296016
 21
194.1614032941
 31
0.0
  0
LINE
  5
107
330
D9
100
AcDbEntity
  8
T02083008_49437_
  6
Continuous
 62
     7
100
AcDbLine
 10
257.7225296016
 20
194.1614032941
 30
0.0
 11
255.990478794
 21
194.1614032941
 31
0.0
  0
LINE
  5
108
330
D9
100
AcDbEntity
  8
T02083008_49437_
  6
Continuous
 62
     7
100
AcDbLine
 10
255.990478794
 20
194.1614032941
 30
0.0
 11
255.1244533902
 21
195.6614032941
 31
0.0
  0
LINE
  5
109
330
D9
100
AcDbEntity
  8
T02083008_49437_
  6
Continuous
 62
     7
100
AcDbLine
 10
255.1244533902
 20
195.6614032941
 30
0.0
 11
255.990478794
 21
197.1614032941
 31
0.0
  0
LINE
  5
10A
330
D9
100
AcDbEntity
  8
T02083008_49437_
  6
Continuous
 62
     7
100
AcDbLine
 10
255.990478794
 20
197.1614032941
 30
0.0
 11
257.7225296016
 21
197.1614032941
 31
0.0
  0
LINE
  5
10B
330
D9
100
AcDbEntity
  8
T02083008_49437_
  6
Continuous
 62
     7
100
AcDbLine
 10
257.7225296016
 20
197.1614032941
 30
0.0
 11
258.5885550054
 21
195.6614032941
 31
0.0
  0
ARC
  5
10C
330
D9
100
AcDbEntity
  8
T02083008_49437_
  6
Continuous
 62
     7
100
AcDbCircle
 10
256.8565041978
 20
195.6614032941
 30
0.0
 40
2.3865
100
AcDbArc
 50
255.0
 51
195.0
  0
LINE
  5
10D
330
D9
100
AcDbEntity
  8
T14085060__BOW_C
  6
Continuous
 62
     7
100
AcDbLine
 10
309.1448790494
 20
248.1614032941
 30
0.0
 11
309.1448790494
 21
135.3614032941
 31
0.0
  0
LINE
  5
10E
330
D9
100
AcDbEntity
  8
T14085060__BOW_C
  6
Continuous
 62
     7
100
AcDbLine
 10
318.6698790494
 20
135.3614032941
 30
0.0
 11
318.6698790494
 21
248.1614032941
 31
0.0
  0
SPLINE
  5
10F
330
D9
100
AcDbEntity
  8
T14085060__BOW_C
  6
Continuous
 62
     7
100
AcDbSpline
210
0.0
220
0.0
230
1.0
 70
     8
 71
     3
 72
    31
 73
    27
 74
     0
 42
0.0000000003536247
 43
0.0000000001
 40
0.0
 40
0.0
 40
0.0
 40
0.0
 40
0.0234330435258826
 40
0.0675899699669074
 40
0.1117923602773694
 40
0.1560798739047751
 40
0.2005018108578329
 40
0.2451118602882273
 40
0.2899697758164152
 40
0.3351428861282875
 40
0.38070693739595
 40
0.4267450483571927
 40
0.4733420221476493
 40
0.5205681780346411
 40
0.5684416589539508
 40
0.6168535132084976
 40
0.6653274722570715
 40
0.7079210916050824
 40
0.7485962396882891
 40
0.7873397361951255
 40
0.8243700631480053
 40
0.8599993972720502
 40
0.8945538497397035
 40
0.931720892612848
 40
0.9678290395368704
 40
1.0
 40
1.0
 40
1.0
 40
1.0
 10
318.6698790493606
 20
248.161403294085
 30
0.0
 10
318.6687196965955
 20
248.4501285412525
 30
0.0
 10
318.6648369457478
 20
249.1575300209218
 30
0.0
 10
318.6243723781557
 20
250.4391008845587
 30
0.0
 10
318.5335928176245
 20
251.9017922877241
 30
0.0
 10
318.3973670304498
 20
253.3626365176229
 30
0.0
 10
318.2163521804982
 20
254.8003221184476
 30
0.0
 10
317.9901713323933
 20
256.2142806809117
 30
0.0
 10
317.7184834458267
 20
257.5987405960585
 30
0.0
 10
317.4005668374401
 20
258.9497493250361
 30
0.0
 10
317.0352583331416
 20
260.2633024152224
 30
0.0
 10
316.6207550703899
 20
261.5357873098476
 30
0.0
 10
316.1544381727558
 20
262.7636333260017
 30
0.0
 10
315.6327683910988
 20
263.9428545232392
 30
0.0
 10
315.0514717055707
 20
265.068087742692
 30
0.0
 10
314.4069684365533
 20
266.1301760455418
 30
0.0
 10
313.7237028416243
 20
267.0801427079676
 30
0.0
 10
313.0162945670741
 20
267.908247933873
 30
0.0
 10
312.3028629187988
 20
268.6116099152166
 30
0.0
 10
311.564487457597
 20
269.2180937569284
 30
0.0
 10
310.8031033212444
 20
269.7306841214914
 30
0.0
 10
310.0205023960797
 20
270.151945989469
 30
0.0
 10
309.1900699683065
 20
270.4947309153835
 30
0.0
 10
308.3229475983198
 20
270.7456584543435
 30
0.0
 10
307.4234287070444
 20
270.8974248399278
 30
0.0
 10
306.8861921232117
 20
270.9158837068233
 30
0.0
 10
306.5861194739964
 20
270.923903294085
 30
0.0
  0
SPLINE
  5
110
330
D9
100
AcDbEntity
  8
T14085060__BOW_C
  6
Continuous
 62
     7
100
AcDbSpline
210
0.0
220
0.0
230
1.0
 70
     8
 71
     3
 72
    26
 73
    22
 74
     0
 42
0.0000000005825542
 43
0.0000000001
 40
0.1809564891415494
 40
0.1809564891415494
 40
0.1809564891415494
 40
0.1809564891415494
 40
0.2037264461955835
 40
0.2436356284357971
 40
0.2830136066077448
 40
0.3225641074866699
 40
0.3626887230476413
 40
0.4036771116318241
 40
0.4456592717132563
 40
0.4886619646669265
 40
0.5326463162893795
 40
0.5775345660675278
 40
0.6232289136551366
 40
0.6696242185662231
 40
0.7166159718401952
 40
0.7641047830811185
 40
0.8119984342553225
 40
0.8602123314620249
 40
0.9086689666437477
 40
0.9572968092918307
 40
1.0
 40
1.0
 40
1.0
 40
1.0
 10
305.859646695489
 20
261.5718946571827
 30
0.0
 10
305.8596177501005
 20
261.5719181412705
 30
0.0
 10
305.8714888167737
 20
261.5637829160067
 30
0.0
 10
305.9415605975092
 20
261.5053381120597
 30
0.0
 10
306.0846744527697
 20
261.3572479044379
 30
0.0
 10
306.2742192395967
 20
261.1235162060878
 30
0.0
 10
306.4988916624386
 20
260.7992699986794
 30
0.0
 10
306.7487720393452
 20
260.3814267284434
 30
0.0
 10
307.0149127690303
 20
259.868600424571
 30
0.0
 10
307.2889770620886
 20
259.2614521450749
 30
0.0
 10
307.563266751545
 20
258.5625892594747
 30
0.0
 10
307.8307872485265
 20
257.776350255099
 30
0.0
 10
308.0852997353951
 20
256.9085382309742
 30
0.0
 10
308.3213450231331
 20
255.9661158139989
 30
0.0
 10
308.5342297827428
 20
254.9570271301878
 30
0.0
 10
308.7200211892679
 20
253.8896541683311
 30
0.0
 10
308.8754159529372
 20
252.7738436766059
 30
0.0
 10
308.9980358589771
 20
251.6161958465161
 30
0.0
 10
309.0851048236858
 20
250.4371651177414
 30
0.0
 10
309.1360314883756
 20
249.2571806204027
 30
0.0
 10
309.1422435966778
 20
248.5518690700179
 30
0.0
 10
309.1448790493607
 20
248.161403294085
 30
0.0
  0
LINE
  5
111
330
D9
100
AcDbEntity
  8
T14085060__BOW_C
  6
Continuous
 62
     7
100
AcDbLine
 10
292.7570736094
 20
261.3989032941
 30
0.0
 11
306.0396944856
 21
261.3989032941
 31
0.0
  0
LINE
  5
112
330
D9
100
AcDbEntity
  8
T14085060__BOW_C
  6
Continuous
 62
     7
100
AcDbLine
 10
306.586119474
 20
270.9239032941
 30
0.0
 11
292.7570736094
 21
270.9239032941
 31
0.0
  0
SPLINE
  5
113
330
D9
100
AcDbEntity
  8
T14085060__BOW_C
  6
Continuous
 62
     7
100
AcDbSpline
210
0.0
220
0.0
230
1.0
 70
     8
 71
     3
 72
    31
 73
    27
 74
     0
 42
0.000000000353632
 43
0.0000000001
 40
0.0
 40
0.0
 40
0.0
 40
0.0
 40
0.0295330092757381
 40
0.0642428689982261
 40
0.0989600478489282
 40
0.1340184674093592
 40
0.1697637127094006
 40
0.206560420767123
 40
0.2447819583827004
 40
0.284774523869089
 40
0.3267807464919277
 40
0.3708216100825231
 40
0.4165904433287181
 40
0.4634803168316756
 40
0.5107781995523806
 40
0.5578520802614094
 40
0.6044878353395113
 40
0.6506320564187829
 40
0.6963128213138782
 40
0.741590457735087
 40
0.7865334200190529
 40
0.8312082172082553
 40
0.8756760947789125
 40
0.9199926967981653
 40
0.9642089481098217
 40
1.0
 40
1.0
 40
1.0
 40
1.0
 10
292.7570736094194
 20
270.923903294085
 30
0.0
 10
292.4816155362751
 20
270.9171539317273
 30
0.0
 10
291.9758635011711
 20
270.9011325294322
 30
0.0
 10
291.1296326324514
 20
270.7679782242128
 30
0.0
 10
290.2848422360223
 20
270.5386694802363
 30
0.0
 10
289.4611488884529
 20
270.2166040745475
 30
0.0
 10
288.6677535600115
 20
269.8065502314705
 30
0.0
 10
287.9020659936664
 20
269.3084372871813
 30
0.0
 10
287.163397656214
 20
268.7205169222908
 30
0.0
 10
286.4503156020888
 20
268.0386504048952
 30
0.0
 10
285.7629569089085
 20
267.2579269826657
 30
0.0
 10
285.1039484274896
 20
266.3752200496235
 30
0.0
 10
284.4787252171988
 20
265.3922722290065
 30
0.0
 10
283.8942619862636
 20
264.3173268631085
 30
0.0
 10
283.3570751041497
 20
263.1642297676793
 30
0.0
 10
282.870775877456
 20
261.947473066734
 30
0.0
 10
282.4361070375099
 20
260.6788925547108
 30
0.0
 10
282.0518833613327
 20
259.3660579867509
 30
0.0
 10
281.7166168867201
 20
258.0146790016956
 30
0.0
 10
281.4290052211507
 20
256.6296962114712
 30
0.0
 10
281.1880460253247
 20
255.2154566684326
 30
0.0
 10
280.9931313157179
 20
253.7776457567595
 30
0.0
 10
280.8435734225846
 20
252.3173932642612
 30
0.0
 10
280.7400380654107
 20
250.8535940576231
 30
0.0
 10
280.6827491462399
 20
249.435551001863
 30
0.0
 10
280.6760184839611
 20
248.6023725591295
 30
0.0
 10
280.6733140340551
 20
248.161403294085
 30
0.0
  0
SPLINE
  5
114
330
D9
100
AcDbEntity
  8
T14085060__BOW_C
  6
Continuous
 62
     7
100
AcDbSpline
210
0.0
220
0.0
230
1.0
 70
     8
 71
     3
 72
    24
 73
    20
 74
     0
 42
0.0000000005295708
 43
0.0000000001
 40
0.0
 40
0.0
 40
0.0
 40
0.0
 40
0.0254356602199972
 40
0.074194948458434
 40
0.1228979614637972
 40
0.1714692753482083
 40
0.2198421338115775
 40
0.2679453553640027
 40
0.3157019900145863
 40
0.363028341623953
 40
0.4098336608280894
 40
0.4560210201203896
 40
0.5014901513086762
 40
0.5461433548168534
 40
0.5898959289314898
 40
0.6326927969905498
 40
0.674532939279886
 40
0.7155026793004156
 40
0.7319365010559017
 40
0.7319365010559017
 40
0.7319365010559017
 40
0.7319365010559017
 10
290.1983140340551
 20
248.161403294085
 30
0.0
 10
290.1992486970187
 20
248.3940031145815
 30
0.0
 10
290.2024152094376
 20
248.9704707137254
 30
0.0
 10
290.2357002722563
 20
250.015532063611
 30
0.0
 10
290.3105639394994
 20
251.2055388197587
 30
0.0
 10
290.4218605456942
 20
252.3815350002064
 30
0.0
 10
290.5674282278035
 20
253.5203742594825
 30
0.0
 10
290.7452515578088
 20
254.615880383102
 30
0.0
 10
290.9524717301765
 20
255.6576401594565
 30
0.0
 10
291.1855686006609
 20
256.6367278927642
 30
0.0
 10
291.4402120772633
 20
257.5443180809248
 30
0.0
 10
291.7111831448416
 20
258.3722383921601
 30
0.0
 10
291.9922644130412
 20
259.1130777835263
 30
0.0
 10
292.276139594085
 20
259.7605018461403
 30
0.0
 10
292.5543138583879
 20
260.3096203587519
 30
0.0
 10
292.8170833500534
 20
260.7574535982642
 30
0.0
 10
293.0535871692409
 20
261.1034695288527
 30
0.0
 10
293.2134796131686
 20
261.3023020449086
 30
0.0
 10
293.2899716727418
 20
261.3873292380753
 30
0.0
 10
293.3103772501971
 20
261.4092788548862
 30
0.0
  0
LINE
  5
115
330
D9
100
AcDbEntity
  8
T14085060__BOW_C
  6
Continuous
 62
     7
100
AcDbLine
 10
290.1983140341
 20
208.0597239979
 30
0.0
 11
290.1983140341
 21
248.1614032941
 31
0.0
  0
LINE
  5
116
330
D9
100
AcDbEntity
  8
T14085060__BOW_C
  6
Continuous
 62
     7
100
AcDbLine
 10
280.6733140341
 20
248.1614032941
 30
0.0
 11
280.6733140341
 21
205.8350218431
 31
0.0
  0
LINE
  5
117
330
D9
100
AcDbEntity
  8
12086000_CAP_-_P
  6
Continuous
 62
     7
100
AcDbLine
 10
298.6985303601
 20
195.6614032941
 30
0.0
 11
298.6787776289
 21
195.6614032941
 31
0.0
  0
LINE
  5
118
330
D9
100
AcDbEntity
  8
12086000_CAP_-_P
  6
Continuous
 62
     7
100
AcDbLine
 10
298.6985303601
 20
195.6614032941
 30
0.0
 11
298.6985303601
 21
199.9073582575
 31
0.0
  0
ARC
  5
119
330
D9
100
AcDbEntity
  8
12086000_CAP_-_P
  6
Continuous
 62
     7
100
AcDbCircle
 10
298.1985303601
 20
199.9073582575
 30
0.0
 40
0.4999999999999866
100
AcDbArc
 50
0.0
 51
16.1587002531
  0
ARC
  5
11A
330
D9
100
AcDbEntity
  8
12086000_CAP_-_P
  6
Continuous
 62
     7
100
AcDbCircle
 10
298.1985303601
 20
191.4154483306
 30
0.0
 40
0.4999999999999588
100
AcDbArc
 50
343.8412997469
 51
0.0
  0
LINE
  5
11B
330
D9
100
AcDbEntity
  8
12086000_CAP_-_P
  6
Continuous
 62
     7
100
AcDbLine
 10
298.6985303601
 20
191.4154483306
 30
0.0
 11
298.6985303601
 21
195.6614032941
 31
0.0
  0
LINE
  5
11C
330
D9
100
AcDbEntity
  8
12086000_CAP_-_P
  6
Continuous
 62
     7
100
AcDbLine
 10
297.8699994764
 20
202.837848823
 30
0.0
 11
298.6787776289
 21
200.0465076766
 31
0.0
  0
LINE
  5
11D
330
D9
100
AcDbEntity
  8
12086000_CAP_-_P
  6
Continuous
 62
     7
100
AcDbLine
 10
297.8699994764
 20
202.837848823
 30
0.0
 11
297.5411736855
 21
203.9727273522
 31
0.0
  0
LINE
  5
11E
330
D9
100
AcDbEntity
  8
12086000_CAP_-_P
  6
Continuous
 62
     7
100
AcDbLine
 10
297.8699994764
 20
195.6614032941
 30
0.0
 11
298.6787776289
 21
195.6614032941
 31
0.0
  0
LINE
  5
11F
330
D9
100
AcDbEntity
  8
12086000_CAP_-_P
  6
Continuous
 62
     7
100
AcDbLine
 10
297.8699994764
 20
188.4849577652
 30
0.0
 11
298.6787776289
 21
191.2762989116
 31
0.0
  0
LINE
  5
120
330
D9
100
AcDbEntity
  8
12086000_CAP_-_P
  6
Continuous
 62
     7
100
AcDbLine
 10
297.5411736855
 20
187.3500792359
 30
0.0
 11
297.8699994764
 21
188.4849577652
 31
0.0
  0
ARC
  5
121
330
D9
100
AcDbEntity
  8
12086000_CAP_-_P
  6
Continuous
 62
     7
100
AcDbCircle
 10
297.4029067678
 20
188.6517132197
 30
0.0
 40
0.4959667126231371
100
AcDbArc
 50
268.3100086345
 51
340.353070169
  0
LINE
  5
122
330
D9
100
AcDbEntity
  8
12086000_CAP_-_P
  6
Continuous
 62
     7
100
AcDbLine
 10
297.3882798976
 20
195.6614032941
 30
0.0
 11
297.8699994764
 21
195.6614032941
 31
0.0
  0
ARC
  5
123
330
D9
100
AcDbEntity
  8
12086000_CAP_-_P
  6
Continuous
 62
     7
100
AcDbCircle
 10
297.4029067678
 20
202.6710933685
 30
0.0
 40
0.4959667126236433
100
AcDbArc
 50
19.6469298311
 51
91.6899913655
  0
ARC
  5
124
330
D9
100
AcDbEntity
  8
12086000_CAP_-_P
  6
Continuous
 62
     7
100
AcDbCircle
 10
297.0609264167
 20
187.4892286549
 30
0.0
 40
0.5000000000000089
100
AcDbArc
 50
302.9361088788
 51
343.8412997469
  0
ARC
  5
125
330
D9
100
AcDbEntity
  8
12086000_CAP_-_P
  6
Continuous
 62
     7
100
AcDbCircle
 10
297.0609264167
 20
203.8335779332
 30
0.0
 40
0.4999999999999996
100
AcDbArc
 50
16.1587002531
 51
57.0638911212
  0
LINE
  5
126
330
D9
100
AcDbEntity
  8
T14085050__CAP_C
  6
Continuous
 62
     7
100
AcDbLine
 10
322.4073790494
 20
135.3614032941
 30
0.0
 11
305.4073790494
 21
135.3614032941
 31
0.0
  0
LINE
  5
127
330
D9
100
AcDbEntity
  8
T14085050__CAP_C
  6
Continuous
 62
     7
100
AcDbLine
 10
305.4073790494
 20
127.3614032941
 30
0.0
 11
322.4073790494
 21
127.3614032941
 31
0.0
  0
LINE
  5
128
330
D9
100
AcDbEntity
  8
T14085050__CAP_C
  6
Continuous
 62
     7
100
AcDbLine
 10
322.9073790494
 20
127.8614032941
 30
0.0
 11
322.9073790494
 21
134.8614032941
 31
0.0
  0
LINE
  5
129
330
D9
100
AcDbEntity
  8
T14085050__CAP_C
  6
Continuous
 62
     7
100
AcDbLine
 10
304.9073790494
 20
134.8614032941
 30
0.0
 11
304.9073790494
 21
127.8614032941
 31
0.0
  0
ARC
  5
12A
330
D9
100
AcDbEntity
  8
T14085050__CAP_C
  6
Continuous
 62
     7
100
AcDbCircle
 10
322.4073790494
 20
134.8614032941
 30
0.0
 40
0.5000000000000004
100
AcDbArc
 50
0.0
 51
90.0
  0
ARC
  5
12B
330
D9
100
AcDbEntity
  8
T14085050__CAP_C
  6
Continuous
 62
     7
100
AcDbCircle
 10
305.4073790494
 20
134.8614032941
 30
0.0
 40
0.5000000000000004
100
AcDbArc
 50
90.0
 51
180.0
  0
ARC
  5
12C
330
D9
100
AcDbEntity
  8
T14085050__CAP_C
  6
Continuous
 62
     7
100
AcDbCircle
 10
322.4073790494
 20
127.8614032941
 30
0.0
 40
0.5000000000000004
100
AcDbArc
 50
270.0
 51
0.0
  0
ARC
  5
12D
330
D9
100
AcDbEntity
  8
T14085050__CAP_C
  6
Continuous
 62
     7
100
AcDbCircle
 10
305.4073790494
 20
127.8614032941
 30
0.0
 40
0.4999999999999866
100
AcDbArc
 50
180.0
 51
270.0
  0
ENDBLK
  5
12F
330
D9
100
AcDbEntity
  8
0
100
AcDbBlockEnd
  0
BLOCK
  5
172
330
130
100
AcDbEntity
  8
0
100
AcDbBlockBegin
  2
SE2
 70
     0
 10
0.0
 20
0.0
 30
0.0
  3
SE2
  1

  0
LINE
  5
132
330
130
100
AcDbEntity
  8
14086500_ESC_-_A
  6
Continuous
 62
     7
100
AcDbLine
 10
184.3947776182
 20
109.7918506393
 30
0.0
 11
183.7508446628
 21
108.9676540413
 31
0.0
  0
LINE
  5
133
330
130
100
AcDbEntity
  8
14086500_ESC_-_A
  6
Continuous
 62
     7
100
AcDbLine
 10
183.7508446628
 20
108.9676540413
 30
0.0
 11
178.908910987
 21
102.7702615493
 31
0.0
  0
LINE
  5
134
330
130
100
AcDbEntity
  8
14086500_ESC_-_A
  6
Continuous
 62
     7
100
AcDbLine
 10
178.8283274201
 20
102.6671192873
 30
0.0
 11
178.908910987
 21
102.7702615493
 31
0.0
  0
LINE
  5
135
330
130
100
AcDbEntity
  8
14086500_ESC_-_A
  6
Continuous
 62
     7
100
AcDbLine
 10
141.4325155495
 20
102.7702615493
 30
0.0
 11
136.5905818735
 21
108.9676540416
 31
0.0
  0
LINE
  5
136
330
130
100
AcDbEntity
  8
14086500_ESC_-_A
  6
Continuous
 62
     7
100
AcDbLine
 10
141.5130991164
 20
102.6671192873
 30
0.0
 11
141.4325155495
 21
102.7702615493
 31
0.0
  0
LINE
  5
137
330
130
100
AcDbEntity
  8
14086500_ESC_-_A
  6
Continuous
 62
     7
100
AcDbLine
 10
142.3818843394
 20
102.4361348046
 30
0.0
 11
177.9595421971
 21
102.4361348046
 31
0.0
  0
LINE
  5
138
330
130
100
AcDbEntity
  8
14086500_ESC_-_A
  6
Continuous
 62
     7
100
AcDbLine
 10
136.2857474059
 20
111.4361348046
 30
0.0
 11
184.0556791306
 21
111.4361348046
 31
0.0
  0
ARC
  5
139
330
130
100
AcDbEntity
  8
14086500_ESC_-_A
  6
Continuous
 62
     7
100
AcDbCircle
 10
183.9839041584
 20
110.1029921868
 30
0.0
 40
0.516231993526979
100
AcDbArc
 50
330.6895747506
 51
14.2644270903
  0
SPLINE
  5
13A
330
130
100
AcDbEntity
  8
14086500_ESC_-_A
  6
Continuous
 62
     7
100
AcDbSpline
210
0.0
220
0.0
230
1.0
 70
     8
 71
     3
 72
    11
 73
     7
 74
     0
 42
0.0000000247801638
 43
0.0000000001
 40
0.0
 40
0.0
 40
0.0
 40
0.0
 40
0.2499999999897193
 40
0.4999999999953089
 40
0.749999999996537
 40
1.0
 40
1.0
 40
1.0
 40
1.0
 10
178.4861831709393
 20
102.477646874486
 30
0.0
 10
178.5225197924428
 20
102.4832925110329
 30
0.0
 10
178.5841136816056
 20
102.4938225535742
 30
0.0
 10
178.6781324499717
 20
102.5346836700476
 30
0.0
 10
178.7626540507582
 20
102.5926945194239
 30
0.0
 10
178.8042616268706
 20
102.6393153150877
 30
0.0
 10
178.8283274201342
 20
102.6671192872689
 30
0.0
  0
SPLINE
  5
13B
330
130
100
AcDbEntity
  8
14086500_ESC_-_A
  6
Continuous
 62
     7
100
AcDbSpline
210
0.0
220
0.0
230
1.0
 70
     8
 71
     3
 72
    11
 73
     7
 74
     0
 42
0.0000000066180653
 43
0.0000000001
 40
0.0
 40
0.0
 40
0.0
 40
0.0
 40
0.2514197363534191
 40
0.5019894425215021
 40
0.7513377214349514
 40
1.0
 40
1.0
 40
1.0
 40
1.0
 10
135.8572063860622
 20
110.2301903757109
 30
0.0
 10
135.8557679406646
 20
110.1785544369807
 30
0.0
 10
135.8585630889573
 20
110.0866891567746
 30
0.0
 10
135.9958874023204
 20
109.8038654386174
 30
0.0
 10
136.2394840955826
 20
109.4280315502653
 30
0.0
 10
136.468545218766
 20
109.1271717029429
 30
0.0
 10
136.6067123759091
 20
108.9470079400284
 30
0.0
  0
SPLINE
  5
13C
330
130
100
AcDbEntity
  8
14086500_ESC_-_A
  6
Continuous
 62
     7
100
AcDbSpline
210
0.0
220
0.0
230
1.0
 70
     8
 71
     3
 72
    11
 73
     7
 74
     0
 42
0.0000000247801638
 43
0.0000000001
 40
0.0
 40
0.0
 40
0.0
 40
0.0
 40
0.2500000000034289
 40
0.5000000000046386
 40
0.7500000000102102
 40
1.0
 40
1.0
 40
1.0
 40
1.0
 10
141.5130991163727
 20
102.667119287269
 30
0.0
 10
141.537164909624
 20
102.6393153151007
 30
0.0
 10
141.5787724857146
 20
102.5926945194584
 30
0.0
 10
141.6632940864511
 20
102.534683670098
 30
0.0
 10
141.7573128547612
 20
102.493822553622
 30
0.0
 10
141.8189067438901
 20
102.4832925110638
 30
0.0
 10
141.8552433653741
 20
102.4776468745064
 30
0.0
  0
ARC
  5
13D
330
130
100
AcDbEntity
  8
14086500_ESC_-_A
  6
Continuous
 62
     7
100
AcDbCircle
 10
142.9405192975
 20
112.8845909642
 30
0.0
 40
10.46337943180476
100
AcDbArc
 50
263.9862965728
 51
266.9395498828
  0
ARC
  5
13E
330
130
100
AcDbEntity
  8
14086500_ESC_-_A
  6
Continuous
 62
     7
100
AcDbCircle
 10
177.400907239
 20
112.8845909642
 30
0.0
 40
10.46337943180474
100
AcDbArc
 50
273.0604501172
 51
276.013683087
  0
ARC
  5
13F
330
130
100
AcDbEntity
  8
14086500_ESC_-_A
  6
Continuous
 62
     7
100
AcDbCircle
 10
143.6976393065
 20
108.1231509688
 30
0.0
 40
8.118620784498185
100
AcDbArc
 50
155.9162061553
 51
164.9544677566
  0
ARC
  5
140
330
130
100
AcDbEntity
  8
14086500_ESC_-_A
  6
Continuous
 62
     7
100
AcDbCircle
 10
176.64378723
 20
108.1231509688
 30
0.0
 40
8.11862078449818
100
AcDbArc
 50
15.0468160232
 51
24.0837938447
  0
LINE
  5
141
330
130
100
AcDbEntity
  8
T14085010__SLEEV
  6
Continuous
 62
     7
100
AcDbLine
 10
169.9209164182
 20
64.0361348046
 30
0.0
 11
150.4205101183
 21
64.0361348046
 31
0.0
  0
LINE
  5
142
330
130
100
AcDbEntity
  8
T14085010__SLEEV
  6
Continuous
 62
     7
100
AcDbLine
 10
178.1207132683
 20
101.4427057021
 30
0.0
 11
142.2207132683
 21
101.4427057021
 31
0.0
  0
ARC
  5
143
330
130
100
AcDbEntity
  8
T14085010__SLEEV
  6
Continuous
 62
     7
100
AcDbCircle
 10
140.6489387499
 20
81.9831266003
 30
0.0
 40
9.393886280463718
100
AcDbArc
 50
349.9030100076
 51
31.8196153061
  0
LINE
  5
144
330
130
100
AcDbEntity
  8
T14085010__SLEEV
  6
Continuous
 62
     7
100
AcDbLine
 10
149.5991408555
 20
64.9483577872
 30
0.0
 11
150.4205101183
 21
64.0361348046
 31
0.0
  0
LINE
  5
145
330
130
100
AcDbEntity
  8
T14085010__SLEEV
  6
Continuous
 62
     7
100
AcDbLine
 10
169.9209164182
 20
64.0361348046
 30
0.0
 11
170.742285681
 21
64.9483577872
 31
0.0
  0
ARC
  5
146
330
130
100
AcDbEntity
  8
T14085010__SLEEV
  6
Continuous
 62
     7
100
AcDbCircle
 10
170.3707132683
 20
65.2829230904
 30
0.0
 40
0.5000000000000044
100
AcDbArc
 50
318.0
 51
10.2120265005
  0
ARC
  5
147
330
130
100
AcDbEntity
  8
T14085010__SLEEV
  6
Continuous
 62
     7
100
AcDbCircle
 10
149.9707132683
 20
65.2829230904
 30
0.0
 40
0.5000000000000019
100
AcDbArc
 50
169.7879734995
 51
222.0
  0
ARC
  5
148
330
130
100
AcDbEntity
  8
T14085010__SLEEV
  6
Continuous
 62
     7
100
AcDbCircle
 10
220.0707132683
 20
74.2361348046
 30
0.0
 40
49.99999999999999
100
AcDbArc
 50
147.0346722594
 51
190.2120265005
  0
ARC
  5
149
330
130
100
AcDbEntity
  8
T14085010__SLEEV
  6
Continuous
 62
     7
100
AcDbCircle
 10
100.2707132683
 20
74.2361348046
 30
0.0
 40
50.0
100
AcDbArc
 50
349.7879734995
 51
7.0161273807
  0
ARC
  5
14A
330
130
100
AcDbEntity
  8
T14085010__SLEEV
  6
Continuous
 62
     7
100
AcDbCircle
 10
100.2707132683
 20
74.2361348046
 30
0.0
 40
50.0
100
AcDbArc
 50
14.7010730008
 51
32.9653277406
  0
ARC
  5
14B
330
130
100
AcDbEntity
  8
T14085010__SLEEV
  6
Continuous
 62
     7
100
AcDbCircle
 10
177.4851824965
 20
101.7361348046
 30
0.0
 40
0.7000000000000001
100
AcDbArc
 50
335.2168920114
 51
90.0
  0
ARC
  5
14C
330
130
100
AcDbEntity
  8
T14085010__SLEEV
  6
Continuous
 62
     7
100
AcDbCircle
 10
142.85624404
 20
101.7361348046
 30
0.0
 40
0.6999999999999993
100
AcDbArc
 50
90.0
 51
204.7831079886
  0
ARC
  5
14D
330
130
100
AcDbEntity
  8
14086700_KENSING
  6
Continuous
 62
     7
100
AcDbCircle
 10
173.0058597338
 20
46.177745957
 30
0.0
 40
1.000000000000005
100
AcDbArc
 50
302.4251674377
 51
20.7724246819
  0
ARC
  5
14E
330
130
100
AcDbEntity
  8
14086700_KENSING
  6
Continuous
 62
     7
100
AcDbCircle
 10
169.5148608155
 20
63.5361348046
 30
0.0
 40
0.4999999999999966
100
AcDbArc
 50
5.1765129594
 51
90.0
  0
ARC
  5
14F
330
130
100
AcDbEntity
  8
14086700_KENSING
  6
Continuous
 62
     7
100
AcDbCircle
 10
150.826565721
 20
63.5361348046
 30
0.0
 40
0.5000000000000004
100
AcDbArc
 50
90.0
 51
174.8234870406
  0
ARC
  5
150
330
130
100
AcDbEntity
  8
14086700_KENSING
  6
Continuous
 62
     7
100
AcDbCircle
 10
160.403245271
 20
66.7491337181
 30
0.0
 40
25.37101177561875
100
AcDbArc
 50
241.2285983448
 51
248.2689886123
  0
ARC
  5
151
330
130
100
AcDbEntity
  8
14086700_KENSING
  6
Continuous
 62
     7
100
AcDbCircle
 10
159.9381812655
 20
66.7491337181
 30
0.0
 40
25.37101177561875
100
AcDbArc
 50
291.7310113877
 51
302.4251674377
  0
ARC
  5
152
330
130
100
AcDbEntity
  8
14086700_KENSING
  6
Continuous
 62
     7
100
AcDbCircle
 10
169.2207132683
 20
43.4598608426
 30
0.0
 40
0.3000000000000086
100
AcDbArc
 50
270.0
 51
291.7310113877
  0
ARC
  5
153
330
130
100
AcDbEntity
  8
14086700_KENSING
  6
Continuous
 62
     7
100
AcDbCircle
 10
151.1207132683
 20
43.4598608426
 30
0.0
 40
0.2999999999999968
100
AcDbArc
 50
248.2689886123
 51
270.0
  0
LINE
  5
154
330
130
100
AcDbEntity
  8
14086700_KENSING
  6
Continuous
 62
     7
100
AcDbLine
 10
151.1207132683
 20
43.1598608426
 30
0.0
 11
169.2207132683
 21
43.1598608426
 31
0.0
  0
ARC
  5
155
330
130
100
AcDbEntity
  8
14086700_KENSING
  6
Continuous
 62
     7
100
AcDbCircle
 10
234.2231531789
 20
69.3983064116
 30
0.0
 40
64.47328802311749
100
AcDbArc
 50
185.1765129594
 51
200.7724246819
  0
ARC
  5
156
330
130
100
AcDbEntity
  8
14086700_KENSING
  6
Continuous
 62
     7
100
AcDbCircle
 10
86.1182733576
 20
69.3983064116
 30
0.0
 40
64.47328802311749
100
AcDbArc
 50
347.3796760739
 51
354.8234870406
  0
ARC
  5
157
330
130
100
AcDbEntity
  8
T14085060__BOW_C
  6
Continuous
 62
     7
100
AcDbCircle
 10
96.2225312333
 20
26.5852599531
 30
0.0
 40
4.762499999999999
100
AcDbArc
 50
114.0
 51
294.0
  0
ARC
  5
158
330
130
100
AcDbEntity
  8
T14085060__BOW_C
  6
Continuous
 62
     7
100
AcDbCircle
 10
160.1707132683
 20
55.0568249684
 30
0.0
 40
4.762499999999999
100
AcDbArc
 50
294.0
 51
0.0
  0
ARC
  5
159
330
130
100
AcDbEntity
  8
T14085060__BOW_C
  6
Continuous
 62
     7
100
AcDbCircle
 10
160.1707132683
 20
55.0568249684
 30
0.0
 40
4.762499999999999
100
AcDbArc
 50
0.0
 51
114.0
  0
LINE
  5
15A
330
130
100
AcDbEntity
  8
T14085060__BOW_C
  6
Continuous
 62
     7
100
AcDbLine
 10
98.1596144959
 20
22.234499711
 30
0.0
 11
114.6034327335
 21
29.5557592864
 31
0.0
  0
LINE
  5
15B
330
130
100
AcDbEntity
  8
T14085060__BOW_C
  6
Continuous
 62
     7
100
AcDbLine
 10
110.7292662082
 20
38.2572797704
 30
0.0
 11
94.2854479706
 21
30.9360201951
 31
0.0
  0
LINE
  5
15C
330
130
100
AcDbEntity
  8
T14085060__BOW_C
  6
Continuous
 62
     7
100
AcDbLine
 10
141.789811768
 20
52.086325635
 30
0.0
 11
110.7292662082
 21
38.2572797704
 31
0.0
  0
LINE
  5
15D
330
130
100
AcDbEntity
  8
T14085060__BOW_C
  6
Continuous
 62
     7
100
AcDbLine
 10
114.6034327335
 20
29.5557592864
 30
0.0
 11
145.6639782933
 21
43.384805151
 31
0.0
  0
LINE
  5
15E
330
130
100
AcDbEntity
  8
T14085060__BOW_C
  6
Continuous
 62
     7
100
AcDbLine
 10
145.6639782933
 20
43.384805151
 30
0.0
 11
162.1077965309
 21
50.7060647263
 31
0.0
  0
LINE
  5
15F
330
130
100
AcDbEntity
  8
T14085060__BOW_C
  6
Continuous
 62
     7
100
AcDbLine
 10
158.2336300056
 20
59.4075852104
 30
0.0
 11
141.789811768
 21
52.086325635
 31
0.0
  0
LINE
  5
160
330
130
100
AcDbEntity
  8
12086000_CAP_-_P
  6
Continuous
 62
     7
100
AcDbLine
 10
165.2341956595
 20
41.8138613735
 30
0.0
 11
168.4573587841
 21
42.622639526
 31
0.0
  0
ELLIPSE
  5
161
330
130
100
AcDbEntity
  8
12086000_CAP_-_P
  6
Continuous
 62
     7
100
AcDbEllipse
 10
155.267906786
 20
42.2941086423
 30
0.0
 11
-0.5773502691896251
 21
1.083752929974143E-15
 31
0.0
210
0.0
220
0.0
230
1.0
 40
0.8660254038
 41
1.288773804535468
 42
1.570796326794898
  0
LINE
  5
162
330
130
100
AcDbEntity
  8
12086000_CAP_-_P
  6
Continuous
 62
     7
100
AcDbLine
 10
155.267906786
 20
41.7941086423
 30
0.0
 11
157.7193100271
 21
41.7941086423
 31
0.0
  0
ELLIPSE
  5
163
330
130
100
AcDbEntity
  8
12086000_CAP_-_P
  6
Continuous
 62
     7
100
AcDbEllipse
 10
157.7193100271
 20
42.2941086423
 30
0.0
 11
-1.374768354711620E-13
 21
-0.5000000000009164
 31
0.0
210
0.0
220
0.0
230
1.0
 40
0.5773502692
 41
6.001162784920626
 42
6.28318530717957
  0
LINE
  5
164
330
130
100
AcDbEntity
  8
12086000_CAP_-_P
  6
Continuous
 62
     7
100
AcDbLine
 10
157.7193100271
 20
41.7941086423
 30
0.0
 11
162.6221165094
 21
41.7941086423
 31
0.0
  0
ELLIPSE
  5
165
330
130
100
AcDbEntity
  8
12086000_CAP_-_P
  6
Continuous
 62
     7
100
AcDbEllipse
 10
162.6221165094
 20
42.2941086423
 30
0.0
 11
-8.196568423990414E-14
 21
-0.4999999999992372
 31
0.0
210
0.0
220
0.0
230
1.0
 40
0.5773502692
 41
0.0
 42
0.2820225222597247
  0
LINE
  5
166
330
130
100
AcDbEntity
  8
12086000_CAP_-_P
  6
Continuous
 62
     7
100
AcDbLine
 10
162.6221165094
 20
41.7941086423
 30
0.0
 11
165.0735197505
 21
41.7941086423
 31
0.0
  0
ELLIPSE
  5
167
330
130
100
AcDbEntity
  8
12086000_CAP_-_P
  6
Continuous
 62
     7
100
AcDbEllipse
 10
165.0735197505
 20
42.2941086423
 30
0.0
 11
0.5773502691896191
 21
-3.304198979224340E-15
 31
0.0
210
0.0
220
0.0
230
1.0
 40
0.8660254038
 41
4.712388980384645
 42
4.994411502644077
  0
LINE
  5
168
330
130
100
AcDbEntity
  8
12086000_CAP_-_P
  6
Continuous
 62
     7
100
AcDbLine
 10
164.3140360262
 20
42.622639526
 30
0.0
 11
162.7024544639
 21
41.8138613735
 31
0.0
  0
LINE
  5
169
330
130
100
AcDbEntity
  8
12086000_CAP_-_P
  6
Continuous
 62
     7
100
AcDbLine
 10
156.0273905103
 20
42.622639526
 30
0.0
 11
157.6389720726
 21
41.8138613735
 31
0.0
  0
LINE
  5
16A
330
130
100
AcDbEntity
  8
12086000_CAP_-_P
  6
Continuous
 62
     7
100
AcDbLine
 10
151.8840677524
 20
42.622639526
 30
0.0
 11
155.107230877
 21
41.8138613735
 31
0.0
  0
SPLINE
  5
16B
330
130
100
AcDbEntity
  8
12086000_CAP_-_P
  6
Continuous
 62
     7
100
AcDbSpline
210
0.0
220
0.0
230
1.0
 70
     8
 71
     3
 72
    10
 73
     6
 74
     0
 42
0.0000000149005003
 43
0.0000000001
 40
0.0
 40
0.0
 40
0.0
 40
0.0
 40
0.5
 40
0.5
 40
1.0
 40
1.0
 40
1.0
 40
1.0
 10
168.4573587841377
 20
42.62263952599385
 30
0.0
 10
168.5649287097959
 20
42.64963170801308
 30
0.0
 10
168.6603041516515
 20
42.71194696783768
 30
0.0
 10
168.7970895384077
 20
42.88584040203283
 30
0.0
 10
168.8353421632526
 20
42.99505375943902
 30
0.0
 10
168.8372500951527
 20
43.10435910478548
 30
0.0
  0
SPLINE
  5
16C
330
130
100
AcDbEntity
  8
12086000_CAP_-_P
  6
Continuous
 62
     7
100
AcDbSpline
210
0.0
220
0.0
230
1.0
 70
     8
 71
     3
 72
    10
 73
     6
 74
     0
 42
0.0000000149005003
 43
0.0000000001
 40
0.0
 40
0.0
 40
0.0
 40
0.0
 40
0.5
 40
0.5
 40
1.0
 40
1.0
 40
1.0
 40
1.0
 10
151.5041764413536
 20
43.10435910478581
 30
0.0
 10
151.5060843732536
 20
42.99505375943938
 30
0.0
 10
151.5443369980985
 20
42.88584040203318
 30
0.0
 10
151.6811223848547
 20
42.71194696783799
 30
0.0
 10
151.7764978267102
 20
42.64963170801325
 30
0.0
 10
151.8840677523685
 20
42.62263952599403
 30
0.0
  0
SPLINE
  5
16D
330
130
100
AcDbEntity
  8
12086000_CAP_-_P
  6
Continuous
 62
     7
100
AcDbSpline
210
0.0
220
0.0
230
1.0
 70
     8
 71
     3
 72
    10
 73
     6
 74
     0
 42
0.0000000183253848
 43
0.0000000001
 40
0.0
 40
0.0
 40
0.0
 40
0.0
 40
0.5
 40
0.5
 40
1.0
 40
1.0
 40
1.0
 40
1.0
 10
164.3140360261956
 20
42.62263952599396
 30
0.0
 10
164.3678209890247
 20
42.64963170801317
 30
0.0
 10
164.415508709953
 20
42.71194696783787
 30
0.0
 10
164.483901403331
 20
42.88584040203304
 30
0.0
 10
164.503027715714
 20
42.99505375943924
 30
0.0
 10
164.5039816817036
 20
43.10435910478569
 30
0.0
  0
SPLINE
  5
16E
330
130
100
AcDbEntity
  8
12086000_CAP_-_P
  6
Continuous
 62
     7
100
AcDbSpline
210
0.0
220
0.0
230
1.0
 70
     8
 71
     3
 72
    10
 73
     6
 74
     0
 42
0.0000000183253848
 43
0.0000000001
 40
0.0
 40
0.0
 40
0.0
 40
0.0
 40
0.5
 40
0.5
 40
1.0
 40
1.0
 40
1.0
 40
1.0
 10
155.8374448548033
 20
43.10435910478584
 30
0.0
 10
155.8383988207653
 20
42.99505375943941
 30
0.0
 10
155.8575251331758
 20
42.88584040203322
 30
0.0
 10
155.9259178265539
 20
42.71194696783802
 30
0.0
 10
155.9736055474817
 20
42.64963170801327
 30
0.0
 10
156.0273905103109
 20
42.62263952599405
 30
0.0
  0
LINE
  5
16F
330
130
100
AcDbEntity
  8
12086000_CAP_-_P
  6
Continuous
 62
     7
100
AcDbLine
 10
151.5032076549
 20
43.1598608426
 30
0.0
 11
151.5041764414
 21
43.1043591048
 31
0.0
  0
LINE
  5
170
330
130
100
AcDbEntity
  8
12086000_CAP_-_P
  6
Continuous
 62
     7
100
AcDbLine
 10
168.8372500952
 20
43.1043591048
 30
0.0
 11
168.8382188816
 21
43.1598608426
 31
0.0
  0
ARC
  5
171
330
130
100
AcDbEntity
  8
T14085050__CAP_C
  6
Continuous
 62
     7
100
AcDbCircle
 10
96.2225312333
 20
26.5852599531
 30
0.0
 40
9.000000000000002
100
AcDbArc
 50
55.9491671278
 51
352.0508328722
  0
ENDBLK
  5
173
330
130
100
AcDbEntity
  8
0
100
AcDbBlockEnd
  0
ENDSEC
  0
SECTION
  2
ENTITIES
  0
INSERT
  5
5F
330
1F
100
AcDbEntity
  8
Default
100
AcDbBlockReference
  2
SEANNOT_GROUP
 10
0.0
 20
0.0
 30
0.0
  0
INSERT
  5
66
330
1F
100
AcDbEntity
  8
Default
100
AcDbBlockReference
  2
SEANNOT_GROUP1
 10
0.0
 20
0.0
 30
0.0
  0
INSERT
  5
6C
330
1F
100
AcDbEntity
  8
Default
100
AcDbBlockReference
  2
SEANNOT_GROUP2
 10
0.0
 20
0.0
 30
0.0
  0
INSERT
  5
76
330
1F
100
AcDbEntity
  8
Default
100
AcDbBlockReference
  2
SE
 10
0.0
 20
0.0
 30
0.0
  0
INSERT
  5
DA
330
1F
100
AcDbEntity
  8
Default
100
AcDbBlockReference
  2
SE1
 10
0.0
 20
0.0
 30
0.0
  0
INSERT
  5
131
330
1F
100
AcDbEntity
  8
Default
100
AcDbBlockReference
  2
SE2
 10
0.0
 20
0.0
 30
0.0
  0
TEXT
  5
175
330
1F
100
AcDbEntity
  8
Default
  6
Continuous
 62
     7
100
AcDbText
 10
5.9362635081
 20
53.4225120485
 30
0.0
 40
10.0
  1
Grohe AG^J
  7
SEACAD_seiso_ttf
 11
5.9362635081
 21
63.4225120485
 31
0.0
100
AcDbText
 73
     3
  0
TEXT
  5
176
330
1F
100
AcDbEntity
  8
Default
  6
Continuous
 62
     7
100
AcDbText
 10
5.9362635081
 20
37.0588756849
 30
0.0
 40
10.0
  1
 
  7
SEACAD_seiso_ttf
 11
5.9362635081
 21
47.0588756849
 31
0.0
100
AcDbText
 73
     3
  0
TEXT
  5
177
330
1F
100
AcDbEntity
  8
Default
  6
Continuous
 62
     7
100
AcDbText
 10
5.9362635081
 20
20.6952393213
 30
0.0
 40
10.0
  1
ecn: 
  7
SEACAD_seiso_ttf
 11
5.9362635081
 21
30.6952393213
 31
0.0
100
AcDbText
 73
     3
  0
TEXT
  5
178
330
1F
100
AcDbEntity
  8
Default
  6
Continuous
 62
     7
100
AcDbText
 10
5.9362635081
 20
4.3316029576
 30
0.0
 40
10.0
  1
unit: mm
  7
SEACAD_seiso_ttf
 11
5.9362635081
 21
14.3316029576
 31
0.0
100
AcDbText
 73
     3
  0
LINE
  5
179
330
1F
100
AcDbEntity
  8
Default
  6
Continuous
 62
     7
100
AcDbLine
 10
0.0
 20
0.0
 30
0.0
 11
100.0
 21
0.0
 31
0.0
  0
LINE
  5
17A
330
1F
100
AcDbEntity
  8
Default
  6
Continuous
 62
     7
100
AcDbLine
 10
0.0
 20
0.0
 30
0.0
 11
0.0
 21
100.0
 31
0.0
  0
TEXT
  5
17B
330
1F
100
AcDbEntity
  8
Default
  6
Continuous
 62
     7
100
AcDbText
 10
24.3923665681
 20
-18.2375342018
 30
0.0
 40
10.0
  1
100 mm
  7
SEACAD_seiso_ttf
 11
24.3923665681
 21
-8.2375342018
 31
0.0
100
AcDbText
 73
     3
  0
TEXT
  5
17C
330
1F
100
AcDbEntity
  8
Default
  6
Continuous
 62
     7
100
AcDbText
 10
-7.6150308803
 20
24.6231930421
 30
0.0
 40
10.0
  1
100 mm
 50
90.0
  7
SEACAD_seiso_ttf
 11
-17.6150308803
 21
24.6231930421
 31
0.0
100
AcDbText
 73
     3
  0
TEXT
  5
17D
330
1F
100
AcDbEntity
  8
Default
  6
Continuous
 62
     7
100
AcDbText
 10
28.4878128572
 20
20.0907663715
 30
0.0
 40
10.0
  1
201846
  7
SEACAD_seiso_ttf
 11
28.4878128572
 21
30.0907663715
 31
0.0
100
AcDbText
 73
     3
  0
TEXT
  5
17E
330
1F
100
AcDbEntity
  8
Default
  6
Continuous
 62
     7
100
AcDbText
 10
5.9012241913
 20
36.7242780188
 30
0.0
 40
10.0
  1
40235000
  7
SEACAD_seiso_ttf
 11
5.9012241913
 21
46.7242780188
 31
0.0
100
AcDbText
 73
     3
  0
ENDSEC
  0
SECTION
  2
OBJECTS
  0
DICTIONARY
  5
C
330
0
100
AcDbDictionary
281
     1
  3
ACAD_GROUP
350
D
  3
ACAD_LAYOUT
350
1A
  3
ACAD_MLEADERSTYLE
350
182
  3
ACAD_MLINESTYLE
350
17
  3
ACAD_PLOTSETTINGS
350
19
  3
ACAD_PLOTSTYLENAME
350
E
  3
ACAD_SCALELIST
350
3B
  3
ACAD_TABLESTYLE
350
181
  3
ACAD_VISUALSTYLE
350
2A
  3
AcDbVariableDictionary
350
17F
  0
DICTIONARY
  5
D
102
{ACAD_REACTORS
330
C
102
}
330
C
100
AcDbDictionary
281
     1
  0
DICTIONARY
  5
1A
102
{ACAD_REACTORS
330
C
102
}
330
C
100
AcDbDictionary
281
     1
  3
Layout1
350
1E
  3
Model
350
22
  0
DICTIONARY
  5
182
102
{ACAD_REACTORS
330
C
102
}
330
C
100
AcDbDictionary
281
     1
  0
DICTIONARY
  5
17
102
{ACAD_REACTORS
330
C
102
}
330
C
100
AcDbDictionary
281
     1
  3
Standard
350
18
  0
DICTIONARY
  5
19
102
{ACAD_REACTORS
330
C
102
}
330
C
100
AcDbDictionary
281
     1
  0
ACDBDICTIONARYWDFLT
  5
E
102
{ACAD_REACTORS
330
C
102
}
330
C
100
AcDbDictionary
281
     1
  3
Normal
350
F
100
AcDbDictionaryWithDefault
340
F
  0
DICTIONARY
  5
3B
102
{ACAD_REACTORS
330
C
102
}
330
C
100
AcDbDictionary
281
     1
  3
A0
350
3C
  3
A1
350
3D
  3
A2
350
3E
  3
A3
350
3F
  3
A4
350
40
  3
A5
350
41
  3
A6
350
42
  3
A7
350
43
  3
A8
350
44
  3
A9
350
45
  3
B0
350
46
  3
B1
350
47
  3
B2
350
48
  3
B3
350
49
  3
B4
350
4A
  3
B5
350
4B
  3
B6
350
4C
  3
B7
350
4D
  3
B8
350
4E
  3
B9
350
4F
  3
C0
350
50
  3
C1
350
51
  3
C2
350
52
  3
C3
350
53
  3
C4
350
54
  3
C5
350
55
  3
C6
350
56
  3
C7
350
57
  3
C8
350
58
  3
C9
350
59
  3
D0
350
5A
  3
D1
350
5B
  3
D2
350
5C
  0
DICTIONARY
  5
181
102
{ACAD_REACTORS
330
C
102
}
330
C
100
AcDbDictionary
281
     1
  0
DICTIONARY
  5
2A
102
{ACAD_REACTORS
330
C
102
}
330
C
100
AcDbDictionary
281
     1
  3
2dWireframe
350
2F
  3
3D Hidden
350
31
  3
3dWireframe
350
30
  3
Basic
350
32
  3
Brighten
350
36
  3
ColorChange
350
3A
  3
Conceptual
350
34
  3
Dim
350
35
  3
Facepattern
350
39
  3
Flat
350
2B
  3
FlatWithEdges
350
2C
  3
Gouraud
350
2D
  3
GouraudWithEdges
350
2E
  3
Linepattern
350
38
  3
Realistic
350
33
  3
Thicken
350
37
  0
DICTIONARY
  5
17F
102
{ACAD_REACTORS
330
C
102
}
330
C
100
AcDbDictionary
281
     1
  3
CANNOSCALE
350
180
  3
PSOLHEIGHT
350
184
  3
PSOLWIDTH
350
183
  0
LAYOUT
  5
1E
102
{ACAD_REACTORS
330
1A
102
}
330
1A
100
AcDbPlotSettings
  1

  2
none_device
  4

  6

 40
0.0
 41
0.0
 42
0.0
 43
0.0
 44
0.0
 45
0.0
 46
0.0
 47
0.0
 48
0.0
 49
0.0
140
0.0
141
0.0
142
1.0
143
1.0
 70
   688
 72
     0
 73
     0
 74
     5
  7

 75
    16
147
1.0
148
0.0
149
0.0
100
AcDbLayout
  1
Layout1
 70
     1
 71
     1
 10
0.0
 20
0.0
 11
1682.0
 21
2378.0
 12
0.0
 22
0.0
 32
0.0
 14
0.0
 24
0.0
 34
0.0
 15
1682.0
 25
2378.0
 35
0.0
146
0.0
 13
0.0
 23
0.0
 33
0.0
 16
1.0
 26
0.0
 36
0.0
 17
0.0
 27
1.0
 37
0.0
 76
     0
330
1B
  0
LAYOUT
  5
22
102
{ACAD_REACTORS
330
1A
102
}
330
1A
100
AcDbPlotSettings
  1

  2
none_device
  4

  6

 40
0.0
 41
0.0
 42
0.0
 43
0.0
 44
0.0
 45
0.0
 46
0.0
 47
0.0
 48
0.0
 49
0.0
140
0.0
141
0.0
142
1.0
143
1.0
 70
  1712
 72
     0
 73
     0
 74
     0
  7

 75
     0
147
1.0
148
0.0
149
0.0
100
AcDbLayout
  1
Model
 70
     1
 71
     0
 10
0.0
 20
0.0
 11
1682.0
 21
2378.0
 12
0.0
 22
0.0
 32
0.0
 14
0.0
 24
0.0
 34
0.0
 15
1682.0
 25
2378.0
 35
0.0
146
0.0
 13
0.0
 23
0.0
 33
0.0
 16
1.0
 26
0.0
 36
0.0
 17
0.0
 27
1.0
 37
0.0
 76
     0
330
1F
331
29
  0
MLINESTYLE
  5
18
102
{ACAD_REACTORS
330
17
102
}
330
17
100
AcDbMlineStyle
  2
Standard
 70
     0
  3

 62
   256
 51
90.0
 52
90.0
 71
     2
 49
0.5
 62
   256
  6
BYLAYER
 49
-0.5
 62
   256
  6
BYLAYER
  0
ACDBPLACEHOLDER
  5
F
102
{ACAD_REACTORS
330
E
102
}
330
E
  0
SCALE
  5
3C
102
{ACAD_REACTORS
330
3B
102
}
330
3B
100
AcDbScale
 70
     0
300
1:1
140
1.0
141
1.0
290
     1
  0
SCALE
  5
3D
102
{ACAD_REACTORS
330
3B
102
}
330
3B
100
AcDbScale
 70
     0
300
1:2
140
1.0
141
2.0
290
     0
  0
SCALE
  5
3E
102
{ACAD_REACTORS
330
3B
102
}
330
3B
100
AcDbScale
 70
     0
300
1:4
140
1.0
141
4.0
290
     0
  0
SCALE
  5
3F
102
{ACAD_REACTORS
330
3B
102
}
330
3B
100
AcDbScale
 70
     0
300
1:5
140
1.0
141
5.0
290
     0
  0
SCALE
  5
40
102
{ACAD_REACTORS
330
3B
102
}
330
3B
100
AcDbScale
 70
     0
300
1:8
140
1.0
141
8.0
290
     0
  0
SCALE
  5
41
102
{ACAD_REACTORS
330
3B
102
}
330
3B
100
AcDbScale
 70
     0
300
1:10
140
1.0
141
10.0
290
     0
  0
SCALE
  5
42
102
{ACAD_REACTORS
330
3B
102
}
330
3B
100
AcDbScale
 70
     0
300
1:16
140
1.0
141
16.0
290
     0
  0
SCALE
  5
43
102
{ACAD_REACTORS
330
3B
102
}
330
3B
100
AcDbScale
 70
     0
300
1:20
140
1.0
141
20.0
290
     0
  0
SCALE
  5
44
102
{ACAD_REACTORS
330
3B
102
}
330
3B
100
AcDbScale
 70
     0
300
1:30
140
1.0
141
30.0
290
     0
  0
SCALE
  5
45
102
{ACAD_REACTORS
330
3B
102
}
330
3B
100
AcDbScale
 70
     0
300
1:40
140
1.0
141
40.0
290
     0
  0
SCALE
  5
46
102
{ACAD_REACTORS
330
3B
102
}
330
3B
100
AcDbScale
 70
     0
300
1:50
140
1.0
141
50.0
290
     0
  0
SCALE
  5
47
102
{ACAD_REACTORS
330
3B
102
}
330
3B
100
AcDbScale
 70
     0
300
1:100
140
1.0
141
100.0
290
     0
  0
SCALE
  5
48
102
{ACAD_REACTORS
330
3B
102
}
330
3B
100
AcDbScale
 70
     0
300
2:1
140
2.0
141
1.0
290
     0
  0
SCALE
  5
49
102
{ACAD_REACTORS
330
3B
102
}
330
3B
100
AcDbScale
 70
     0
300
4:1
140
4.0
141
1.0
290
     0
  0
SCALE
  5
4A
102
{ACAD_REACTORS
330
3B
102
}
330
3B
100
AcDbScale
 70
     0
300
8:1
140
8.0
141
1.0
290
     0
  0
SCALE
  5
4B
102
{ACAD_REACTORS
330
3B
102
}
330
3B
100
AcDbScale
 70
     0
300
10:1
140
10.0
141
1.0
290
     0
  0
SCALE
  5
4C
102
{ACAD_REACTORS
330
3B
102
}
330
3B
100
AcDbScale
 70
     0
300
100:1
140
100.0
141
1.0
290
     0
  0
SCALE
  5
4D
102
{ACAD_REACTORS
330
3B
102
}
330
3B
100
AcDbScale
 70
     0
300
1/128" = 1'-0"
140
0.0078125
141
12.0
290
     0
  0
SCALE
  5
4E
102
{ACAD_REACTORS
330
3B
102
}
330
3B
100
AcDbScale
 70
     0
300
1/64" = 1'-0"
140
0.015625
141
12.0
290
     0
  0
SCALE
  5
4F
102
{ACAD_REACTORS
330
3B
102
}
330
3B
100
AcDbScale
 70
     0
300
1/32" = 1'-0"
140
0.03125
141
12.0
290
     0
  0
SCALE
  5
50
102
{ACAD_REACTORS
330
3B
102
}
330
3B
100
AcDbScale
 70
     0
300
1/16" = 1'-0"
140
0.0625
141
12.0
290
     0
  0
SCALE
  5
51
102
{ACAD_REACTORS
330
3B
102
}
330
3B
100
AcDbScale
 70
     0
300
3/32" = 1'-0"
140
0.09375
141
12.0
290
     0
  0
SCALE
  5
52
102
{ACAD_REACTORS
330
3B
102
}
330
3B
100
AcDbScale
 70
     0
300
1/8" = 1'-0"
140
0.125
141
12.0
290
     0
  0
SCALE
  5
53
102
{ACAD_REACTORS
330
3B
102
}
330
3B
100
AcDbScale
 70
     0
300
3/16" = 1'-0"
140
0.1875
141
12.0
290
     0
  0
SCALE
  5
54
102
{ACAD_REACTORS
330
3B
102
}
330
3B
100
AcDbScale
 70
     0
300
1/4" = 1'-0"
140
0.25
141
12.0
290
     0
  0
SCALE
  5
55
102
{ACAD_REACTORS
330
3B
102
}
330
3B
100
AcDbScale
 70
     0
300
3/8" = 1'-0"
140
0.375
141
12.0
290
     0
  0
SCALE
  5
56
102
{ACAD_REACTORS
330
3B
102
}
330
3B
100
AcDbScale
 70
     0
300
1/2" = 1'-0"
140
0.5
141
12.0
290
     0
  0
SCALE
  5
57
102
{ACAD_REACTORS
330
3B
102
}
330
3B
100
AcDbScale
 70
     0
300
3/4" = 1'-0"
140
0.75
141
12.0
290
     0
  0
SCALE
  5
58
102
{ACAD_REACTORS
330
3B
102
}
330
3B
100
AcDbScale
 70
     0
300
1" = 1'-0"
140
1.0
141
12.0
290
     0
  0
SCALE
  5
59
102
{ACAD_REACTORS
330
3B
102
}
330
3B
100
AcDbScale
 70
     0
300
1-1/2" = 1'-0"
140
1.5
141
12.0
290
     0
  0
SCALE
  5
5A
102
{ACAD_REACTORS
330
3B
102
}
330
3B
100
AcDbScale
 70
     0
300
3" = 1'-0"
140
3.0
141
12.0
290
     0
  0
SCALE
  5
5B
102
{ACAD_REACTORS
330
3B
102
}
330
3B
100
AcDbScale
 70
     0
300
6" = 1'-0"
140
6.0
141
12.0
290
     0
  0
SCALE
  5
5C
102
{ACAD_REACTORS
330
3B
102
}
330
3B
100
AcDbScale
 70
     0
300
1'-0" = 1'-0"
140
12.0
141
12.0
290
     0
  0
VISUALSTYLE
  5
2F
102
{ACAD_REACTORS
330
2A
102
}
330
2A
100
AcDbVisualStyle
  2
2dWireframe
 70
     4
 71
     0
 72
     2
 73
     0
 90
        0
 40
-0.6
 41
-30.0
 62
     5
 63
     7
 74
     1
 91
        4
 64
     7
 65
   257
 75
     1
175
     1
 42
1.0
 92
        0
 66
   257
 43
1.0
 76
     1
 77
     6
 78
     2
 67
     7
 79
     5
170
     0
171
     0
290
     0
174
     0
 93
        1
 44
0.0
173
     0
291
     0
 45
0.0
1001
ACAD
1000
AcDbSavedByObjectVersion
1070
     0
  0
VISUALSTYLE
  5
31
102
{ACAD_REACTORS
330
2A
102
}
330
2A
100
AcDbVisualStyle
  2
3D Hidden
 70
     6
 71
     1
 72
     2
 73
     2
 90
        0
 40
-0.6
 41
-30.0
 62
     5
 63
     7
 74
     2
 91
        2
 64
     7
 65
   257
 75
     2
175
     1
 42
40.0
 92
        0
 66
   257
 43
1.0
 76
     1
 77
     6
 78
     2
 67
     7
 79
     3
170
     0
171
     0
290
     0
174
     0
 93
        1
 44
0.0
173
     0
291
     0
 45
0.0
1001
ACAD
1000
AcDbSavedByObjectVersion
1070
     0
  0
VISUALSTYLE
  5
30
102
{ACAD_REACTORS
330
2A
102
}
330
2A
100
AcDbVisualStyle
  2
3dWireframe
 70
     5
 71
     0
 72
     2
 73
     0
 90
        0
 40
-0.6
 41
-30.0
 62
     5
 63
     7
 74
     1
 91
        4
 64
     7
 65
   257
 75
     1
175
     1
 42
1.0
 92
        0
 66
   257
 43
1.0
 76
     1
 77
     6
 78
     2
 67
     7
 79
     5
170
     0
171
     0
290
     0
174
     0
 93
        1
 44
0.0
173
     0
291
     0
 45
0.0
1001
ACAD
1000
AcDbSavedByObjectVersion
1070
     0
  0
VISUALSTYLE
  5
32
102
{ACAD_REACTORS
330
2A
102
}
330
2A
100
AcDbVisualStyle
  2
Basic
 70
     7
 71
     1
 72
     0
 73
     1
 90
        0
 40
-0.6
 41
-30.0
 62
     5
 63
     7
 74
     0
 91
        4
 64
     7
 65
   257
 75
     1
175
     1
 42
1.0
 92
        8
 66
     7
 43
1.0
 76
     1
 77
     6
 78
     2
 67
     7
 79
     5
170
     0
171
     0
290
     0
174
     0
 93
        1
 44
0.0
173
     0
291
     1
 45
0.0
1001
ACAD
1000
AcDbSavedByObjectVersion
1070
     0
  0
VISUALSTYLE
  5
36
102
{ACAD_REACTORS
330
2A
102
}
330
2A
100
AcDbVisualStyle
  2
Brighten
 70
    12
 71
     2
 72
     2
 73
     0
 90
        0
 40
-0.6
 41
-30.0
 62
     5
 63
     7
 74
     1
 91
        4
 64
     7
 65
   257
 75
     1
175
     1
 42
1.0
 92
        8
 66
     7
 43
1.0
 76
     1
 77
     6
 78
     2
 67
     7
 79
     5
170
     0
171
     0
290
     0
174
     0
 93
        1
 44
50.0
173
     0
291
     1
 45
0.0
1001
ACAD
1000
AcDbSavedByObjectVersion
1070
     0
  0
VISUALSTYLE
  5
3A
102
{ACAD_REACTORS
330
2A
102
}
330
2A
100
AcDbVisualStyle
  2
ColorChange
 70
    16
 71
     2
 72
     2
 73
     3
 90
        0
 40
-0.6
 41
-30.0
 62
     5
 63
     8
 74
     1
 91
        4
 64
     7
 65
   257
 75
     1
175
     1
 42
1.0
 92
        8
 66
     8
 43
1.0
 76
     1
 77
     6
 78
     2
 67
     7
 79
     5
170
     0
171
     0
290
     0
174
     0
 93
        1
 44
0.0
173
     0
291
     1
 45
0.0
1001
ACAD
1000
AcDbSavedByObjectVersion
1070
     0
  0
VISUALSTYLE
  5
34
102
{ACAD_REACTORS
330
2A
102
}
330
2A
100
AcDbVisualStyle
  2
Conceptual
 70
     9
 71
     3
 72
     2
 73
     0
 90
        0
 40
-0.6
 41
-30.0
 62
     5
 63
     7
 74
     2
 91
        2
 64
     7
 65
   257
 75
     1
175
     1
 42
40.0
 92
        8
 66
     7
 43
1.0
 76
     1
 77
     6
 78
     2
 67
     7
 79
     3
170
     0
171
     0
290
     0
174
     0
 93
        1
 44
0.0
173
     0
291
     0
 45
0.0
1001
ACAD
1000
AcDbSavedByObjectVersion
1070
     0
  0
VISUALSTYLE
  5
35
102
{ACAD_REACTORS
330
2A
102
}
330
2A
100
AcDbVisualStyle
  2
Dim
 70
    11
 71
     2
 72
     2
 73
     0
 90
        0
 40
-0.6
 41
-30.0
 62
     5
 63
     7
 74
     1
 91
        4
 64
     7
 65
   257
 75
     1
175
     1
 42
1.0
 92
        8
 66
     7
 43
1.0
 76
     1
 77
     6
 78
     2
 67
     7
 79
     5
170
     0
171
     0
290
     0
174
     0
 93
        1
 44
-50.0
173
     0
291
     1
 45
0.0
1001
ACAD
1000
AcDbSavedByObjectVersion
1070
     0
  0
VISUALSTYLE
  5
39
102
{ACAD_REACTORS
330
2A
102
}
330
2A
100
AcDbVisualStyle
  2
Facepattern
 70
    15
 71
     2
 72
     2
 73
     0
 90
        0
 40
-0.6
 41
-30.0
 62
     5
 63
     7
 74
     1
 91
        4
 64
     7
 65
   257
 75
     1
175
     1
 42
1.0
 92
        8
 66
     7
 43
1.0
 76
     1
 77
     6
 78
     2
 67
     7
 79
     5
170
     0
171
     0
290
     0
174
     0
 93
        1
 44
0.0
173
     0
291
     1
 45
0.0
1001
ACAD
1000
AcDbSavedByObjectVersion
1070
     0
  0
VISUALSTYLE
  5
2B
102
{ACAD_REACTORS
330
2A
102
}
330
2A
100
AcDbVisualStyle
  2
Flat
 70
     0
 71
     2
 72
     1
 73
     1
 90
        2
 40
-0.6
 41
30.0
 62
     5
 63
     7
 74
     0
 91
        4
 64
     7
 65
   257
 75
     1
175
     1
 42
1.0
 92
        8
 66
     7
 43
1.0
 76
     1
 77
     6
 78
     2
 67
     7
 79
     5
170
     0
171
     0
290
     0
174
     0
 93
       13
 44
0.0
173
     0
291
     1
 45
0.0
1001
ACAD
1000
AcDbSavedByObjectVersion
1070
     0
  0
VISUALSTYLE
  5
2C
102
{ACAD_REACTORS
330
2A
102
}
330
2A
100
AcDbVisualStyle
  2
FlatWithEdges
 70
     1
 71
     2
 72
     1
 73
     1
 90
        2
 40
-0.6
 41
30.0
 62
     5
 63
     7
 74
     1
 91
        4
 64
     7
 65
   257
 75
     1
175
     1
 42
1.0
 92
        0
 66
   257
 43
1.0
 76
     1
 77
     6
 78
     2
 67
     7
 79
     5
170
     0
171
     0
290
     0
174
     0
 93
       13
 44
0.0
173
     0
291
     1
 45
0.0
1001
ACAD
1000
AcDbSavedByObjectVersion
1070
     0
  0
VISUALSTYLE
  5
2D
102
{ACAD_REACTORS
330
2A
102
}
330
2A
100
AcDbVisualStyle
  2
Gouraud
 70
     2
 71
     2
 72
     2
 73
     1
 90
        2
 40
-0.6
 41
30.0
 62
     5
 63
     7
 74
     0
 91
        4
 64
     7
 65
   257
 75
     1
175
     1
 42
1.0
 92
        0
 66
     7
 43
1.0
 76
     1
 77
     6
 78
     2
 67
     7
 79
     5
170
     0
171
     0
290
     0
174
     0
 93
       13
 44
0.0
173
     0
291
     1
 45
0.0
1001
ACAD
1000
AcDbSavedByObjectVersion
1070
     0
  0
VISUALSTYLE
  5
2E
102
{ACAD_REACTORS
330
2A
102
}
330
2A
100
AcDbVisualStyle
  2
GouraudWithEdges
 70
     3
 71
     2
 72
     2
 73
     1
 90
        2
 40
-0.6
 41
30.0
 62
     5
 63
     7
 74
     1
 91
        4
 64
     7
 65
   257
 75
     1
175
     1
 42
1.0
 92
        0
 66
   257
 43
1.0
 76
     1
 77
     6
 78
     2
 67
     7
 79
     5
170
     0
171
     0
290
     0
174
     0
 93
       13
 44
0.0
173
     0
291
     1
 45
0.0
1001
ACAD
1000
AcDbSavedByObjectVersion
1070
     0
  0
VISUALSTYLE
  5
38
102
{ACAD_REACTORS
330
2A
102
}
330
2A
100
AcDbVisualStyle
  2
Linepattern
 70
    14
 71
     2
 72
     2
 73
     0
 90
        0
 40
-0.6
 41
-30.0
 62
     5
 63
     7
 74
     1
 91
        4
 64
     7
 65
   257
 75
     7
175
     7
 42
1.0
 92
        8
 66
     7
 43
1.0
 76
     1
 77
     6
 78
     2
 67
     7
 79
     5
170
     0
171
     0
290
     0
174
     0
 93
        1
 44
0.0
173
     0
291
     1
 45
0.0
1001
ACAD
1000
AcDbSavedByObjectVersion
1070
     0
  0
VISUALSTYLE
  5
33
102
{ACAD_REACTORS
330
2A
102
}
330
2A
100
AcDbVisualStyle
  2
Realistic
 70
     8
 71
     2
 72
     2
 73
     0
 90
        0
 40
-0.6
 41
-30.0
 62
     5
 63
     7
 74
     1
 91
        0
 64
     7
 65
   257
 75
     1
175
     1
 42
1.0
 92
        8
 66
     8
 43
1.0
 76
     1
 77
     6
 78
     2
 67
     7
 79
     5
170
     0
171
     0
290
     0
174
     0
 93
       13
 44
0.0
173
     0
291
     0
 45
0.0
1001
ACAD
1000
AcDbSavedByObjectVersion
1070
     0
  0
VISUALSTYLE
  5
37
102
{ACAD_REACTORS
330
2A
102
}
330
2A
100
AcDbVisualStyle
  2
Thicken
 70
    13
 71
     2
 72
     2
 73
     0
 90
        0
 40
-0.6
 41
-30.0
 62
     5
 63
     7
 74
     1
 91
        4
 64
     7
 65
   257
 75
     1
175
     1
 42
1.0
 92
       12
 66
     7
 43
1.0
 76
     1
 77
     6
 78
     2
 67
     7
 79
     5
170
     0
171
     0
290
     0
174
     0
 93
        1
 44
0.0
173
     0
291
     1
 45
0.0
1001
ACAD
1000
AcDbSavedByObjectVersion
1070
     0
  0
DICTIONARYVAR
  5
180
102
{ACAD_REACTORS
330
17F
102
}
330
17F
100
DictionaryVariables
280
     0
  1
1:1
  0
DICTIONARYVAR
  5
184
102
{ACAD_REACTORS
330
17F
102
}
330
17F
100
DictionaryVariables
280
     0
  1
80.000000
  0
DICTIONARYVAR
  5
183
102
{ACAD_REACTORS
330
17F
102
}
330
17F
100
DictionaryVariables
280
     0
  1
5.000000
  0
ENDSEC
  0
EOF
