  0
SECTION
  2
HEADER
  9
$ACADVER
  1
AC1015
  9
$ACADMAINTVER
 70
     6
  9
$DWGCODEPAGE
  3
ANSI_1252
  9
$INSBASE
 10
0.0
 20
0.0
 30
0.0
  9
$EXTMIN
 10
0.0
 20
0.0
 30
0.0
  9
$EXTMAX
 10
1682.0
 20
2378.0
 30
0.0
  9
$LIMMIN
 10
0.0
 20
0.0
  9
$LIMMAX
 10
1682.0
 20
2378.0
  9
$ORTHOMODE
 70
     0
  9
$REGENMODE
 70
     1
  9
$FILLMODE
 70
     1
  9
$QTEXTMODE
 70
     0
  9
$MIRRTEXT
 70
     1
  9
$LTSCALE
 40
1.0
  9
$ATTMODE
 70
     1
  9
$TEXTSIZE
 40
2.5
  9
$TRACEWID
 40
1.0
  9
$TEXTSTYLE
  7
Standard
  9
$CLAYER
  8
0
  9
$CELTYPE
  6
ByLayer
  9
$CECOLOR
 62
   256
  9
$CELTSCALE
 40
1.0
  9
$DISPSILH
 70
     0
  9
$DIMSCALE
 40
1.0
  9
$DIMASZ
 40
2.5
  9
$DIMEXO
 40
0.625
  9
$DIMDLI
 40
3.75
  9
$DIMRND
 40
0.0
  9
$DIMDLE
 40
0.0
  9
$DIMEXE
 40
1.25
  9
$DIMTP
 40
0.0
  9
$DIMTM
 40
0.0
  9
$DIMTXT
 40
2.5
  9
$DIMCEN
 40
2.5
  9
$DIMTSZ
 40
0.0
  9
$DIMTOL
 70
     0
  9
$DIMLIM
 70
     0
  9
$DIMTIH
 70
     0
  9
$DIMTOH
 70
     0
  9
$DIMSE1
 70
     0
  9
$DIMSE2
 70
     0
  9
$DIMTAD
 70
     1
  9
$DIMZIN
 70
     8
  9
$DIMBLK
  1

  9
$DIMASO
 70
     1
  9
$DIMSHO
 70
     1
  9
$DIMPOST
  1

  9
$DIMAPOST
  1

  9
$DIMALT
 70
     0
  9
$DIMALTD
 70
     3
  9
$DIMALTF
 40
0.0393700787
  9
$DIMLFAC
 40
1.0
  9
$DIMTOFL
 70
     1
  9
$DIMTVP
 40
0.0
  9
$DIMTIX
 70
     0
  9
$DIMSOXD
 70
     0
  9
$DIMSAH
 70
     0
  9
$DIMBLK1
  1

  9
$DIMBLK2
  1

  9
$DIMSTYLE
  2
ISO-25
  9
$DIMCLRD
 70
     0
  9
$DIMCLRE
 70
     0
  9
$DIMCLRT
 70
     0
  9
$DIMTFAC
 40
1.0
  9
$DIMGAP
 40
0.625
  9
$DIMJUST
 70
     0
  9
$DIMSD1
 70
     0
  9
$DIMSD2
 70
     0
  9
$DIMTOLJ
 70
     0
  9
$DIMTZIN
 70
     8
  9
$DIMALTZ
 70
     0
  9
$DIMALTTZ
 70
     0
  9
$DIMUPT
 70
     0
  9
$DIMDEC
 70
     2
  9
$DIMTDEC
 70
     2
  9
$DIMALTU
 70
     2
  9
$DIMALTTD
 70
     3
  9
$DIMTXSTY
  7
Standard
  9
$DIMAUNIT
 70
     0
  9
$DIMADEC
 70
     0
  9
$DIMALTRND
 40
0.0
  9
$DIMAZIN
 70
     0
  9
$DIMDSEP
 70
    44
  9
$DIMATFIT
 70
     3
  9
$DIMFRAC
 70
     0
  9
$DIMLDRBLK
  1

  9
$DIMLUNIT
 70
     2
  9
$DIMLWD
 70
    -2
  9
$DIMLWE
 70
    -2
  9
$DIMTMOVE
 70
     0
  9
$LUNITS
 70
     2
  9
$LUPREC
 70
     4
  9
$SKETCHINC
 40
1.0
  9
$FILLETRAD
 40
10.0
  9
$AUNITS
 70
     0
  9
$AUPREC
 70
     0
  9
$MENU
  1
.
  9
$ELEVATION
 40
0.0
  9
$PELEVATION
 40
0.0
  9
$THICKNESS
 40
0.0
  9
$LIMCHECK
 70
     0
  9
$CHAMFERA
 40
10.0
  9
$CHAMFERB
 40
10.0
  9
$CHAMFERC
 40
20.0
  9
$CHAMFERD
 40
0.0
  9
$SKPOLY
 70
     0
  9
$TDCREATE
 40
2455569.60974037
  9
$TDUCREATE
 40
2455569.568073704
  9
$TDUPDATE
 40
2455569.609740382
  9
$TDUUPDATE
 40
2455569.568073715
  9
$TDINDWG
 40
0.0000000116
  9
$TDUSRTIMER
 40
0.0000000116
  9
$USRTIMER
 70
     1
  9
$ANGBASE
 50
0.0
  9
$ANGDIR
 70
     0
  9
$PDMODE
 70
     0
  9
$PDSIZE
 40
0.0
  9
$PLINEWID
 40
0.0
  9
$SPLFRAME
 70
     0
  9
$SPLINETYPE
 70
     6
  9
$SPLINESEGS
 70
     8
  9
$HANDSEED
  5
170
  9
$SURFTAB1
 70
     6
  9
$SURFTAB2
 70
     6
  9
$SURFTYPE
 70
     6
  9
$SURFU
 70
     6
  9
$SURFV
 70
     6
  9
$UCSBASE
  2

  9
$UCSNAME
  2

  9
$UCSORG
 10
0.0
 20
0.0
 30
0.0
  9
$UCSXDIR
 10
1.0
 20
0.0
 30
0.0
  9
$UCSYDIR
 10
0.0
 20
1.0
 30
0.0
  9
$UCSORTHOREF
  2

  9
$UCSORTHOVIEW
 70
     0
  9
$UCSORGTOP
 10
0.0
 20
0.0
 30
0.0
  9
$UCSORGBOTTOM
 10
0.0
 20
0.0
 30
0.0
  9
$UCSORGLEFT
 10
0.0
 20
0.0
 30
0.0
  9
$UCSORGRIGHT
 10
0.0
 20
0.0
 30
0.0
  9
$UCSORGFRONT
 10
0.0
 20
0.0
 30
0.0
  9
$UCSORGBACK
 10
0.0
 20
0.0
 30
0.0
  9
$PUCSBASE
  2

  9
$PUCSNAME
  2

  9
$PUCSORG
 10
0.0
 20
0.0
 30
0.0
  9
$PUCSXDIR
 10
1.0
 20
0.0
 30
0.0
  9
$PUCSYDIR
 10
0.0
 20
1.0
 30
0.0
  9
$PUCSORTHOREF
  2

  9
$PUCSORTHOVIEW
 70
     0
  9
$PUCSORGTOP
 10
0.0
 20
0.0
 30
0.0
  9
$PUCSORGBOTTOM
 10
0.0
 20
0.0
 30
0.0
  9
$PUCSORGLEFT
 10
0.0
 20
0.0
 30
0.0
  9
$PUCSORGRIGHT
 10
0.0
 20
0.0
 30
0.0
  9
$PUCSORGFRONT
 10
0.0
 20
0.0
 30
0.0
  9
$PUCSORGBACK
 10
0.0
 20
0.0
 30
0.0
  9
$USERI1
 70
     0
  9
$USERI2
 70
     0
  9
$USERI3
 70
     0
  9
$USERI4
 70
     0
  9
$USERI5
 70
     0
  9
$USERR1
 40
0.0
  9
$USERR2
 40
0.0
  9
$USERR3
 40
0.0
  9
$USERR4
 40
0.0
  9
$USERR5
 40
0.0
  9
$WORLDVIEW
 70
     1
  9
$SHADEDGE
 70
     3
  9
$SHADEDIF
 70
    70
  9
$TILEMODE
 70
     1
  9
$MAXACTVP
 70
    64
  9
$PINSBASE
 10
0.0
 20
0.0
 30
0.0
  9
$PLIMCHECK
 70
     0
  9
$PEXTMIN
 10
0.0
 20
0.0
 30
0.0
  9
$PEXTMAX
 10
1682.0
 20
2378.0
 30
0.0
  9
$PLIMMIN
 10
0.0
 20
0.0
  9
$PLIMMAX
 10
1682.0
 20
2378.0
  9
$UNITMODE
 70
     0
  9
$VISRETAIN
 70
     1
  9
$PLINEGEN
 70
     0
  9
$PSLTSCALE
 70
     1
  9
$TREEDEPTH
 70
  3020
  9
$CMLSTYLE
  2
Standard
  9
$CMLJUST
 70
     0
  9
$CMLSCALE
 40
20.0
  9
$PROXYGRAPHICS
 70
     1
  9
$MEASUREMENT
 70
     1
  9
$CELWEIGHT
370
    -1
  9
$ENDCAPS
280
     0
  9
$JOINSTYLE
280
     0
  9
$LWDISPLAY
290
     0
  9
$INSUNITS
 70
     4
  9
$HYPERLINKBASE
  1

  9
$STYLESHEET
  1

  9
$XEDIT
290
     1
  9
$CEPSNTYPE
380
     0
  9
$PSTYLEMODE
290
     1
  9
$FINGERPRINTGUID
  2
{A17C4194-00C2-4262-BECE-E4FE12AD1FBB}
  9
$VERSIONGUID
  2
{FAEB1C32-E019-11D5-929B-00C0DF256EC4}
  9
$EXTNAMES
290
     1
  9
$PSVPSCALE
 40
0.0
  9
$OLESTARTUP
290
     0
  0
ENDSEC
  0
SECTION
  2
CLASSES
  0
CLASS
  1
ACDBDICTIONARYWDFLT
  2
AcDbDictionaryWithDefault
  3
ObjectDBX Classes
 90
        0
280
     0
281
     0
  0
CLASS
  1
VISUALSTYLE
  2
AcDbVisualStyle
  3
ObjectDBX Classes
 90
     4095
280
     0
281
     0
  0
CLASS
  1
SCALE
  2
AcDbScale
  3
ObjectDBX Classes
 90
     1153
280
     0
281
     0
  0
CLASS
  1
DICTIONARYVAR
  2
AcDbDictionaryVar
  3
ObjectDBX Classes
 90
        0
280
     0
281
     0
  0
CLASS
  1
ACDBPLACEHOLDER
  2
AcDbPlaceHolder
  3
ObjectDBX Classes
 90
        0
280
     0
281
     0
  0
CLASS
  1
LAYOUT
  2
AcDbLayout
  3
ObjectDBX Classes
 90
        0
280
     0
281
     0
  0
ENDSEC
  0
SECTION
  2
TABLES
  0
TABLE
  2
VPORT
  5
8
330
0
100
AcDbSymbolTable
 70
     1
  0
VPORT
  5
29
330
8
100
AcDbSymbolTableRecord
100
AcDbViewportTableRecord
  2
*Active
 70
     0
 10
0.0
 20
0.0
 11
1.0
 21
1.0
 12
344.1869158879
 22
148.5
 13
0.0
 23
0.0
 14
10.0
 24
10.0
 15
10.0
 25
10.0
 16
0.0
 26
0.0
 36
1.0
 17
0.0
 27
0.0
 37
0.0
 40
297.0
 41
1.9729729729
 42
50.0
 43
0.0
 44
0.0
 50
0.0
 51
0.0
 71
     0
 72
   100
 73
     1
 74
     3
 75
     0
 76
     0
 77
     0
 78
     0
281
     0
 65
     1
110
0.0
120
0.0
130
0.0
111
1.0
121
0.0
131
0.0
112
0.0
122
1.0
132
0.0
 79
     0
146
0.0
  0
ENDTAB
  0
TABLE
  2
LTYPE
  5
5
330
0
100
AcDbSymbolTable
 70
     1
  0
LTYPE
  5
14
330
5
100
AcDbSymbolTableRecord
100
AcDbLinetypeTableRecord
  2
ByBlock
 70
     0
  3

 72
    65
 73
     0
 40
0.0
  0
LTYPE
  5
15
330
5
100
AcDbSymbolTableRecord
100
AcDbLinetypeTableRecord
  2
ByLayer
 70
     0
  3

 72
    65
 73
     0
 40
0.0
  0
LTYPE
  5
16
330
5
100
AcDbSymbolTableRecord
100
AcDbLinetypeTableRecord
  2
Continuous
 70
     0
  3
Solid line
 72
    65
 73
     0
 40
0.0
  0
ENDTAB
  0
TABLE
  2
LAYER
  5
2
330
0
100
AcDbSymbolTable
 70
     3
  0
LAYER
  5
10
330
2
100
AcDbSymbolTableRecord
100
AcDbLayerTableRecord
  2
0
 70
     0
 62
     7
  6
Continuous
370
    -3
390
F
  0
LAYER
  5
5D
330
2
100
AcDbSymbolTableRecord
100
AcDbLayerTableRecord
  2
Default
 70
     0
 62
     7
  6
Continuous
370
    -3
390
F
  0
LAYER
  5
60
330
2
100
AcDbSymbolTableRecord
100
AcDbLayerTableRecord
  2
40367000_HALT_PA
 70
     0
 62
     7
  6
Continuous
370
    -3
390
F
  0
ENDTAB
  0
TABLE
  2
STYLE
  5
3
330
0
100
AcDbSymbolTable
 70
     2
  0
STYLE
  5
11
330
3
100
AcDbSymbolTableRecord
100
AcDbTextStyleTableRecord
  2
Standard
 70
     0
 40
0.0
 41
1.0
 50
0.0
 71
     0
 42
2.5
  3
txt
  4

  0
STYLE
  5
15F
330
3
100
AcDbSymbolTableRecord
100
AcDbTextStyleTableRecord
  2
SEACAD_seiso_ttf
 70
     0
 40
0.0
 41
1.0
 50
0.0
 71
     0
 42
0.2
  3
seiso.ttf
  4

  0
ENDTAB
  0
TABLE
  2
VIEW
  5
6
330
0
100
AcDbSymbolTable
 70
     0
  0
ENDTAB
  0
TABLE
  2
UCS
  5
7
330
0
100
AcDbSymbolTable
 70
     0
  0
ENDTAB
  0
TABLE
  2
APPID
  5
9
330
0
100
AcDbSymbolTable
 70
     1
  0
APPID
  5
12
330
9
100
AcDbSymbolTableRecord
100
AcDbRegAppTableRecord
  2
ACAD
 70
     0
  0
ENDTAB
  0
TABLE
  2
DIMSTYLE
  5
A
330
0
100
AcDbSymbolTable
 70
     1
100
AcDbDimStyleTable
  0
DIMSTYLE
105
27
330
A
100
AcDbSymbolTableRecord
100
AcDbDimStyleTableRecord
  2
ISO-25
 70
     0
 41
2.5
 42
0.625
 43
3.75
 44
1.25
 73
     0
 74
     0
 77
     1
 78
     8
140
2.5
141
2.5
143
0.0393700787
147
0.625
171
     3
172
     1
271
     2
272
     2
274
     3
278
    44
283
     0
284
     8
340
11
  0
ENDTAB
  0
TABLE
  2
BLOCK_RECORD
  5
1
330
0
100
AcDbSymbolTable
 70
     4
  0
BLOCK_RECORD
  5
1F
330
1
100
AcDbSymbolTableRecord
100
AcDbBlockTableRecord
  2
*Model_Space
340
22
  0
BLOCK_RECORD
  5
1B
330
1
100
AcDbSymbolTableRecord
100
AcDbBlockTableRecord
  2
*Paper_Space
340
1E
  0
BLOCK_RECORD
  5
5E
330
1
100
AcDbSymbolTableRecord
100
AcDbBlockTableRecord
  2
SE
340
0
102
{BLKREFS
331
5F
102
}
  0
BLOCK_RECORD
  5
98
330
1
100
AcDbSymbolTableRecord
100
AcDbBlockTableRecord
  2
SE1
340
0
102
{BLKREFS
331
99
102
}
  0
BLOCK_RECORD
  5
102
330
1
100
AcDbSymbolTableRecord
100
AcDbBlockTableRecord
  2
SE2
340
0
102
{BLKREFS
331
103
102
}
  0
ENDTAB
  0
ENDSEC
  0
SECTION
  2
BLOCKS
  0
BLOCK
  5
20
330
1F
100
AcDbEntity
  8
0
100
AcDbBlockBegin
  2
*Model_Space
 70
     0
 10
0.0
 20
0.0
 30
0.0
  3
*Model_Space
  1

  0
ENDBLK
  5
21
330
1F
100
AcDbEntity
  8
0
100
AcDbBlockEnd
  0
BLOCK
  5
1C
330
1B
100
AcDbEntity
 67
     1
  8
0
100
AcDbBlockBegin
  2
*Paper_Space
 70
     0
 10
0.0
 20
0.0
 30
0.0
  3
*Paper_Space
  1

  0
ENDBLK
  5
1D
330
1B
100
AcDbEntity
 67
     1
  8
0
100
AcDbBlockEnd
  0
BLOCK
  5
96
330
5E
100
AcDbEntity
  8
0
100
AcDbBlockBegin
  2
SE
 70
     0
 10
0.0
 20
0.0
 30
0.0
  3
SE
  1

  0
ARC
  5
61
330
5E
100
AcDbEntity
  8
40367000_HALT_PA
  6
Continuous
 62
     7
100
AcDbCircle
 10
93.4362765015
 20
318.7117684404
 30
0.0
 40
27.0
100
AcDbArc
 50
15.2473729646
 51
162.9921325383
  0
LINE
  5
62
330
5E
100
AcDbEntity
  8
40367000_HALT_PA
  6
Continuous
 62
     7
100
AcDbLine
 10
104.5577892474
 20
322.5413649333
 30
0.0
 11
101.5590332415
 21
322.5874390847
 31
0.0
  0
LINE
  5
63
330
5E
100
AcDbEntity
  8
40367000_HALT_PA
  6
Continuous
 62
     7
100
AcDbLine
 10
101.4361323746
 20
314.5883831794
 30
0.0
 11
101.8344941759
 21
314.5822625807
 31
0.0
  0
LINE
  5
64
330
5E
100
AcDbEntity
  8
40367000_HALT_PA
  6
Continuous
 62
     7
100
AcDbLine
 10
82.5621624717
 20
322.9949967829
 30
0.0
 11
82.614154637
 21
326.378929276
 31
0.0
  0
LINE
  5
65
330
5E
100
AcDbEntity
  8
40367000_HALT_PA
  6
Continuous
 62
     7
100
AcDbLine
 10
60.6167508973
 20
326.7169066601
 30
0.0
 11
60.6145683091
 21
326.5748519701
 31
0.0
  0
SPLINE
  5
66
330
5E
100
AcDbEntity
  8
40367000_HALT_PA
  6
Continuous
 62
     7
100
AcDbSpline
210
0.0
220
0.0
230
1.0
 70
     8
 71
     3
 72
    18
 73
    14
 74
     0
 42
0.0000000025494762
 43
0.0000000001
 40
0.0
 40
0.0
 40
0.0
 40
0.0
 40
0.2500000000000019
 40
0.2500000000000019
 40
0.3750000000000011
 40
0.3750000000000011
 40
0.5000000000000003
 40
0.5000000000000003
 40
0.6249999999999996
 40
0.6249999999999996
 40
0.7499999999999987
 40
0.7499999999999987
 40
1.0
 40
1.0
 40
1.0
 40
1.0
 10
58.44886616775253
 20
323.3654836323146
 30
0.0
 10
58.80270624273795
 20
323.7079963443646
 30
0.0
 10
59.11153023949716
 20
324.0538863146292
 30
0.0
 10
59.51610919725883
 20
324.5593313034304
 30
0.0
 10
59.64159726068467
 20
324.7264802644214
 30
0.0
 10
59.86815361543231
 20
325.0456936879253
 30
0.0
 10
59.96990741025702
 20
325.1985324702603
 30
0.0
 10
60.15167028031428
 20
325.48855495895
 30
0.0
 10
60.23169889572733
 20
325.6257454225552
 30
0.0
 10
60.37053183627003
 20
325.8819420275013
 30
0.0
 10
60.42803714516277
 20
325.9985977510279
 30
0.0
 10
60.56576458782792
 20
326.3104463610389
 30
0.0
 10
60.6129501101272
 20
326.4695307892773
 30
0.0
 10
60.61456830914809
 20
326.5748519701323
 30
0.0
  0
LINE
  5
67
330
5E
100
AcDbEntity
  8
40367000_HALT_PA
  6
Continuous
 62
     7
100
AcDbLine
 10
82.5621624717
 20
322.9949967829
 30
0.0
 11
82.5290323772
 21
320.8387103052
 31
0.0
  0
ELLIPSE
  5
68
330
5E
100
AcDbEntity
  8
40367000_HALT_PA
  6
Continuous
 62
     7
100
AcDbEllipse
 10
93.5277342471
 20
320.6697216132
 30
0.0
 11
-10.99870186987002
 21
0.1689886920337581
 31
0.0
210
0.0
220
0.0
230
0.9999999999999996
 40
0.835982732
 41
0.0
 42
0.256698691897944
  0
ELLIPSE
  5
69
330
5E
100
AcDbEntity
  8
40367000_HALT_PA
  6
Continuous
 62
     7
100
AcDbEllipse
 10
52.6353157347
 20
327.9866611654
 30
0.0
 11
-7.999055905349468
 21
0.1229008669368492
 31
0.0
210
0.0
220
0.0
230
0.9999999999999998
 40
0.835982732
 41
1.570796326794884
 42
2.397174440744841
  0
LINE
  5
6A
330
5E
100
AcDbEntity
  8
40367000_HALT_PA
  6
Continuous
 62
     7
100
AcDbLine
 10
36.0345199274
 20
321.5530715943
 30
0.0
 11
52.5325727322
 21
321.2995885563
 31
0.0
  0
LINE
  5
6B
330
5E
100
AcDbEntity
  8
40367000_HALT_PA
  6
Continuous
 62
     7
100
AcDbLine
 10
35.9986526424
 20
319.2186338865
 30
0.0
 11
36.0345199274
 21
321.5530715943
 31
0.0
  0
LINE
  5
6C
330
5E
100
AcDbEntity
  8
40367000_HALT_PA
  6
Continuous
 62
     7
100
AcDbLine
 10
34.589108236
 20
227.4778285656
 30
0.0
 11
34.5882288027
 21
227.4205902683
 31
0.0
  0
LINE
  5
6D
330
5E
100
AcDbEntity
  8
40367000_HALT_PA
  6
Continuous
 62
     7
100
AcDbLine
 10
34.589108236
 20
227.4778285656
 30
0.0
 11
34.6319422169
 21
230.2656966737
 31
0.0
  0
LINE
  5
6E
330
5E
100
AcDbEntity
  8
40367000_HALT_PA
  6
Continuous
 62
     7
100
AcDbLine
 10
34.6319422169
 20
230.2656966737
 30
0.0
 11
35.9986526424
 21
319.2186338865
 31
0.0
  0
LINE
  5
6F
330
5E
100
AcDbEntity
  8
40367000_HALT_PA
  6
Continuous
 62
     7
100
AcDbLine
 10
150.9850812818
 20
317.4519339242
 30
0.0
 11
149.6183708563
 21
228.4989967115
 31
0.0
  0
SPLINE
  5
70
330
5E
100
AcDbEntity
  8
40367000_HALT_PA
  6
Continuous
 62
     7
100
AcDbSpline
210
0.0
220
0.0
230
1.0
 70
     8
 71
     3
 72
    10
 73
     6
 74
     0
 42
0.0000000003876686
 43
0.0000000001
 40
0.0
 40
0.0
 40
0.0
 40
0.0
 40
0.125
 40
0.125
 40
0.199063401139867
 40
0.199063401139867
 40
0.199063401139867
 40
0.199063401139867
 10
82.85355501898171
 20
318.4987354146334
 30
0.0
 10
83.14635567321255
 20
317.5096098323948
 30
0.0
 10
83.63574351756245
 20
316.5570223733219
 30
0.0
 10
84.66897868153396
 20
315.1922549962819
 30
0.0
 10
85.11577765945994
 20
314.7108526723489
 30
0.0
 10
85.6115233153454
 20
314.2693827495679
 30
0.0
  0
SPLINE
  5
71
330
5E
100
AcDbEntity
  8
40367000_HALT_PA
  6
Continuous
 62
     7
100
AcDbSpline
210
0.0
220
0.0
230
1.0
 70
     8
 71
     3
 72
     8
 73
     4
 74
     0
 42
0.0000000003829305
 43
0.0000000001
 40
0.7857394935056681
 40
0.7857394935056681
 40
0.7857394935056681
 40
0.7857394935056681
 40
1.0
 40
1.0
 40
1.0
 40
1.0
 10
100.9313932545021
 20
313.7780050359382
 30
0.0
 10
102.4501608575783
 20
314.9563896910909
 30
0.0
 10
103.5767158461214
 20
316.4934310053519
 30
0.0
 10
104.1301789051731
 20
318.1718323960715
 30
0.0
  0
LINE
  5
72
330
5E
100
AcDbEntity
  8
40367000_HALT_PA
  6
Continuous
 62
     7
100
AcDbLine
 10
151.0209485668
 20
319.7863716321
 30
0.0
 11
150.9850812818
 21
317.4519339242
 31
0.0
  0
LINE
  5
73
330
5E
100
AcDbEntity
  8
40367000_HALT_PA
  6
Continuous
 62
     7
100
AcDbLine
 10
149.6183708563
 20
228.4989967115
 30
0.0
 11
149.5755368754
 21
225.7111286034
 31
0.0
  0
LINE
  5
74
330
5E
100
AcDbEntity
  8
40367000_HALT_PA
  6
Continuous
 62
     7
100
AcDbLine
 10
149.5755368754
 20
225.7111286034
 30
0.0
 11
149.5746574421
 21
225.653890306
 31
0.0
  0
LINE
  5
75
330
5E
100
AcDbEntity
  8
40367000_HALT_PA
  6
Continuous
 62
     7
100
AcDbLine
 10
134.522895762
 20
320.0398546702
 30
0.0
 11
151.0209485668
 21
319.7863716321
 31
0.0
  0
ELLIPSE
  5
76
330
5E
100
AcDbEntity
  8
40367000_HALT_PA
  6
Continuous
 62
     7
100
AcDbEllipse
 10
134.6256387645
 20
326.7269272793
 30
0.0
 11
-7.999055905349523
 21
0.1229008669368613
 31
0.0
210
0.0
220
0.0
230
0.9999999999999999
 40
0.835982732
 41
0.7444182128449213
 42
1.570796326794878
  0
LINE
  5
77
330
5E
100
AcDbEntity
  8
40367000_HALT_PA
  6
Continuous
 62
     7
100
AcDbLine
 10
104.526436117
 20
320.5007329212
 30
0.0
 11
104.5595662114
 21
322.6570193988
 31
0.0
  0
ELLIPSE
  5
78
330
5E
100
AcDbEntity
  8
40367000_HALT_PA
  6
Continuous
 62
     7
100
AcDbEllipse
 10
93.5277342471
 20
320.6697216132
 30
0.0
 11
-10.99870186988004
 21
0.1689886920477398
 31
0.0
210
0.0
220
0.0
230
0.9999999999999999
 40
0.835982732
 41
2.884893961692291
 42
3.141592653589795
  0
LINE
  5
79
330
5E
100
AcDbEntity
  8
40367000_HALT_PA
  6
Continuous
 62
     7
100
AcDbLine
 10
149.5755368754
 20
225.7111286034
 30
0.0
 11
34.589108236
 21
227.4778285656
 31
0.0
  0
ARC
  5
7A
330
5E
100
AcDbEntity
  8
40367000_HALT_PA
  6
Continuous
 62
     7
100
AcDbCircle
 10
133.7549049636
 20
327.7822407272
 30
0.0
 40
7.485316547871534
100
AcDbArc
 50
197.2629313573
 51
227.2395336832
  0
LINE
  5
7B
330
5E
100
AcDbEntity
  8
40367000_HALT_PA
  6
Continuous
 62
     7
100
AcDbLine
 10
126.6067795283
 20
325.5609198179
 30
0.0
 11
126.6089621164
 21
325.7029745078
 31
0.0
  0
LINE
  5
7C
330
5E
100
AcDbEntity
  8
40367000_HALT_PA
  6
Continuous
 62
     7
100
AcDbLine
 10
104.6115583767
 20
326.0409518919
 30
0.0
 11
104.5595662114
 21
322.6570193988
 31
0.0
  0
LINE
  5
7D
330
5E
100
AcDbEntity
  8
40367000_HALT_PA
  6
Continuous
 62
     7
100
AcDbLine
 10
149.5746574421
 20
225.653890306
 30
0.0
 11
34.5882288027
 21
227.4205902683
 31
0.0
  0
LINE
  5
7E
330
5E
100
AcDbEntity
  8
40367000_HALT_PA
  6
Continuous
 62
     7
100
AcDbLine
 10
82.614154637
 20
326.378929276
 30
0.0
 11
60.6167508973
 21
326.7169066601
 31
0.0
  0
LINE
  5
7F
330
5E
100
AcDbEntity
  8
40367000_HALT_PA
  6
Continuous
 62
     7
100
AcDbLine
 10
126.6089621164
 20
325.7029745078
 30
0.0
 11
104.6115583767
 21
326.0409518919
 31
0.0
  0
ELLIPSE
  5
80
330
5E
100
AcDbEntity
  8
40367000_HALT_PA
  6
Continuous
 62
     7
100
AcDbEllipse
 10
51.2889372768
 20
297.3785889056
 30
0.0
 11
-17.99787578703494
 21
0.2765269507468242
 31
0.0
210
0.0
220
0.0
230
0.9999999999999999
 40
0.999007047
 41
5.763549363093818
 42
6.10865238198783
  0
ELLIPSE
  5
81
330
5E
100
AcDbEntity
  8
40367000_HALT_PA
  6
Continuous
 62
     7
100
AcDbEllipse
 10
51.2889372768
 20
297.3785889056
 30
0.0
 11
-25.99693169238343
 21
0.3994278177894099
 31
0.0
210
0.0
220
0.0
230
0.9999999999999999
 40
0.999007047
 41
5.756646824505462
 42
6.108652381989512
  0
LINE
  5
82
330
5E
100
AcDbEntity
  8
40367000_HALT_PA
  6
Continuous
 62
     7
100
AcDbLine
 10
33.612460385
 20
300.7731098483
 30
0.0
 11
25.1797052384
 21
256.9411762095
 31
0.0
  0
LINE
  5
83
330
5E
100
AcDbEntity
  8
40367000_HALT_PA
  6
Continuous
 62
     7
100
AcDbLine
 10
25.7562484331
 20
302.2817858229
 30
0.0
 11
17.3234932865
 21
258.449852184
 31
0.0
  0
ELLIPSE
  5
84
330
5E
100
AcDbEntity
  8
40367000_HALT_PA
  6
Continuous
 62
     7
100
AcDbEllipse
 10
42.8561821302
 20
253.5466552667
 30
0.0
 11
17.99787578703441
 21
-0.2765269508121226
 31
0.0
210
0.0
220
0.0
230
1.0
 40
0.999007047
 41
2.967059728401656
 42
3.7063156413882
  0
ELLIPSE
  5
85
330
5E
100
AcDbEntity
  8
40367000_HALT_PA
  6
Continuous
 62
     7
100
AcDbEllipse
 10
42.8561821302
 20
253.5466552667
 30
0.0
 11
25.99693169238879
 21
-0.3994278172246429
 31
0.0
210
0.0
220
0.0
230
0.9999999999999998
 40
0.999007047
 41
2.96705972837803
 42
3.708651056599922
  0
ELLIPSE
  5
86
330
5E
100
AcDbEntity
  8
40367000_HALT_PA
  6
Continuous
 62
     7
100
AcDbEllipse
 10
180.9397111154
 20
265.4486236673
 30
0.0
 11
-3.112627748595234
 21
2.512279542303243
 31
0.0
210
0.0
220
0.0
230
1.0
 40
0.0351078035
 41
3.141592653589565
 42
3.169042242495385
  0
ELLIPSE
  5
87
330
5E
100
AcDbEntity
  8
40367000_HALT_PA
  6
Continuous
 62
     7
100
AcDbEllipse
 10
180.9397111154
 20
265.4486236673
 30
0.0
 11
3.112627748595249
 21
-2.512279542303251
 31
0.0
210
0.0
220
0.0
230
1.0
 40
0.0351078035
 41
0.0274495889057295
 42
3.141592653589793
  0
LINE
  5
88
330
5E
100
AcDbEntity
  8
40367000_HALT_PA
  6
Continuous
 62
     7
100
AcDbLine
 10
85.0683108002
 20
314.8398652899
 30
0.0
 11
85.3135197616
 21
314.8360977961
 31
0.0
  0
LINE
  5
89
330
5E
100
AcDbEntity
  8
40367000_HALT_PA
  6
Continuous
 62
     7
100
AcDbLine
 10
85.4364206285
 20
322.8351537014
 30
0.0
 11
82.5603855077
 21
322.8793423174
 31
0.0
  0
LINE
  5
8A
330
5E
100
AcDbEntity
  8
40367000_HALT_PA
  6
Continuous
 62
     7
100
AcDbLine
 10
58.3165674739
 20
323.2518345577
 30
0.0
 11
51.6880294986
 21
323.3536782094
 31
0.0
  0
ARC
  5
8B
330
5E
100
AcDbEntity
  8
40367000_HALT_PA
  6
Continuous
 62
     7
100
AcDbCircle
 10
51.2842715001
 20
297.3756431021
 30
0.0
 40
25.98117257850964
100
AcDbArc
 50
89.1095644187
 51
111.9380419084
  0
ARC
  5
8C
330
5E
100
AcDbEntity
  8
40367000_HALT_PA
  6
Continuous
 62
     7
100
AcDbCircle
 10
51.2842715001
 20
297.3756431021
 30
0.0
 40
25.98117257850964
100
AcDbArc
 50
126.0840883053
 51
148.9574748781
  0
ARC
  5
8D
330
5E
100
AcDbEntity
  8
40367000_HALT_PA
  6
Continuous
 62
     7
100
AcDbCircle
 10
42.8508923379
 20
253.5519990681
 30
0.0
 40
25.98341749429199
100
AcDbArc
 50
211.6076808274
 51
251.5047400342
  0
ARC
  5
8E
330
5E
100
AcDbEntity
  8
40367000_HALT_PA
  6
Continuous
 62
     7
100
AcDbCircle
 10
42.8531183548
 20
253.5719469302
 30
0.0
 40
18.00339697556635
100
AcDbArc
 50
211.5133582033
 51
243.2234928904
  0
ARC
  5
8F
330
5E
100
AcDbEntity
  8
40367000_HALT_PA
  6
Continuous
 62
     7
100
AcDbCircle
 10
141.8476588911
 20
252.0554760644
 30
0.0
 40
26.00791923750365
100
AcDbArc
 50
287.3414243733
 51
321.0835162733
  0
ARC
  5
90
330
5E
100
AcDbEntity
  8
40367000_HALT_PA
  6
Continuous
 62
     7
100
AcDbCircle
 10
141.8476521543
 20
252.0554906329
 30
0.0
 40
18.00793376211438
100
AcDbArc
 50
295.9728282398
 51
321.0796649561
  0
LINE
  5
91
330
5E
100
AcDbEntity
  8
40367000_HALT_PA
  6
Continuous
 62
     7
100
AcDbLine
 10
162.0834443643
 20
235.7176411604
 30
0.0
 11
184.052338864
 21
262.936344125
 31
0.0
  0
LINE
  5
92
330
5E
100
AcDbEntity
  8
40367000_HALT_PA
  6
Continuous
 62
     7
100
AcDbLine
 10
177.8270833669
 20
267.9609032096
 30
0.0
 11
155.8581888671
 21
240.742200245
 31
0.0
  0
CIRCLE
  5
93
330
5E
100
AcDbEntity
  8
40367000_HALT_PA
  6
Continuous
 62
     7
100
AcDbCircle
 10
93.4362765015
 20
318.7117684404
 30
0.0
 40
9.0
  0
LINE
  5
94
330
5E
100
AcDbEntity
  8
40367000_HALT_PA
  6
Continuous
 62
     7
100
AcDbLine
 10
101.0040366137
 20
323.5960843126
 30
0.0
 11
100.9955211972
 21
323.5962151471
 31
0.0
  0
LINE
  5
95
330
5E
100
AcDbEntity
  8
40367000_HALT_PA
  6
Continuous
 62
     7
100
AcDbLine
 10
86.0306578895
 20
323.8261416154
 30
0.0
 11
86.0221424731
 21
323.8262724498
 31
0.0
  0
ENDBLK
  5
97
330
5E
100
AcDbEntity
  8
0
100
AcDbBlockEnd
  0
BLOCK
  5
100
330
98
100
AcDbEntity
  8
0
100
AcDbBlockBegin
  2
SE1
 70
     0
 10
0.0
 20
0.0
 30
0.0
  3
SE1
  1

  0
LINE
  5
9A
330
98
100
AcDbEntity
  8
40367000_HALT_PA
  6
Continuous
 62
     7
100
AcDbLine
 10
66.4362765015
 20
173.2458053375
 30
0.0
 11
120.4362765015
 21
173.2458053375
 31
0.0
  0
LINE
  5
9B
330
98
100
AcDbEntity
  8
40367000_HALT_PA
  6
Continuous
 62
     7
100
AcDbLine
 10
66.4362765015
 20
183.2458053375
 30
0.0
 11
120.4362765015
 21
183.2458053375
 31
0.0
  0
LINE
  5
9C
330
98
100
AcDbEntity
  8
40367000_HALT_PA
  6
Continuous
 62
     7
100
AcDbLine
 10
120.4362765015
 20
173.2458053375
 30
0.0
 11
120.4362765015
 21
183.2458053375
 31
0.0
  0
LINE
  5
9D
330
98
100
AcDbEntity
  8
40367000_HALT_PA
  6
Continuous
 62
     7
100
AcDbLine
 10
66.4362765015
 20
183.2458053375
 30
0.0
 11
66.4362765015
 21
173.2458053375
 31
0.0
  0
ELLIPSE
  5
9E
330
98
100
AcDbEntity
  8
40367000_HALT_PA
  6
Continuous
 62
     7
100
AcDbEllipse
 10
128.6174921542
 20
153.2458053375
 30
0.0
 11
0.0
 21
-4.000000000000004
 31
0.0
210
0.0
220
0.0
230
1.0
 40
0.0153626084
 41
1.615363520898183
 42
3.141592653589793
  0
ELLIPSE
  5
9F
330
98
100
AcDbEntity
  8
40367000_HALT_PA
  6
Continuous
 62
     7
100
AcDbEllipse
 10
128.6174921542
 20
153.2458053375
 30
0.0
 11
0.0
 21
4.0
 31
0.0
210
0.0
220
0.0
230
1.0
 40
1.0
 41
3.141592653589793
 42
5.951437950349933
  0
LINE
  5
A0
330
98
100
AcDbEntity
  8
40367000_HALT_PA
  6
Continuous
 62
     7
100
AcDbLine
 10
101.9681523011
 20
149.2458053375
 30
0.0
 11
104.5750487597
 21
149.2458053375
 31
0.0
  0
LINE
  5
A1
330
98
100
AcDbEntity
  8
40367000_HALT_PA
  6
Continuous
 62
     7
100
AcDbLine
 10
127.2450781002
 20
149.2458053375
 30
0.0
 11
128.6174921542
 21
149.2458053375
 31
0.0
  0
LINE
  5
A2
330
98
100
AcDbEntity
  8
40367000_HALT_PA
  6
Continuous
 62
     7
100
AcDbLine
 10
128.6174921542
 20
157.2458053375
 30
0.0
 11
126.5912073774
 21
157.2458053375
 31
0.0
  0
LINE
  5
A3
330
98
100
AcDbEntity
  8
40367000_HALT_PA
  6
Continuous
 62
     7
100
AcDbLine
 10
104.5750487597
 20
157.2458053375
 30
0.0
 11
101.966733654
 21
157.2458053375
 31
0.0
  0
ELLIPSE
  5
A4
330
98
100
AcDbEntity
  8
40367000_HALT_PA
  6
Continuous
 62
     7
100
AcDbEllipse
 10
82.4989350742
 20
153.2458053375
 30
0.0
 11
-3.469446951953614E-15
 21
-7.5000000000001
 31
0.0
210
0.0
220
0.0
230
1.0
 40
0.0153626084
 41
0.580875140000231
 42
3.141592653589793
  0
ELLIPSE
  5
A5
330
98
100
AcDbEntity
  8
40367000_HALT_PA
  6
Continuous
 62
     7
100
AcDbEllipse
 10
60.5015313345
 20
153.2458053375
 30
0.0
 11
0.0
 21
-7.499999999999993
 31
0.0
210
0.0
220
0.0
230
1.0
 40
0.0153626084
 41
1.375845204255682
 42
4.149852735840833
  0
ARC
  5
A6
330
98
100
AcDbEntity
  8
40367000_HALT_PA
  6
Continuous
 62
     7
100
AcDbCircle
 10
55.1778720944
 20
151.341902822
 30
0.0
 40
5.455371534749812
100
AcDbArc
 50
306.8406422795
 51
4.7422392513
  0
LINE
  5
A7
330
98
100
AcDbEntity
  8
40367000_HALT_PA
  6
Continuous
 62
     7
100
AcDbLine
 10
82.5621624717
 20
146.9759348475
 30
0.0
 11
82.5290323772
 21
145.560338314
 31
0.0
  0
ELLIPSE
  5
A8
330
98
100
AcDbEntity
  8
40367000_HALT_PA
  6
Continuous
 62
     7
100
AcDbEllipse
 10
60.5015313345
 20
153.2458053375
 30
0.0
 11
6.938893903907228E-15
 21
-6.499999999999968
 31
0.0
210
0.0
220
0.0
230
1.0
 40
0.0153626084
 41
1.375845204255665
 42
4.04951515673455
  0
ARC
  5
A9
330
98
100
AcDbEntity
  8
40367000_HALT_PA
  6
Continuous
 62
     7
100
AcDbCircle
 10
56.0478928537
 20
151.6949469821
 30
0.0
 40
4.560940618036272
100
AcDbArc
 50
301.6394534531
 51
3.6667611095
  0
LINE
  5
AA
330
98
100
AcDbEntity
  8
40367000_HALT_PA
  6
Continuous
 62
     7
100
AcDbLine
 10
58.4404358481
 20
147.8119175795
 30
0.0
 11
58.4488661678
 21
146.9759348475
 31
0.0
  0
ELLIPSE
  5
AB
330
98
100
AcDbEntity
  8
40367000_HALT_PA
  6
Continuous
 62
     7
100
AcDbEllipse
 10
93.5277342471
 20
145.560338314
 30
0.0
 11
10.99944072806395
 21
0.1109219100379893
 31
0.0
210
0.0
220
0.0
230
0.9999999999999998
 40
0.5486909891
 41
3.123215848224938
 42
3.379914540123251
  0
ELLIPSE
  5
AC
330
98
100
AcDbEntity
  8
40367000_HALT_PA
  6
Continuous
 62
     7
100
AcDbEllipse
 10
52.6353157347
 20
149.9503843041
 30
0.0
 11
-7.999593256763269
 21
-0.08067048002675936
 31
0.0
210
0.0
220
0.0
230
1.0
 40
0.5486909891
 41
1.552419521430082
 42
2.378797635380038
  0
LINE
  5
AD
330
98
100
AcDbEntity
  8
40367000_HALT_PA
  6
Continuous
 62
     7
100
AcDbLine
 10
36.0345199274
 20
145.560338314
 30
0.0
 11
52.5325727322
 21
145.560338314
 31
0.0
  0
LINE
  5
AE
330
98
100
AcDbEntity
  8
40367000_HALT_PA
  6
Continuous
 62
     7
100
AcDbLine
 10
35.9986526424
 20
144.0277859555
 30
0.0
 11
36.0345199274
 21
145.560338314
 31
0.0
  0
ELLIPSE
  5
AF
330
98
100
AcDbEntity
  8
40367000_HALT_PA
  6
Continuous
 62
     7
100
AcDbEllipse
 10
52.626885415
 20
150.7863670361
 30
0.0
 11
-7.999593256763276
 21
-0.08067048002673854
 31
0.0
210
0.0
220
0.0
230
1.0
 40
0.5486909891
 41
1.552419521430082
 42
2.378797635380043
  0
ELLIPSE
  5
B0
330
98
100
AcDbEntity
  8
40367000_HALT_PA
  6
Continuous
 62
     7
100
AcDbEllipse
 10
93.5193039275
 20
146.396321046
 30
0.0
 11
10.99944072805972
 21
0.110921910037573
 31
0.0
210
0.0
220
0.0
230
1.0
 40
0.5486909891
 41
3.194579880768065
 42
3.379914540123309
  0
LINE
  5
B1
330
98
100
AcDbEntity
  8
40367000_HALT_PA
  6
Continuous
 62
     7
100
AcDbLine
 10
36.0260896077
 20
146.396321046
 30
0.0
 11
52.5241424125
 21
146.396321046
 31
0.0
  0
LINE
  5
B2
330
98
100
AcDbEntity
  8
40367000_HALT_PA
  6
Continuous
 62
     7
100
AcDbLine
 10
36.0345199274
 20
145.560338314
 30
0.0
 11
36.0260896077
 21
146.396321046
 31
0.0
  0
LINE
  5
B3
330
98
100
AcDbEntity
  8
40367000_HALT_PA
  6
Continuous
 62
     7
100
AcDbLine
 10
35.9902223227
 20
144.8637686875
 30
0.0
 11
36.0260896077
 21
146.396321046
 31
0.0
  0
ELLIPSE
  5
B4
330
98
100
AcDbEntity
  8
40367000_HALT_PA
  6
Continuous
 62
     7
100
AcDbEllipse
 10
34.4727647844
 20
295.340660447
 30
0.0
 11
-4.163336342344336E-14
 21
-179.9999999999893
 31
0.0
210
0.0
220
0.0
230
1.0
 40
0.0153626084
 41
0.0572763644018612
 42
0.5808751400001767
  0
LINE
  5
B5
330
98
100
AcDbEntity
  8
40367000_HALT_PA
  6
Continuous
 62
     7
100
AcDbLine
 10
34.5882288027
 20
115.4759594527
 30
0.0
 11
34.6310627835
 21
115.635832112
 31
0.0
  0
LINE
  5
B6
330
98
100
AcDbEntity
  8
40367000_HALT_PA
  6
Continuous
 62
     7
100
AcDbLine
 10
34.589108236
 20
114.4775992953
 30
0.0
 11
34.5882288027
 21
115.4759594527
 31
0.0
  0
LINE
  5
B7
330
98
100
AcDbEntity
  8
40367000_HALT_PA
  6
Continuous
 62
     7
100
AcDbLine
 10
34.589108236
 20
114.4775992953
 30
0.0
 11
34.6319422169
 21
114.6374719546
 31
0.0
  0
ELLIPSE
  5
B8
330
98
100
AcDbEntity
  8
40367000_HALT_PA
  6
Continuous
 62
     7
100
AcDbEllipse
 10
34.4727647844
 20
295.340660447
 30
0.0
 11
-1.526556658859590E-13
 21
-180.9999999999881
 31
0.0
210
0.0
220
0.0
230
1.0
 40
0.0153626084
 41
0.0572763644018651
 42
0.5808751400001801
  0
ELLIPSE
  5
B9
330
98
100
AcDbEntity
  8
40367000_HALT_PA
  6
Continuous
 62
     7
100
AcDbEllipse
 10
149.4591934238
 20
295.3406604471
 30
0.0
 11
6.245004513516506E-14
 21
-180.9999999999929
 31
0.0
210
0.0
220
0.0
230
1.0
 40
0.0153626084
 41
0.0572763644018612
 42
0.5808751400001732
  0
SPLINE
  5
BA
330
98
100
AcDbEntity
  8
40367000_HALT_PA
  6
Continuous
 62
     7
100
AcDbSpline
210
0.0
220
0.0
230
1.0
 70
     8
 71
     3
 72
    10
 73
     6
 74
     0
 42
0.0000000005336039
 43
0.0000000001
 40
0.0
 40
0.0
 40
0.0
 40
0.0
 40
0.125
 40
0.125
 40
0.1335937028729631
 40
0.1335937028729631
 40
0.1335937028729631
 40
0.1335937028729631
 10
82.8535550189817
 20
144.0277859555179
 30
0.0
 10
83.14635567321254
 20
143.3815335028454
 30
0.0
 10
83.63574351756243
 20
142.775416775528
 30
0.0
 10
84.32915933736209
 20
142.2046057390356
 30
0.0
 10
84.37460457017285
 20
142.1681668021427
 30
0.0
 10
84.42086859255606
 20
142.1320182904662
 30
0.0
  0
SPLINE
  5
BB
330
98
100
AcDbEntity
  8
40367000_HALT_PA
  6
Continuous
 62
     7
100
AcDbSpline
210
0.0
220
0.0
230
1.0
 70
     8
 71
     3
 72
     8
 73
     4
 74
     0
 42
0.0000000005206572
 43
0.0000000001
 40
0.8650211779034462
 40
0.8650211779034462
 40
0.8650211779034462
 40
0.8650211779034462
 40
1.0
 40
1.0
 40
1.0
 40
1.0
 10
102.4470707717808
 20
142.1168621745173
 30
0.0
 10
103.2054004810813
 20
142.6843877611463
 30
0.0
 10
103.7815108608047
 20
143.3302852338516
 30
0.0
 10
104.1301789051731
 20
144.0277859555179
 30
0.0
  0
SPLINE
  5
BC
330
98
100
AcDbEntity
  8
40367000_HALT_PA
  6
Continuous
 62
     7
100
AcDbSpline
210
0.0
220
0.0
230
1.0
 70
     8
 71
     3
 72
    10
 73
     6
 74
     0
 42
0.0000000005337997
 43
0.0000000001
 40
0.0
 40
0.0
 40
0.0
 40
0.0
 40
0.1249999999999999
 40
0.1249999999999999
 40
0.1337897423606529
 40
0.1337897423606529
 40
0.1337897423606529
 40
0.1337897423606529
 10
82.84512469932423
 20
144.8637686875154
 30
0.0
 10
83.13889782597799
 20
144.2191361346888
 30
0.0
 10
83.63031583061279
 20
143.6150128007633
 30
0.0
 10
84.3269008799703
 20
143.0458791929413
 30
0.0
 10
84.37354231928332
 20
143.0087833451307
 30
0.0
 10
84.42103817906352
 20
142.9719939034268
 30
0.0
  0
SPLINE
  5
BD
330
98
100
AcDbEntity
  8
40367000_HALT_PA
  6
Continuous
 62
     7
100
AcDbSpline
210
0.0
220
0.0
230
1.0
 70
     8
 71
     3
 72
     8
 73
     4
 74
     0
 42
0.0000000005214776
 43
0.0000000001
 40
0.8658070098747535
 40
0.8658070098747535
 40
0.8658070098747535
 40
0.8658070098747535
 40
1.0
 40
1.0
 40
1.0
 40
1.0
 10
102.4475967702654
 20
142.9698063378677
 30
0.0
 10
103.2009955908096
 20
143.5321699741298
 30
0.0
 10
103.7741522183974
 20
144.1720746601733
 30
0.0
 10
104.1217485855156
 20
144.8637686875154
 30
0.0
  0
LINE
  5
BE
330
98
100
AcDbEntity
  8
40367000_HALT_PA
  6
Continuous
 62
     7
100
AcDbLine
 10
151.0209485668
 20
145.560338314
 30
0.0
 11
151.0125182471
 21
146.396321046
 31
0.0
  0
LINE
  5
BF
330
98
100
AcDbEntity
  8
40367000_HALT_PA
  6
Continuous
 62
     7
100
AcDbLine
 10
151.0209485668
 20
145.560338314
 30
0.0
 11
150.9850812818
 21
144.0277859555
 31
0.0
  0
LINE
  5
C0
330
98
100
AcDbEntity
  8
40367000_HALT_PA
  6
Continuous
 62
     7
100
AcDbLine
 10
149.6183708563
 20
114.6374719546
 30
0.0
 11
149.5755368754
 21
114.4775992953
 31
0.0
  0
LINE
  5
C1
330
98
100
AcDbEntity
  8
40367000_HALT_PA
  6
Continuous
 62
     7
100
AcDbLine
 10
134.522895762
 20
145.560338314
 30
0.0
 11
151.0209485668
 21
145.560338314
 31
0.0
  0
ELLIPSE
  5
C2
330
98
100
AcDbEntity
  8
40367000_HALT_PA
  6
Continuous
 62
     7
100
AcDbEllipse
 10
134.6256387645
 20
149.9503843041
 30
0.0
 11
-7.999593256763311
 21
-0.08067048002678712
 31
0.0
210
0.0
220
0.0
230
1.0
 40
0.5486909891
 41
0.7260414074801157
 42
1.552419521430073
  0
LINE
  5
C3
330
98
100
AcDbEntity
  8
40367000_HALT_PA
  6
Continuous
 62
     7
100
AcDbLine
 10
104.526436117
 20
145.560338314
 30
0.0
 11
104.5595662114
 21
146.9759348475
 31
0.0
  0
ELLIPSE
  5
C4
330
98
100
AcDbEntity
  8
40367000_HALT_PA
  6
Continuous
 62
     7
100
AcDbEllipse
 10
93.5277342471
 20
145.560338314
 30
0.0
 11
10.99944072807416
 21
0.1109219100343534
 31
0.0
210
0.0
220
0.0
230
1.0
 40
0.5486909891
 41
6.00810980991674
 42
6.264808501815051
  0
LINE
  5
C5
330
98
100
AcDbEntity
  8
40367000_HALT_PA
  6
Continuous
 62
     7
100
AcDbLine
 10
149.5755368754
 20
114.4775992953
 30
0.0
 11
34.589108236
 21
114.4775992953
 31
0.0
  0
ELLIPSE
  5
C6
330
98
100
AcDbEntity
  8
40367000_HALT_PA
  6
Continuous
 62
     7
100
AcDbEllipse
 10
93.5193039274
 20
146.396321046
 30
0.0
 11
10.9994407280756
 21
0.1109219100341938
 31
0.0
210
0.0
220
0.0
230
1.0
 40
0.5486909891
 41
6.00810980991676
 42
6.264808501814942
  0
LINE
  5
C7
330
98
100
AcDbEntity
  8
40367000_HALT_PA
  6
Continuous
 62
     7
100
AcDbLine
 10
134.5144654424
 20
146.396321046
 30
0.0
 11
151.0125182471
 21
146.396321046
 31
0.0
  0
ELLIPSE
  5
C8
330
98
100
AcDbEntity
  8
40367000_HALT_PA
  6
Continuous
 62
     7
100
AcDbEllipse
 10
134.6172084449
 20
150.7863670361
 30
0.0
 11
-7.999593256763263
 21
-0.08067048002675242
 31
0.0
210
0.0
220
0.0
230
1.0
 40
0.5486909891
 41
0.7260414074801055
 42
1.552419521430075
  0
LINE
  5
C9
330
98
100
AcDbEntity
  8
40367000_HALT_PA
  6
Continuous
 62
     7
100
AcDbLine
 10
128.6644321957
 20
147.8119175795
 30
0.0
 11
128.6728625153
 21
146.9759348475
 31
0.0
  0
SPLINE
  5
CA
330
98
100
AcDbEntity
  8
40367000_HALT_PA
  6
Continuous
 62
     7
100
AcDbSpline
210
0.0
220
0.0
230
1.0
 70
     8
 71
     3
 72
    18
 73
    14
 74
     0
 42
0.0000000018273494
 43
0.0000000001
 40
0.0
 40
0.0
 40
0.0
 40
0.0
 40
0.2500000000000019
 40
0.2500000000000019
 40
0.3750000000000028
 40
0.3750000000000028
 40
0.5000000000000037
 40
0.5000000000000037
 40
0.7500000000000018
 40
0.7500000000000018
 40
0.8750000000000009
 40
0.8750000000000009
 40
1.0
 40
1.0
 40
1.0
 40
1.0
 10
126.6067795282812
 20
151.7929159604121
 30
0.0
 10
126.6051642669833
 20
151.2604389702026
 30
0.0
 10
126.6472791416172
 20
150.7514725721085
 30
0.0
 10
126.7764628002885
 20
150.021412513528
 30
0.0
 10
126.8312230931399
 20
149.782589307418
 30
0.0
 10
126.961263788553
 20
149.3290676541708
 30
0.0
 10
127.0366929792927
 20
149.1128208441311
 30
0.0
 10
127.2957569342711
 20
148.4940914804166
 30
0.0
 10
127.5147477342298
 20
148.1192683905393
 30
0.0
 10
127.9013806571207
 20
147.6379063983302
 30
0.0
 10
128.0404441194685
 20
147.4897086803112
 30
0.0
 10
128.3402488530321
 20
147.2158776334731
 30
0.0
 10
128.5015607319631
 20
147.089939785131
 30
0.0
 10
128.6728625153108
 20
146.975934847521
 30
0.0
  0
ELLIPSE
  5
CB
330
98
100
AcDbEntity
  8
40367000_HALT_PA
  6
Continuous
 62
     7
100
AcDbEllipse
 10
126.4937425537
 20
153.2458053375
 30
0.0
 11
-6.938893903907228E-15
 21
-7.500000000000097
 31
0.0
210
0.0
220
0.0
230
1.0
 40
0.0153626084
 41
1.375845204255658
 42
3.141592653589793
  0
ELLIPSE
  5
CC
330
98
100
AcDbEntity
  8
40367000_HALT_PA
  6
Continuous
 62
     7
100
AcDbEllipse
 10
104.496338814
 20
153.2458053375
 30
0.0
 11
1.040834085586084E-14
 21
-7.50000000000008
 31
0.0
210
0.0
220
0.0
230
1.0
 40
0.0153626084
 41
0.5808751400001992
 42
4.149852735840841
  0
ELLIPSE
  5
CD
330
98
100
AcDbEntity
  8
40367000_HALT_PA
  6
Continuous
 62
     7
100
AcDbEllipse
 10
104.496338814
 20
153.2458053375
 30
0.0
 11
1.040834085586084E-14
 21
-7.50000000000008
 31
0.0
210
0.0
220
0.0
230
1.0
 40
0.0153626084
 41
-1.008260082251048
 42
-0.2140949242553987
  0
LINE
  5
CE
330
98
100
AcDbEntity
  8
40367000_HALT_PA
  6
Continuous
 62
     7
100
AcDbLine
 10
104.5180057973
 20
146.396321046
 30
0.0
 11
104.5511358917
 21
147.8119175795
 31
0.0
  0
LINE
  5
CF
330
98
100
AcDbEntity
  8
40367000_HALT_PA
  6
Continuous
 62
     7
100
AcDbLine
 10
104.4718589081
 20
145.9170371654
 30
0.0
 11
104.4751228955
 21
146.894206255
 31
0.0
  0
ELLIPSE
  5
D0
330
98
100
AcDbEntity
  8
40367000_HALT_PA
  6
Continuous
 62
     7
100
AcDbEllipse
 10
104.496338814
 20
153.2458053375
 30
0.0
 11
6.938893903907228E-15
 21
-6.500000000000034
 31
0.0
210
0.0
220
0.0
230
1.0
 40
0.0153626084
 41
0.5808751400002027
 42
4.049515156734557
  0
ELLIPSE
  5
D1
330
98
100
AcDbEntity
  8
40367000_HALT_PA
  6
Continuous
 62
     7
100
AcDbEllipse
 10
104.496338814
 20
153.2458053375
 30
0.0
 11
6.938893903907228E-15
 21
-6.500000000000034
 31
0.0
210
0.0
220
0.0
230
1.0
 40
0.0153626084
 41
-0.9079225031447651
 42
-0.2140949242554253
  0
ARC
  5
D2
330
98
100
AcDbEntity
  8
40367000_HALT_PA
  6
Continuous
 62
     7
100
AcDbCircle
 10
131.0852625338
 20
151.6157533174
 30
0.0
 40
4.508834200430222
100
AcDbArc
 50
182.6909721655
 51
237.5265821181
  0
LINE
  5
D3
330
98
100
AcDbEntity
  8
40367000_HALT_PA
  6
Continuous
 62
     7
100
AcDbLine
 10
104.4751228955
 20
146.894206255
 30
0.0
 11
104.5296581174
 21
146.894206255
 31
0.0
  0
LINE
  5
D4
330
98
100
AcDbEntity
  8
40367000_HALT_PA
  6
Continuous
 62
     7
100
AcDbLine
 10
82.4989350742
 20
160.7458053375
 30
0.0
 11
60.5015313345
 21
160.7458053375
 31
0.0
  0
LINE
  5
D5
330
98
100
AcDbEntity
  8
40367000_HALT_PA
  6
Continuous
 62
     7
100
AcDbLine
 10
126.4937425537
 20
160.7458053375
 30
0.0
 11
104.496338814
 21
160.7458053375
 31
0.0
  0
ELLIPSE
  5
D6
330
98
100
AcDbEntity
  8
40367000_HALT_PA
  6
Continuous
 62
     7
100
AcDbEllipse
 10
180.9397111154
 20
150.9306743923
 30
0.0
 11
0.2233804803250667
 21
-3.993757774453801
 31
0.0
210
0.0
220
0.0
230
0.9999999999999999
 40
0.7776772276
 41
1.499876781178019
 42
4.641469434767812
  0
ELLIPSE
  5
D7
330
98
100
AcDbEntity
  8
40367000_HALT_PA
  6
Continuous
 62
     7
100
AcDbEllipse
 10
180.9397111154
 20
150.9306743923
 30
0.0
 11
-0.2233804803250805
 21
3.993757774453804
 31
0.0
210
0.0
220
0.0
230
0.9999999999999999
 40
0.7776772276
 41
1.499876781178017
 42
4.641469434767809
  0
LINE
  5
D8
330
98
100
AcDbEntity
  8
40367000_HALT_PA
  6
Continuous
 62
     7
100
AcDbLine
 10
84.996078872
 20
157.2458053375
 30
0.0
 11
82.596399898
 21
157.2458053375
 31
0.0
  0
LINE
  5
D9
330
98
100
AcDbEntity
  8
40367000_HALT_PA
  6
Continuous
 62
     7
100
AcDbLine
 10
60.5802412803
 20
157.2458053375
 30
0.0
 11
51.6265790652
 21
157.2458053375
 31
0.0
  0
LINE
  5
DA
330
98
100
AcDbEntity
  8
40367000_HALT_PA
  6
Continuous
 62
     7
100
AcDbLine
 10
51.6265790652
 20
149.2458053375
 30
0.0
 11
59.8909743077
 21
149.2458053375
 31
0.0
  0
LINE
  5
DB
330
98
100
AcDbEntity
  8
40367000_HALT_PA
  6
Continuous
 62
     7
100
AcDbLine
 10
82.596399898
 20
149.2458053375
 30
0.0
 11
84.9978303785
 21
149.2458053375
 31
0.0
  0
ARC
  5
DC
330
98
100
AcDbEntity
  8
40367000_HALT_PA
  6
Continuous
 62
     7
100
AcDbCircle
 10
46.8372312536
 20
-9.0908306474
 30
0.0
 40
166.4055717914685
100
AcDbArc
 50
88.3507324173
 51
96.2300930562
  0
ARC
  5
DD
330
98
100
AcDbEntity
  8
40367000_HALT_PA
  6
Continuous
 62
     7
100
AcDbCircle
 10
48.2445745452
 20
-63.728395486
 30
0.0
 40
213.0010520419247
100
AcDbArc
 50
89.0902264269
 51
94.7544198902
  0
LINE
  5
DE
330
98
100
AcDbEntity
  8
40367000_HALT_PA
  6
Continuous
 62
     7
100
AcDbLine
 10
28.7786503838
 20
156.3319669961
 30
0.0
 11
20.3458952373
 21
154.3716595444
 31
0.0
  0
LINE
  5
DF
330
98
100
AcDbEntity
  8
40367000_HALT_PA
  6
Continuous
 62
     7
100
AcDbLine
 10
22.1573032877
 20
146.5794325922
 30
0.0
 11
30.5900584342
 21
148.5397400439
 31
0.0
  0
ARC
  5
E0
330
98
100
AcDbEntity
  8
40367000_HALT_PA
  6
Continuous
 62
     7
100
AcDbCircle
 10
21.0358553059
 20
150.2505577794
 30
0.0
 40
4.178459603034343
100
AcDbArc
 50
99.504383803
 51
179.4884296965
  0
SPLINE
  5
E1
330
98
100
AcDbEntity
  8
40367000_HALT_PA
  6
Continuous
 62
     7
100
AcDbSpline
210
0.0
220
0.0
230
1.0
 70
     8
 71
     3
 72
    48
 73
    44
 74
     0
 42
0.0000000003837863
 43
0.0000000001
 40
0.0
 40
0.0
 40
0.0
 40
0.0
 40
0.0006940287122709
 40
0.0127940623786186
 40
0.0246239639053383
 40
0.0362069884796737
 40
0.0475599790848131
 40
0.0586901554565578
 40
0.069596344627034
 40
0.0802666091393052
 40
0.0906802381665864
 40
0.1008211672710302
 40
0.1107091845229986
 40
0.1204385043254325
 40
0.1301992046794593
 40
0.1401994254025917
 40
0.1507625178747476
 40
0.1623200703055057
 40
0.1754435143217522
 40
0.1909664797109568
 40
0.2102986016366245
 40
0.2364320415654121
 40
0.2783287571514542
 40
0.3098888089185777
 40
0.3395912288608133
 40
0.3709938193387213
 40
0.4011323558672308
 40
0.4305308714910686
 40
0.4594681889898717
 40
0.4880960802809974
 40
0.5165057464351971
 40
0.5447558095412042
 40
0.5728858426016521
 40
0.6009235902210784
 40
0.6288891079096454
 40
0.6567972682317753
 40
0.6846593455625248
 40
0.7124840545918119
 40
0.7402782516237576
 40
0.7680474206035774
 40
0.7957960177671332
 40
0.8235277211868972
 40
0.8258498652582716
 40
0.8258498652582716
 40
0.8258498652582716
 40
0.8258498652582716
 10
16.85756225440066
 20
150.2878650202456
 30
0.0
 10
16.85706530170289
 20
150.2784659892302
 30
0.0
 10
16.8492385239013
 20
150.1291781744295
 30
0.0
 10
16.8790306241101
 20
149.8145073737784
 30
0.0
 10
16.9497979609403
 20
149.3870344840358
 30
0.0
 10
17.068484581056
 20
148.974790731715
 30
0.0
 10
17.22395922384182
 20
148.5882083279188
 30
0.0
 10
17.41290204783935
 20
148.2289352558189
 30
0.0
 10
17.62920193726279
 20
147.9004506263103
 30
0.0
 10
17.86648332882404
 20
147.605218331063
 30
0.0
 10
18.11735533559199
 20
147.3451359060484
 30
0.0
 10
18.37400281177261
 20
147.1208237196896
 30
0.0
 10
18.62919186119488
 20
146.9311111415674
 30
0.0
 10
18.87765706191456
 20
146.7728756351019
 30
0.0
 10
19.11643012591356
 20
146.6418923518447
 30
0.0
 10
19.34533525859997
 20
146.5332704110918
 30
0.0
 10
19.56683429367012
 20
146.4421059223822
 30
0.0
 10
19.78612789776633
 20
146.363798666088
 30
0.0
 10
20.0112161357153
 20
146.2942432339008
 30
0.0
 10
20.25492460025848
 20
146.2294740564244
 30
0.0
 10
20.54201058437723
 20
146.1646044861502
 30
0.0
 10
20.93732420960212
 20
146.0903027629389
 30
0.0
 10
21.39877215151742
 20
146.0215701681556
 30
0.0
 10
21.92008553159465
 20
145.958070668144
 30
0.0
 10
22.42809214709186
 20
145.904965589074
 30
0.0
 10
22.97145115145545
 20
145.8554941645455
 30
0.0
 10
23.5583067048725
 20
145.8085237448191
 30
0.0
 10
24.17256631780995
 20
145.7647974275311
 30
0.0
 10
24.81796060122947
 20
145.7236229330931
 30
0.0
 10
25.49606344748917
 20
145.684650462881
 30
0.0
 10
26.20722494034881
 20
145.6477034478235
 30
0.0
 10
26.95111242661641
 20
145.612695105385
 30
0.0
 10
27.7269595662612
 20
145.5795894167914
 30
0.0
 10
28.53369841065276
 20
145.5483803838916
 30
0.0
 10
29.37003676489333
 20
145.5190801518463
 30
0.0
 10
30.23450729018798
 20
145.4917117648251
 30
0.0
 10
31.12550071598447
 20
145.4663045409064
 30
0.0
 10
32.04128984901358
 20
145.442891000869
 30
0.0
 10
32.98004707109991
 20
145.421504763944
 30
0.0
 10
33.93986065050995
 20
145.4021790596075
 30
0.0
 10
34.9187390444739
 20
145.3849456734456
 30
0.0
 10
35.61065350153255
 20
145.3744468166901
 30
0.0
 10
35.97341738675061
 20
145.3694074368015
 30
0.0
 10
36.00146451449191
 20
145.3690205700059
 30
0.0
  0
LINE
  5
E2
330
98
100
AcDbEntity
  8
40367000_HALT_PA
  6
Continuous
 62
     7
100
AcDbLine
 10
141.5068571705
 20
153.3251904342
 30
0.0
 11
128.6789304845
 21
153.3251904342
 31
0.0
  0
LINE
  5
E3
330
98
100
AcDbEntity
  8
40367000_HALT_PA
  6
Continuous
 62
     7
100
AcDbLine
 10
82.6700807949
 20
145.3251904342
 30
0.0
 11
84.4362765015
 21
145.3251904342
 31
0.0
  0
LINE
  5
E4
330
98
100
AcDbEntity
  8
40367000_HALT_PA
  6
Continuous
 62
     7
100
AcDbLine
 10
102.4362765015
 20
145.3251904342
 30
0.0
 11
104.3183903756
 21
145.3251904342
 31
0.0
  0
ARC
  5
E5
330
98
100
AcDbEntity
  8
40367000_HALT_PA
  6
Continuous
 62
     7
100
AcDbCircle
 10
142.7913662282
 20
494.8972461671
 30
0.0
 40
341.5744709739831
100
AcDbArc
 50
269.7845356504
 51
272.677449159
  0
ARC
  5
E6
330
98
100
AcDbEntity
  8
40367000_HALT_PA
  6
Continuous
 62
     7
100
AcDbCircle
 10
142.8152463049
 20
493.5464557317
 30
0.0
 40
348.22372332669
100
AcDbArc
 50
271.3500355608
 51
272.6959424777
  0
LINE
  5
E7
330
98
100
AcDbEntity
  8
40367000_HALT_PA
  6
Continuous
 62
     7
100
AcDbLine
 10
180.7163306351
 20
154.9244321667
 30
0.0
 11
158.7474361353
 21
153.6956590456
 31
0.0
  0
LINE
  5
E8
330
98
100
AcDbEntity
  8
40367000_HALT_PA
  6
Continuous
 62
     7
100
AcDbLine
 10
159.194197096
 20
145.7081434967
 30
0.0
 11
181.1630915958
 21
146.9369166178
 31
0.0
  0
ARC
  5
E9
330
98
100
AcDbEntity
  8
40367000_HALT_PA
  6
Continuous
 62
     7
100
AcDbCircle
 10
71.4957785004
 20
151.4047945765
 30
0.0
 40
14.63797332251009
100
AcDbArc
 50
23.5380275491
 51
27.7347434562
  0
ARC
  5
EA
330
98
100
AcDbEntity
  8
40367000_HALT_PA
  6
Continuous
 62
     7
100
AcDbCircle
 10
71.4957785004
 20
151.4047945765
 30
0.0
 40
14.63797332251009
100
AcDbArc
 50
27.8565321571
 51
27.8612834781
  0
ARC
  5
EB
330
98
100
AcDbEntity
  8
40367000_HALT_PA
  6
Continuous
 62
     7
100
AcDbCircle
 10
74.893461939
 20
152.2405770143
 30
0.0
 40
11.27600767502042
100
AcDbArc
 50
15.4570103387
 51
32.1790537698
  0
LINE
  5
EC
330
98
100
AcDbEntity
  8
40367000_HALT_PA
  6
Continuous
 62
     7
100
AcDbLine
 10
101.251729394
 20
155.2458053375
 30
0.0
 11
85.7616242406
 21
155.2458053375
 31
0.0
  0
ARC
  5
ED
330
98
100
AcDbEntity
  8
40367000_HALT_PA
  6
Continuous
 62
     7
100
AcDbCircle
 10
115.3767969687
 20
151.4048771944
 30
0.0
 40
14.63797332251056
100
AcDbArc
 50
152.1437948716
 51
164.787791074
  0
ARC
  5
EE
330
98
100
AcDbEntity
  8
40367000_HALT_PA
  6
Continuous
 62
     7
100
AcDbCircle
 10
107.2602450207
 20
153.0789569501
 30
0.0
 40
7.516026371586459
100
AcDbArc
 50
163.2439684267
 51
171.0688177721
  0
ARC
  5
EF
330
98
100
AcDbEntity
  8
40367000_HALT_PA
  6
Continuous
 62
     7
100
AcDbCircle
 10
108.7250614186
 20
153.2458053375
 30
0.0
 40
7.729540213714724
100
AcDbArc
 50
172.5665918
 51
187.4334082
  0
ARC
  5
F0
330
98
100
AcDbEntity
  8
40367000_HALT_PA
  6
Continuous
 62
     7
100
AcDbCircle
 10
107.2602450207
 20
153.4126537249
 30
0.0
 40
7.516026371586204
100
AcDbArc
 50
188.9311822279
 51
196.7560315733
  0
ARC
  5
F1
330
98
100
AcDbEntity
  8
40367000_HALT_PA
  6
Continuous
 62
     7
100
AcDbCircle
 10
115.0465958848
 20
154.9564790876
 30
0.0
 40
14.28521757553221
100
AcDbArc
 50
195.0555960652
 51
208.0133596476
  0
ARC
  5
F2
330
98
100
AcDbEntity
  8
40367000_HALT_PA
  6
Continuous
 62
     7
100
AcDbCircle
 10
71.8259793874
 20
154.9565618746
 30
0.0
 40
14.2852175755323
100
AcDbArc
 50
331.9816637816
 51
331.9863052273
  0
ARC
  5
F3
330
98
100
AcDbEntity
  8
40367000_HALT_PA
  6
Continuous
 62
     7
100
AcDbCircle
 10
71.8259793874
 20
154.9565618746
 30
0.0
 40
14.2852175755323
100
AcDbArc
 50
332.226644204
 51
336.3824507955
  0
ARC
  5
F4
330
98
100
AcDbEntity
  8
40367000_HALT_PA
  6
Continuous
 62
     7
100
AcDbCircle
 10
74.77738784
 20
154.3022720813
 30
0.0
 40
11.4015542037012
100
AcDbArc
 50
327.9136605253
 51
344.4502753662
  0
ARC
  5
F5
330
98
100
AcDbEntity
  8
40367000_HALT_PA
  6
Continuous
 62
     7
100
AcDbCircle
 10
80.0742858566
 20
153.4085335543
 30
0.0
 40
7.207843323633234
100
AcDbArc
 50
342.5392701783
 51
350.7168087468
  0
ARC
  5
F6
330
98
100
AcDbEntity
  8
40367000_HALT_PA
  6
Continuous
 62
     7
100
AcDbCircle
 10
78.6505709503
 20
153.2458053375
 30
0.0
 40
7.380086931470497
100
AcDbArc
 50
352.2124804908
 51
7.7875195092
  0
ARC
  5
F7
330
98
100
AcDbEntity
  8
40367000_HALT_PA
  6
Continuous
 62
     7
100
AcDbCircle
 10
80.0742858566
 20
153.0830771207
 30
0.0
 40
7.207843323633356
100
AcDbArc
 50
9.2831912532
 51
17.4607298217
  0
LINE
  5
F8
330
98
100
AcDbEntity
  8
40367000_HALT_PA
  6
Continuous
 62
     7
100
AcDbLine
 10
84.4362765015
 20
139.2458053375
 30
0.0
 11
102.4362765015
 21
139.2458053375
 31
0.0
  0
LINE
  5
F9
330
98
100
AcDbEntity
  8
40367000_HALT_PA
  6
Continuous
 62
     7
100
AcDbLine
 10
101.251729394
 20
151.2458053375
 30
0.0
 11
85.7616242406
 21
151.2458053375
 31
0.0
  0
LINE
  5
FA
330
98
100
AcDbEntity
  8
40367000_HALT_PA
  6
Continuous
 62
     7
100
AcDbLine
 10
101.0604810703
 20
154.2458053375
 30
0.0
 11
85.9625941393
 21
154.2458053375
 31
0.0
  0
LINE
  5
FB
330
98
100
AcDbEntity
  8
40367000_HALT_PA
  6
Continuous
 62
     7
100
AcDbLine
 10
101.0604810703
 20
152.2458053375
 30
0.0
 11
85.9625941393
 21
152.2458053375
 31
0.0
  0
LINE
  5
FC
330
98
100
AcDbEntity
  8
40367000_HALT_PA
  6
Continuous
 62
     7
100
AcDbLine
 10
102.4362765015
 20
158.2380041335
 30
0.0
 11
102.4362765015
 21
173.2458053375
 31
0.0
  0
LINE
  5
FD
330
98
100
AcDbEntity
  8
40367000_HALT_PA
  6
Continuous
 62
     7
100
AcDbLine
 10
84.4362765015
 20
173.2458053375
 30
0.0
 11
84.4362765015
 21
158.2458053375
 31
0.0
  0
LINE
  5
FE
330
98
100
AcDbEntity
  8
40367000_HALT_PA
  6
Continuous
 62
     7
100
AcDbLine
 10
102.4362765015
 20
139.2458053375
 30
0.0
 11
102.4362765015
 21
148.2563955381
 31
0.0
  0
LINE
  5
FF
330
98
100
AcDbEntity
  8
40367000_HALT_PA
  6
Continuous
 62
     7
100
AcDbLine
 10
84.4362765015
 20
148.2458053375
 30
0.0
 11
84.4362765015
 21
139.2458053375
 31
0.0
  0
ENDBLK
  5
101
330
98
100
AcDbEntity
  8
0
100
AcDbBlockEnd
  0
BLOCK
  5
15D
330
102
100
AcDbEntity
  8
0
100
AcDbBlockBegin
  2
SE2
 70
     0
 10
0.0
 20
0.0
 30
0.0
  3
SE2
  1

  0
LINE
  5
104
330
102
100
AcDbEntity
  8
40367000_HALT_PA
  6
Continuous
 62
     7
100
AcDbLine
 10
221.4224127233
 20
291.7117684404
 30
0.0
 11
221.4224127233
 21
345.7117684404
 31
0.0
  0
LINE
  5
105
330
102
100
AcDbEntity
  8
40367000_HALT_PA
  6
Continuous
 62
     7
100
AcDbLine
 10
211.4224127233
 20
291.7117684404
 30
0.0
 11
211.4224127233
 21
345.7117684404
 31
0.0
  0
LINE
  5
106
330
102
100
AcDbEntity
  8
40367000_HALT_PA
  6
Continuous
 62
     7
100
AcDbLine
 10
221.4224127233
 20
345.7117684404
 30
0.0
 11
211.4224127233
 21
345.7117684404
 31
0.0
  0
LINE
  5
107
330
102
100
AcDbEntity
  8
40367000_HALT_PA
  6
Continuous
 62
     7
100
AcDbLine
 10
211.4224127233
 20
291.7117684404
 30
0.0
 11
221.4224127233
 21
291.7117684404
 31
0.0
  0
ELLIPSE
  5
108
330
102
100
AcDbEntity
  8
40367000_HALT_PA
  6
Continuous
 62
     7
100
AcDbEllipse
 10
241.4224127233
 20
318.1712294124
 30
0.0
 11
4.000000000002959
 21
1.111471266586339E-9
 31
0.0
210
0.0
220
0.0
230
1.0
 40
0.9998819882
 41
3.073360100156406
 42
3.083174630211003
  0
ELLIPSE
  5
109
330
102
100
AcDbEntity
  8
40367000_HALT_PA
  6
Continuous
 62
     7
100
AcDbEllipse
 10
241.4224127233
 20
318.1712294124
 30
0.0
 11
4.000000000002959
 21
1.111471266586339E-9
 31
0.0
210
0.0
220
0.0
230
1.0
 40
0.9998819882
 41
3.141592653589793
 42
3.322581665512796
  0
ELLIPSE
  5
10A
330
102
100
AcDbEntity
  8
40367000_HALT_PA
  6
Continuous
 62
     7
100
AcDbEllipse
 10
241.4224127233
 20
318.6382527068
 30
0.0
 11
3.999999999999535
 21
-1.800595534218880E-10
 31
0.0
210
0.0
220
0.0
230
1.0
 40
0.9998819882
 41
3.131797677596866
 42
3.293478099306284
  0
LINE
  5
10B
330
102
100
AcDbEntity
  8
40367000_HALT_PA
  6
Continuous
 62
     7
100
AcDbLine
 10
237.4224127233
 20
318.6382527068
 30
0.0
 11
237.4224127233
 21
318.1712294124
 31
0.0
  0
ELLIPSE
  5
10C
330
102
100
AcDbEntity
  8
40367000_HALT_PA
  6
Continuous
 62
     7
100
AcDbEllipse
 10
241.4224127233
 20
318.8798143647
 30
0.0
 11
7.500000000001599
 21
-1.140529421665530E-8
 31
0.0
210
0.0
220
0.0
230
1.0
 40
0.9998819882
 41
5.326593593386288
 42
6.069090384444996
  0
ELLIPSE
  5
10D
330
102
100
AcDbEntity
  8
40367000_HALT_PA
  6
Continuous
 62
     7
100
AcDbEllipse
 10
241.4224127233
 20
318.8798143647
 30
0.0
 11
7.500000000001599
 21
-1.140529421665530E-8
 31
0.0
210
0.0
220
0.0
230
1.0
 40
0.9998819882
 41
3.141592653589793
 42
4.198830843659837
  0
LINE
  5
10E
330
102
100
AcDbEntity
  8
40367000_HALT_PA
  6
Continuous
 62
     7
100
AcDbLine
 10
248.7511808954
 20
317.624506522
 30
0.0
 11
248.7511808954
 21
317.2865291379
 31
0.0
  0
ELLIPSE
  5
10F
330
102
100
AcDbEntity
  8
40367000_HALT_PA
  6
Continuous
 62
     7
100
AcDbEllipse
 10
241.4224127233
 20
319.2177917488
 30
0.0
 11
7.500000000001853
 21
-3.444084210532661E-9
 31
0.0
210
0.0
220
0.0
230
1.0
 40
0.9998819882
 41
1.375845204714931
 42
4.194812469293201
  0
ELLIPSE
  5
110
330
102
100
AcDbEntity
  8
40367000_HALT_PA
  6
Continuous
 62
     7
100
AcDbEllipse
 10
241.4224127233
 20
319.2177917488
 30
0.0
 11
7.500000000001853
 21
-3.444084210532661E-9
 31
0.0
210
0.0
220
0.0
230
1.0
 40
0.9998819882
 41
5.322483509419775
 42
6.069090383383364
  0
ARC
  5
111
330
102
100
AcDbEntity
  8
40367000_HALT_PA
  6
Continuous
 62
     7
100
AcDbCircle
 10
241.4209502794
 20
319.1723793222
 30
0.0
 40
7.543987044175171
100
AcDbArc
 50
33.7672625533
 51
78.8847632652
  0
ELLIPSE
  5
112
330
102
100
AcDbEntity
  8
40367000_HALT_PA
  6
Continuous
 62
     7
100
AcDbEllipse
 10
241.4224127233
 20
318.8798143647
 30
0.0
 11
6.500000000000158
 21
-5.370211111736800E-10
 31
0.0
210
0.0
220
0.0
230
1.0
 40
0.9998819882
 41
0.580875140082785
 42
3.115588394241965
  0
LINE
  5
113
330
102
100
AcDbEntity
  8
40367000_HALT_PA
  6
Continuous
 62
     7
100
AcDbLine
 10
246.8563004813
 20
322.4463057938
 30
0.0
 11
248.2718970148
 21
320.2900193162
 31
0.0
  0
LINE
  5
114
330
102
100
AcDbEntity
  8
40367000_HALT_PA
  6
Continuous
 62
     7
100
AcDbLine
 10
248.7511808954
 20
317.624506522
 30
0.0
 11
247.7740118058
 21
317.8369445522
 31
0.0
  0
ELLIPSE
  5
115
330
102
100
AcDbEntity
  8
40367000_HALT_PA
  6
Continuous
 62
     7
100
AcDbEllipse
 10
241.4224127233
 20
319.2177917488
 30
0.0
 11
6.500000000002782
 21
-5.167600397072702E-9
 31
0.0
210
0.0
220
0.0
230
1.0
 40
0.9998819882
 41
1.375845205050761
 42
4.094782879034664
  0
ELLIPSE
  5
116
330
102
100
AcDbEntity
  8
40367000_HALT_PA
  6
Continuous
 62
     7
100
AcDbEllipse
 10
241.4224127233
 20
319.2177917488
 30
0.0
 11
6.500000000002782
 21
-5.167600397072702E-9
 31
0.0
210
0.0
220
0.0
230
1.0
 40
0.9998819882
 41
5.423098288518633
 42
6.069090383719155
  0
ARC
  5
117
330
102
100
AcDbEntity
  8
40367000_HALT_PA
  6
Continuous
 62
     7
100
AcDbCircle
 10
241.4199363146
 20
319.1709414829
 30
0.0
 40
6.545707451090503
100
AcDbArc
 50
33.8474434981
 51
78.8870234294
  0
LINE
  5
118
330
102
100
AcDbEntity
  8
40367000_HALT_PA
  6
Continuous
 62
     7
100
AcDbLine
 10
246.8563004813
 20
322.8167926432
 30
0.0
 11
247.6922832133
 21
323.3654836323
 31
0.0
  0
ELLIPSE
  5
119
330
102
100
AcDbEntity
  8
40367000_HALT_PA
  6
Continuous
 62
     7
100
AcDbEllipse
 10
244.7178337567
 20
327.9866611654
 30
0.0
 11
-4.389683903573624
 21
6.688099522787269
 31
0.0
210
0.0
220
0.0
230
1.0
 40
0.0084303197
 41
-3.955127082715328
 42
-3.372635372055901
  0
LINE
  5
11A
330
102
100
AcDbEntity
  8
40367000_HALT_PA
  6
Continuous
 62
     7
100
AcDbLine
 10
250.6404321053
 20
319.2186338865
 30
0.0
 11
249.1078797468
 21
321.5530715943
 31
0.0
  0
ELLIPSE
  5
11B
330
102
100
AcDbEntity
  8
40367000_HALT_PA
  6
Continuous
 62
     7
100
AcDbEllipse
 10
243.8818510247
 20
327.4379701763
 30
0.0
 11
-4.389683903573547
 21
6.688099522787295
 31
0.0
210
0.0
220
0.0
230
0.9999999999999999
 40
0.0084303197
 41
2.328058224464239
 42
3.154436338413942
  0
ELLIPSE
  5
11C
330
102
100
AcDbEntity
  8
40367000_HALT_PA
  6
Continuous
 62
     7
100
AcDbEllipse
 10
248.2718970148
 20
320.1210306241
 30
0.0
 11
-6.035815367416491
 21
9.196136843836806
 31
0.0
210
0.0
220
0.0
230
0.9999999999999999
 40
0.0084303197
 41
4.468533973314933
 42
4.725232665208772
  0
LINE
  5
11D
330
102
100
AcDbEntity
  8
40367000_HALT_PA
  6
Continuous
 62
     7
100
AcDbLine
 10
248.2718970148
 20
321.0043806052
 30
0.0
 11
248.2718970148
 21
320.7508975672
 31
0.0
  0
LINE
  5
11E
330
102
100
AcDbEntity
  8
40367000_HALT_PA
  6
Continuous
 62
     7
100
AcDbLine
 10
249.1078797468
 20
321.5530715943
 30
0.0
 11
248.2718970148
 21
321.0043806052
 31
0.0
  0
LINE
  5
11F
330
102
100
AcDbEntity
  8
40367000_HALT_PA
  6
Continuous
 62
     7
100
AcDbLine
 10
249.8044493733
 20
318.6699428974
 30
0.0
 11
248.2718970148
 21
321.0043806052
 31
0.0
  0
ELLIPSE
  5
120
330
102
100
AcDbEntity
  8
40367000_HALT_PA
  6
Continuous
 62
     7
100
AcDbEllipse
 10
99.3275576137
 20
219.9055648605
 30
0.0
 11
180.0000000000808
 21
2.947410371323400E-8
 31
0.0
210
0.0
220
0.0
230
1.0
 40
0.9998819882
 41
0.0572763642381391
 42
0.5808751398368767
  0
LINE
  5
121
330
102
100
AcDbEntity
  8
40367000_HALT_PA
  6
Continuous
 62
     7
100
AcDbLine
 10
279.1922586081
 20
227.4205902683
 30
0.0
 11
279.0323859488
 21
230.2084583764
 31
0.0
  0
LINE
  5
122
330
102
100
AcDbEntity
  8
40367000_HALT_PA
  6
Continuous
 62
     7
100
AcDbLine
 10
280.1906187655
 20
227.4778285656
 30
0.0
 11
279.1922586081
 21
227.4205902683
 31
0.0
  0
LINE
  5
123
330
102
100
AcDbEntity
  8
40367000_HALT_PA
  6
Continuous
 62
     7
100
AcDbLine
 10
280.1906187655
 20
227.4778285656
 30
0.0
 11
280.0307461062
 21
230.2656966737
 31
0.0
  0
ELLIPSE
  5
124
330
102
100
AcDbEntity
  8
40367000_HALT_PA
  6
Continuous
 62
     7
100
AcDbEllipse
 10
99.3275576137
 20
219.9055648605
 30
0.0
 11
180.9999999999361
 21
-4.058896274639068E-8
 31
0.0
210
0.0
220
0.0
230
1.0
 40
0.9998819882
 41
0.0572763646260778
 42
0.5808751402241611
  0
ELLIPSE
  5
125
330
102
100
AcDbEntity
  8
40367000_HALT_PA
  6
Continuous
 62
     7
100
AcDbEllipse
 10
99.3275576137
 20
218.1388648983
 30
0.0
 11
179.9999999997176
 21
-1.455975340292071E-7
 31
0.0
210
0.0
220
0.0
230
1.0
 40
0.9998819882
 41
0.0572763652106428
 42
0.5337884394252622
  0
LINE
  5
126
330
102
100
AcDbEntity
  8
40367000_HALT_PA
  6
Continuous
 62
     7
100
AcDbLine
 10
280.1906187655
 20
225.7111286034
 30
0.0
 11
279.1922586081
 21
225.653890306
 31
0.0
  0
LINE
  5
127
330
102
100
AcDbEntity
  8
40367000_HALT_PA
  6
Continuous
 62
     7
100
AcDbLine
 10
279.0323859488
 20
228.4417584142
 30
0.0
 11
279.1922586081
 21
225.653890306
 31
0.0
  0
LINE
  5
128
330
102
100
AcDbEntity
  8
40367000_HALT_PA
  6
Continuous
 62
     7
100
AcDbLine
 10
280.1906187655
 20
225.7111286034
 30
0.0
 11
280.1906187655
 21
227.4778285656
 31
0.0
  0
LINE
  5
129
330
102
100
AcDbEntity
  8
40367000_HALT_PA
  6
Continuous
 62
     7
100
AcDbLine
 10
279.1922586081
 20
225.653890306
 30
0.0
 11
279.1922586081
 21
227.4205902683
 31
0.0
  0
LINE
  5
12A
330
102
100
AcDbEntity
  8
40367000_HALT_PA
  6
Continuous
 62
     7
100
AcDbLine
 10
233.9224127233
 20
319.2177917488
 30
0.0
 11
233.9224127233
 21
318.8798143647
 31
0.0
  0
ELLIPSE
  5
12B
330
102
100
AcDbEntity
  8
40367000_HALT_PA
  6
Continuous
 62
     7
100
AcDbEllipse
 10
241.4224127233
 20
318.7166020095
 30
0.0
 11
4.000000000001252
 21
4.369554992153198E-10
 31
0.0
210
0.0
220
0.0
230
1.0
 40
0.9998819882
 41
3.141592653589793
 42
3.288558292818177
  0
ELLIPSE
  5
12C
330
102
100
AcDbEntity
  8
40367000_HALT_PA
  6
Continuous
 62
     7
100
AcDbEllipse
 10
242.4025664491
 20
297.3785889056
 30
0.0
 11
1.158227064857204
 21
-25.9741893052744
 31
0.0
210
0.0
220
0.0
230
1.0
 40
0.0006844417
 41
3.14159663590944
 42
3.156940613756653
  0
ELLIPSE
  5
12D
330
102
100
AcDbEntity
  8
40367000_HALT_PA
  6
Continuous
 62
     7
100
AcDbEllipse
 10
243.7375436685
 20
265.4486236673
 30
0.0
 11
3.995930178682109
 21
0.1803940328781589
 31
0.0
210
0.0
220
0.0
230
1.0
 40
0.6276827
 41
2.908125580055866
 42
3.141592653589793
  0
LINE
  5
12E
330
102
100
AcDbEntity
  8
40367000_HALT_PA
  6
Continuous
 62
     7
100
AcDbLine
 10
237.4224127233
 20
319.3541502567
 30
0.0
 11
237.4224127233
 21
318.7166020095
 31
0.0
  0
SPLINE
  5
12F
330
102
100
AcDbEntity
  8
40367000_HALT_PA
  6
Continuous
 62
     7
100
AcDbSpline
210
0.0
220
0.0
230
1.0
 70
     8
 71
     3
 72
    37
 73
    33
 74
     0
 42
0.0000000004547641
 43
0.0000000001
 40
0.1920635078760155
 40
0.1920635078760155
 40
0.1920635078760155
 40
0.1920635078760155
 40
0.1950437774615645
 40
0.2094702258757058
 40
0.2295932650308248
 40
0.2543188678521052
 40
0.2814431405556873
 40
0.3095339373975325
 40
0.3380058096111912
 40
0.3666437837858203
 40
0.3953632337552208
 40
0.4241268585631153
 40
0.4529164096963552
 40
0.4817221594251372
 40
0.5105385497993936
 40
0.5393622208315711
 40
0.568191044354865
 40
0.5970236187122504
 40
0.6258589895595028
 40
0.6546964882430778
 40
0.6835356344228102
 40
0.7123760753325326
 40
0.7412175467263369
 40
0.7700598470855207
 40
0.7989028201713244
 40
0.8277463429659503
 40
0.8565903171725774
 40
0.8854346631143873
 40
0.9142793152801747
 40
0.9431242190182492
 40
0.9719693280421711
 40
1.0
 40
1.0
 40
1.0
 40
1.0
 10
237.4312832917962
 20
319.0965314842603
 30
0.0
 10
237.4312841515212
 20
319.0965201326744
 30
0.0
 10
237.431383076874
 20
319.0948624326933
 30
0.0
 10
237.4324214385398
 20
319.0761325734351
 30
0.0
 10
237.4354850747499
 20
319.0170617354994
 30
0.0
 10
237.4408976545836
 20
318.9083040712752
 30
0.0
 10
237.4488580639126
 20
318.7440916878529
 30
0.0
 10
237.4592644014556
 20
318.5257170839641
 30
0.0
 10
237.4719631196368
 20
318.2560996375087
 30
0.0
 10
237.4868508933671
 20
317.937324611572
 30
0.0
 10
237.5038587960974
 20
317.5708252588904
 30
0.0
 10
237.522931127181
 20
317.1577828733095
 30
0.0
 10
237.5440155650615
 20
316.6993210881442
 30
0.0
 10
237.5670591182281
 20
316.1965869893947
 30
0.0
 10
237.5920064056161
 20
315.6507857894684
 30
0.0
 10
237.6187988988243
 20
315.0631961182526
 30
0.0
 10
237.6473745960125
 20
314.4351765411464
 30
0.0
 10
237.677667907573
 20
313.7681677389958
 30
0.0
 10
237.7096096554517
 20
313.0636923389318
 30
0.0
 10
237.7431271365884
 20
312.323353409587
 30
0.0
 10
237.7781442329385
 20
311.5488319670786
 30
0.0
 10
237.8145815283101
 20
310.7418843559451
 30
0.0
 10
237.8523565224106
 20
309.904337475393
 30
0.0
 10
237.8913835708775
 20
309.0380901271224
 30
0.0
 10
237.9315749159524
 20
308.1450900302218
 30
0.0
 10
237.9728377010506
 20
307.22740044996
 30
0.0
 10
238.0150860190897
 20
306.2869313701181
 30
0.0
 10
238.0581968908752
 20
305.3264217788408
 30
0.0
 10
238.1021755362959
 20
304.3457519011997
 30
0.0
 10
238.1465395699571
 20
303.3556839415667
 30
0.0
 10
238.1921845105055
 20
302.3362450295746
 30
0.0
 10
238.2200564966303
 20
301.7131834070061
 30
0.0
 10
238.2363588917059
 20
301.3487333915833
 30
0.0
  0
ARC
  5
130
330
102
100
AcDbEntity
  8
40367000_HALT_PA
  6
Continuous
 62
     7
100
AcDbCircle
 10
241.4203748433
 20
319.3570884988
 30
0.0
 40
3.997963199716358
100
AcDbArc
 50
92.512845167
 51
180.0421086636
  0
SPLINE
  5
131
330
102
100
AcDbEntity
  8
40367000_HALT_PA
  6
Continuous
 62
     7
100
AcDbSpline
210
0.0
220
0.0
230
1.0
 70
     8
 71
     3
 72
    57
 73
    53
 74
     0
 42
0.0000000004143086
 43
0.0000000001
 40
0.0
 40
0.0
 40
0.0
 40
0.0
 40
0.0151690434187579
 40
0.0439982041032133
 40
0.0728294243092652
 40
0.1016608018240713
 40
0.1304923734098073
 40
0.1593241817572335
 40
0.1881562767581206
 40
0.2169887176036978
 40
0.2458215755308538
 40
0.2746549374752371
 40
0.3034889110099761
 40
0.3323236311332378
 40
0.3611592697597076
 40
0.38999604924181
 40
0.4188342620254444
 40
0.4476742998701081
 40
0.4765166983874501
 40
0.5053622068737879
 40
0.5342119013894437
 40
0.5630673748142705
 40
0.5919310705027057
 40
0.6208068991568626
 40
0.6497014530981897
 40
0.6786265897257884
 40
0.7076055034847655
 40
0.7366890336779639
 40
0.7660087182133128
 40
0.7960128007820295
 40
0.8127382732494828
 40
0.8215091653746083
 40
0.8272913598762188
 40
0.8306101826024225
 40
0.8336795372484715
 40
0.8369355258658501
 40
0.8413650134451112
 40
0.8477249572615926
 40
0.8554379647897546
 40
0.8652945029168089
 40
0.8752264374799756
 40
0.8851390964901105
 40
0.8957137375259205
 40
0.9066555068534681
 40
0.9178364760256562
 40
0.929174267700588
 40
0.9406175645211222
 40
0.9521334030933006
 40
0.9636998076734778
 40
0.9753014971467349
 40
0.9882218863087778
 40
1.0
 40
1.0
 40
1.0
 40
1.0
 10
246.2283701898704
 20
301.7061622796315
 30
0.0
 10
246.2195325231013
 20
301.9037504128434
 30
0.0
 10
246.1977664690494
 20
302.3903671473472
 30
0.0
 10
246.1585523708022
 20
303.2664905136372
 30
0.0
 10
246.1139687077137
 20
304.2618087256632
 30
0.0
 10
246.0696387107303
 20
305.2506760308871
 30
0.0
 10
246.0261543671177
 20
306.2198731823085
 30
0.0
 10
245.9834821482566
 20
307.170153583188
 30
0.0
 10
245.9417535097443
 20
308.0985874596533
 30
0.0
 10
245.9010530634133
 20
309.0032930237177
 30
0.0
 10
245.8614750628902
 20
309.8821748466705
 30
0.0
 10
245.8231079993102
 20
310.733267887623
 30
0.0
 10
245.7860384658541
 20
311.5546511473135
 30
0.0
 10
245.7503498648503
 20
312.3444765070763
 30
0.0
 10
245.7161225023006
 20
313.1009665724227
 30
0.0
 10
245.6834333154058
 20
313.8224207045512
 30
0.0
 10
245.652355701815
 20
314.5072187678943
 30
0.0
 10
245.6229593224983
 20
315.1538254498322
 30
0.0
 10
245.5953099081336
 20
315.7607944765705
 30
0.0
 10
245.5694690533282
 20
316.3267730592709
 30
0.0
 10
245.5454939886394
 20
316.8505067680814
 30
0.0
 10
245.5234373086361
 20
317.3308452545073
 30
0.0
 10
245.5033466073652
 20
317.766749824336
 30
0.0
 10
245.485263949849
 20
318.1573040713981
 30
0.0
 10
245.4692249077029
 20
318.5017334844981
 30
0.0
 10
245.4552569309225
 20
318.799435727481
 30
0.0
 10
245.4433746953898
 20
319.0500757411616
 30
0.0
 10
245.4335715858015
 20
319.2537218289552
 30
0.0
 10
245.4257734837631
 20
319.4117812162308
 30
0.0
 10
245.4207607466702
 20
319.5085419014209
 30
0.0
 10
245.4174652586624
 20
319.5675700292761
 30
0.0
 10
245.4145177341632
 20
319.6144792050329
 30
0.0
 10
245.4110348262813
 20
319.6635191489839
 30
0.0
 10
245.4055549822782
 20
319.7278705787261
 30
0.0
 10
245.3973754347429
 20
319.8084123568614
 30
0.0
 10
245.3829750573586
 20
319.9233292334484
 30
0.0
 10
245.357106634194
 20
320.0860503767853
 30
0.0
 10
245.3116973040728
 20
320.3034164335162
 30
0.0
 10
245.2348045866977
 20
320.5817527885425
 30
0.0
 10
245.1210486237276
 20
320.894280678273
 30
0.0
 10
244.968400863028
 20
321.2195607079137
 30
0.0
 10
244.7827452746141
 20
321.5373643030017
 30
0.0
 10
244.5612431641395
 20
321.8465974368411
 30
0.0
 10
244.300533133332
 20
322.144376490193
 30
0.0
 10
244.0045367922492
 20
322.4208865484433
 30
0.0
 10
243.6770602134455
 20
322.6694703931164
 30
0.0
 10
243.3221684027408
 20
322.88509437471
 30
0.0
 10
242.944480701908
 20
323.0638074232911
 30
0.0
 10
242.5476245298697
 20
323.2029385814273
 30
0.0
 10
242.1247067826478
 20
323.3027841846684
 30
0.0
 10
241.6790737284819
 20
323.3587028175657
 30
0.0
 10
241.4016237287117
 20
323.3547024030739
 30
0.0
 10
241.2450906900826
 20
323.3512073267874
 30
0.0
  0
LINE
  5
132
330
102
100
AcDbEntity
  8
40367000_HALT_PA
  6
Continuous
 62
     7
100
AcDbLine
 10
238.2363588917
 20
301.3487333916
 30
0.0
 11
240.1966663434
 21
257.5167997527
 31
0.0
  0
LINE
  5
133
330
102
100
AcDbEntity
  8
40367000_HALT_PA
  6
Continuous
 62
     7
100
AcDbLine
 10
248.1886776415
 20
257.8742286408
 30
0.0
 11
246.2283701899
 21
301.7061622796
 31
0.0
  0
SPLINE
  5
134
330
102
100
AcDbEntity
  8
40367000_HALT_PA
  6
Continuous
 62
     7
100
AcDbSpline
210
0.0
220
0.0
230
1.0
 70
     8
 71
     3
 72
    45
 73
    41
 74
     0
 42
0.0000000003758684
 43
0.0000000001
 40
0.0
 40
0.0
 40
0.0
 40
0.0
 40
0.0143201220797733
 40
0.0415356211019562
 40
0.0687530275387986
 40
0.0959704888591505
 40
0.1231879805169264
 40
0.1504054789542373
 40
0.1776229536606392
 40
0.2048403810872603
 40
0.232057736598256
 40
0.25927499381684
 40
0.286492123884264
 40
0.3137090945878721
 40
0.3409258693037153
 40
0.3681424056820606
 40
0.3953586539783076
 40
0.4225745548942805
 40
0.4497900367385207
 40
0.4770050116299283
 40
0.5042193703401068
 40
0.5314329751690857
 40
0.5586456499306229
 40
0.5858571656059235
 40
0.6130672193637864
 40
0.6402754031704023
 40
0.6674811556080354
 40
0.6946836857560356
 40
0.7218818489151068
 40
0.7490739358759937
 40
0.7762572994682261
 40
0.8034276573659701
 40
0.8305777067261766
 40
0.8576941539782366
 40
0.8847507155963363
 40
0.9116895216552474
 40
0.9383634181964905
 40
0.9606133722461155
 40
0.9762867334545913
 40
0.9798807198084719
 40
0.9798807198084719
 40
0.9798807198084719
 40
0.9798807198084719
 10
240.1966663433658
 20
257.5167997527245
 30
0.0
 10
240.2055211795333
 20
257.318788407978
 30
0.0
 10
240.227347044151
 20
256.8307018888749
 30
0.0
 10
240.2672377232668
 20
255.9380644548153
 30
0.0
 10
240.3133561103352
 20
254.905310299431
 30
0.0
 10
240.3599930277733
 20
253.8601831862302
 30
0.0
 10
240.4065391963022
 20
252.8163238766336
 30
0.0
 10
240.4530242566944
 20
251.7730733591393
 30
0.0
 10
240.4993071201887
 20
250.7335959234146
 30
0.0
 10
240.5452929379405
 20
249.7000225349997
 30
0.0
 10
240.5908752664207
 20
248.6747453782465
 30
0.0
 10
240.6359518573827
 20
247.6600643951564
 30
0.0
 10
240.6804207196874
 20
246.6582754121701
 30
0.0
 10
240.7241814651161
 20
245.6716399875176
 30
0.0
 10
240.7671352343533
 20
244.7023870364754
 30
0.0
 10
240.809184998688
 20
243.7527060434185
 30
0.0
 10
240.8502357555822
 20
242.8247426465815
 30
0.0
 10
240.8901947464546
 20
241.920593722831
 30
0.0
 10
240.9289716614945
 20
241.0423027604116
 30
0.0
 10
240.9664788400839
 20
240.1918553281472
 30
0.0
 10
241.0026314635912
 20
239.3711747141714
 30
0.0
 10
241.0373477403357
 20
238.582117739734
 30
0.0
 10
241.0705490814912
 20
237.8264707770471
 30
0.0
 10
241.1021602666349
 20
237.1059460023625
 30
0.0
 10
241.1321095971173
 20
236.4221779287455
 30
0.0
 10
241.1603290346529
 20
235.7767202823599
 30
0.0
 10
241.1867543212158
 20
235.1710433204966
 30
0.0
 10
241.2113250739344
 20
234.6065317479314
 30
0.0
 10
241.2339848446497
 20
234.0844835036316
 30
0.0
 10
241.2546811250619
 20
233.6061098782684
 30
0.0
 10
241.2733652652926
 20
233.1725379245549
 30
0.0
 10
241.2899922301423
 20
232.7848167244533
 30
0.0
 10
241.3045200812851
 20
232.4439322440615
 30
0.0
 10
241.3169087506939
 20
232.1508364795064
 30
0.0
 10
241.327117729874
 20
231.9065260012094
 30
0.0
 10
241.3350989537951
 20
231.7121904974549
 30
0.0
 10
241.3405197498431
 20
231.5764368085532
 30
0.0
 10
241.3434099463758
 20
231.4999545114006
 30
0.0
 10
241.3442771645263
 20
231.4750919517784
 30
0.0
 10
241.344345467718
 20
231.4723520783545
 30
0.0
 10
241.3443448870107
 20
231.4723028061285
 30
0.0
  0
ARC
  5
135
330
102
100
AcDbEntity
  8
40367000_HALT_PA
  6
Continuous
 62
     7
100
AcDbCircle
 10
-5889.5059056674
 20
-24.6640101814
 30
0.0
 40
6144.194223360519
100
AcDbArc
 50
2.3901342299
 51
2.6356522456
  0
LINE
  5
136
330
102
100
AcDbEntity
  8
40367000_HALT_PA
  6
Continuous
 62
     7
100
AcDbLine
 10
241.3430276266
 20
231.509417347
 30
0.0
 11
241.3430276266
 21
230.0501956873
 31
0.0
  0
LINE
  5
137
330
102
100
AcDbEntity
  8
40367000_HALT_PA
  6
Continuous
 62
     7
100
AcDbLine
 10
249.3430276266
 20
230.0501956873
 30
0.0
 11
249.3430276266
 21
231.5710939156
 31
0.0
  0
SPLINE
  5
138
330
102
100
AcDbEntity
  8
40367000_HALT_PA
  6
Continuous
 62
     7
100
AcDbSpline
210
0.0
220
0.0
230
1.0
 70
     8
 71
     3
 72
    47
 73
    43
 74
     0
 42
0.0000000006906726
 43
0.0000000001
 40
0.0
 40
0.0
 40
0.0
 40
0.0
 40
0.0215643615083818
 40
0.0625523685660251
 40
0.1035442195762247
 40
0.1445377998507328
 40
0.1855335600299723
 40
0.2265321077315411
 40
0.267534278912674
 40
0.3085412513955404
 40
0.3495547305597461
 40
0.3905772651222958
 40
0.4316128092411708
 40
0.4726677791904563
 40
0.5137531762971832
 40
0.5548892217963344
 40
0.5961166260397682
 40
0.6375283171686792
 40
0.6793803943940375
 40
0.7226570909748213
 40
0.7378483687949124
 40
0.7487574888803802
 40
0.7556744606137558
 40
0.7601847867920044
 40
0.7645139620671154
 40
0.7693790302963591
 40
0.776231097928436
 40
0.7857617932868075
 40
0.7976712921669361
 40
0.8120414398218578
 40
0.8258417010798834
 40
0.8402316401103648
 40
0.8554082186223749
 40
0.8710576846249051
 40
0.8870138264772742
 40
0.9031723258713006
 40
0.9194677415178775
 40
0.9358576886216653
 40
0.9523136360451263
 40
0.9688155306988703
 40
0.9870741236385852
 40
1.0
 40
1.0
 40
1.0
 40
1.0
 10
240.9703866109803
 20
238.0495266698519
 30
0.0
 10
240.9774324197431
 20
237.8934786712078
 30
0.0
 10
240.9947623513593
 20
237.5096840322122
 30
0.0
 10
241.0252042263176
 20
236.8362287398193
 30
0.0
 10
241.0587650140536
 20
236.0947702571827
 30
0.0
 10
241.0910640203434
 20
235.3822358584468
 30
0.0
 10
241.1216515663766
 20
234.7085649203517
 30
0.0
 10
241.1505600257371
 20
234.0730360687466
 30
0.0
 10
241.1776977804446
 20
233.4776673748305
 30
0.0
 10
241.2030117051265
 20
232.9236238071903
 30
0.0
 10
241.226443922609
 20
232.412173623449
 30
0.0
 10
241.2479437360694
 20
231.9444247720135
 30
0.0
 10
241.267464956821
 20
231.5213849669406
 30
0.0
 10
241.2849671726351
 20
231.1439334020275
 30
0.0
 10
241.3004173286388
 20
230.8127936556568
 30
0.0
 10
241.3137893698696
 20
230.5285276109422
 30
0.0
 10
241.3250793596505
 20
230.291291918646
 30
0.0
 10
241.3342833332948
 20
230.101100257015
 30
0.0
 10
241.3415951230767
 20
229.9547387250826
 30
0.0
 10
241.3457234425979
 20
229.876015320822
 30
0.0
 10
241.3491125613514
 20
229.8182832435756
 30
0.0
 10
241.3517292209134
 20
229.7778644255312
 30
0.0
 10
241.3555516517903
 20
229.7264699069422
 30
0.0
 10
241.3613919238959
 20
229.660443068259
 30
0.0
 10
241.3706087505063
 20
229.5736692255073
 30
0.0
 10
241.386946176195
 20
229.4496395850632
 30
0.0
 10
241.4163065534239
 20
229.2753306833661
 30
0.0
 10
241.4682110967471
 20
229.0417283600426
 30
0.0
 10
241.5542769793998
 20
228.7499383571977
 30
0.0
 10
241.6777807879253
 20
228.4320502399254
 30
0.0
 10
241.8386970927907
 20
228.10757113188
 30
0.0
 10
242.0317273925266
 20
227.7929115981114
 30
0.0
 10
242.2630309230726
 20
227.4851752602407
 30
0.0
 10
242.5324733882404
 20
227.1917695499146
 30
0.0
 10
242.8363473737648
 20
226.9213851959254
 30
0.0
 10
243.1707374701604
 20
226.6802640776047
 30
0.0
 10
243.5315267582554
 20
226.4731122571463
 30
0.0
 10
243.9140146322163
 20
226.3036899160143
 30
0.0
 10
244.3146422577659
 20
226.1743043933299
 30
0.0
 10
244.738976872358
 20
226.0857270965003
 30
0.0
 10
245.1528297733453
 20
226.0425511591325
 30
0.0
 10
245.3998480037666
 20
226.051535330417
 30
0.0
 10
245.5206125088279
 20
226.0566932582798
 30
0.0
  0
ARC
  5
139
330
102
100
AcDbEntity
  8
40367000_HALT_PA
  6
Continuous
 62
     7
100
AcDbCircle
 10
245.3505050702
 20
230.0455929822
 30
0.0
 40
3.992525209437782
100
AcDbArc
 50
272.4419105703
 51
0.0660523406
  0
LINE
  5
13A
330
102
100
AcDbEntity
  8
40367000_HALT_PA
  6
Continuous
 62
     7
100
AcDbLine
 10
239.7416134898
 20
265.2682296344
 30
0.0
 11
240.970386611
 21
238.0495266699
 31
0.0
  0
ARC
  5
13B
330
102
100
AcDbEntity
  8
40367000_HALT_PA
  6
Continuous
 62
     7
100
AcDbCircle
 10
241.4570778128
 20
318.8539468688
 30
0.0
 40
5.034666611646887
100
AcDbArc
 50
180.0445531611
 51
219.6486515434
  0
ARC
  5
13C
330
102
100
AcDbEntity
  8
40367000_HALT_PA
  6
Continuous
 62
     7
100
AcDbCircle
 10
241.3865591211
 20
318.853756486
 30
0.0
 40
4.964147795108343
100
AcDbArc
 50
113.3075410808
 51
180.0429886837
  0
LINE
  5
13D
330
102
100
AcDbEntity
  8
40367000_HALT_PA
  6
Continuous
 62
     7
100
AcDbLine
 10
239.4224127233
 20
323.4128015899
 30
0.0
 11
239.4224127233
 21
325.0637429403
 31
0.0
  0
LINE
  5
13E
330
102
100
AcDbEntity
  8
40367000_HALT_PA
  6
Continuous
 62
     7
100
AcDbLine
 10
239.4224127233
 20
326.4453548576
 30
0.0
 11
239.4224127233
 21
327.7117684404
 31
0.0
  0
ARC
  5
13F
330
102
100
AcDbEntity
  8
40367000_HALT_PA
  6
Continuous
 62
     7
100
AcDbCircle
 10
241.4570778128
 20
318.569590012
 30
0.0
 40
5.034666611646893
100
AcDbArc
 50
113.8366855371
 51
178.3799172233
  0
ARC
  5
140
330
102
100
AcDbEntity
  8
40367000_HALT_PA
  6
Continuous
 62
     7
100
AcDbCircle
 10
241.7644914828
 20
318.6370920887
 30
0.0
 40
5.342247139008968
100
AcDbArc
 50
155.9819090268
 51
178.6044907104
  0
LINE
  5
141
330
102
100
AcDbEntity
  8
40367000_HALT_PA
  6
Continuous
 62
     7
100
AcDbLine
 10
239.4224127233
 20
323.1748050845
 30
0.0
 11
239.4224127233
 21
323.1930639773
 31
0.0
  0
ARC
  5
142
330
102
100
AcDbEntity
  8
40367000_HALT_PA
  6
Continuous
 62
     7
100
AcDbCircle
 10
241.4229990029
 20
318.6628852699
 30
0.0
 40
4.952258533505311
100
AcDbArc
 50
101.656655707
 51
113.8268814362
  0
LINE
  5
143
330
102
100
AcDbEntity
  8
40367000_HALT_PA
  6
Continuous
 62
     7
100
AcDbLine
 10
240.4224127233
 20
323.4941846388
 30
0.0
 11
240.4224127233
 21
323.5130081219
 31
0.0
  0
ARC
  5
144
330
102
100
AcDbEntity
  8
40367000_HALT_PA
  6
Continuous
 62
     7
100
AcDbCircle
 10
241.4224127233
 20
318.6447048306
 30
0.0
 40
4.951510316036616
100
AcDbArc
 50
78.3484850313
 51
101.6515149687
  0
ARC
  5
145
330
102
100
AcDbEntity
  8
40367000_HALT_PA
  6
Continuous
 62
     7
100
AcDbCircle
 10
241.4218264437
 20
318.6628852699
 30
0.0
 40
4.952258533505172
100
AcDbArc
 50
66.1731185638
 51
78.343344293
  0
LINE
  5
146
330
102
100
AcDbEntity
  8
40367000_HALT_PA
  6
Continuous
 62
     7
100
AcDbLine
 10
243.4224127233
 20
323.1748050845
 30
0.0
 11
243.4224127233
 21
323.1930639773
 31
0.0
  0
ARC
  5
147
330
102
100
AcDbEntity
  8
40367000_HALT_PA
  6
Continuous
 62
     7
100
AcDbCircle
 10
241.3875824572
 20
318.5694823186
 30
0.0
 40
5.034831873046501
100
AcDbArc
 50
1.6220721504
 51
66.1620903869
  0
ARC
  5
148
330
102
100
AcDbEntity
  8
40367000_HALT_PA
  6
Continuous
 62
     7
100
AcDbCircle
 10
241.3875824572
 20
318.8540545622
 30
0.0
 40
5.034831873046475
100
AcDbArc
 50
326.5260574131
 51
359.954222763
  0
ARC
  5
149
330
102
100
AcDbEntity
  8
40367000_HALT_PA
  6
Continuous
 62
     7
100
AcDbCircle
 10
241.4580532649
 20
318.8536163997
 30
0.0
 40
4.964360752455293
100
AcDbArc
 50
359.9586299561
 51
66.6908402794
  0
LINE
  5
14A
330
102
100
AcDbEntity
  8
40367000_HALT_PA
  6
Continuous
 62
     7
100
AcDbLine
 10
243.4224127233
 20
323.3945426971
 30
0.0
 11
243.4224127233
 21
323.4128015899
 31
0.0
  0
ARC
  5
14B
330
102
100
AcDbEntity
  8
40367000_HALT_PA
  6
Continuous
 62
     7
100
AcDbCircle
 10
241.4325546515
 20
318.7877925101
 30
0.0
 40
5.018135354088165
100
AcDbArc
 50
66.6383598468
 51
78.6234480365
  0
ARC
  5
14C
330
102
100
AcDbEntity
  8
40367000_HALT_PA
  6
Continuous
 62
     7
100
AcDbCircle
 10
241.4224127233
 20
318.7754820764
 30
0.0
 40
5.050659539442701
100
AcDbArc
 50
78.5803252278
 51
101.4196747722
  0
LINE
  5
14D
330
102
100
AcDbEntity
  8
40367000_HALT_PA
  6
Continuous
 62
     7
100
AcDbLine
 10
240.4224127233
 20
323.7073314549
 30
0.0
 11
240.4224127233
 21
323.7261549381
 31
0.0
  0
ARC
  5
14E
330
102
100
AcDbEntity
  8
40367000_HALT_PA
  6
Continuous
 62
     7
100
AcDbCircle
 10
241.4122707951
 20
318.7877925101
 30
0.0
 40
5.01813535408824
100
AcDbArc
 50
101.3765519635
 51
113.3616401532
  0
LINE
  5
14F
330
102
100
AcDbEntity
  8
40367000_HALT_PA
  6
Continuous
 62
     7
100
AcDbLine
 10
255.4224127233
 20
311.5211465761
 30
0.0
 11
255.4224127233
 21
327.7117684404
 31
0.0
  0
LINE
  5
150
330
102
100
AcDbEntity
  8
40367000_HALT_PA
  6
Continuous
 62
     7
100
AcDbLine
 10
243.4224127233
 20
323.4128015899
 30
0.0
 11
243.4224127233
 21
325.0637429403
 31
0.0
  0
LINE
  5
151
330
102
100
AcDbEntity
  8
40367000_HALT_PA
  6
Continuous
 62
     7
100
AcDbLine
 10
243.4224127233
 20
326.4554888245
 30
0.0
 11
243.4224127233
 21
327.7117684404
 31
0.0
  0
LINE
  5
152
330
102
100
AcDbEntity
  8
40367000_HALT_PA
  6
Continuous
 62
     7
100
AcDbLine
 10
240.4224127233
 20
323.7261549381
 30
0.0
 11
240.4224127233
 21
325.3016727093
 31
0.0
  0
LINE
  5
153
330
102
100
AcDbEntity
  8
40367000_HALT_PA
  6
Continuous
 62
     7
100
AcDbLine
 10
240.4224127233
 20
326.6499489365
 30
0.0
 11
240.4224127233
 21
327.7117684404
 31
0.0
  0
LINE
  5
154
330
102
100
AcDbEntity
  8
40367000_HALT_PA
  6
Continuous
 62
     7
100
AcDbLine
 10
242.4224127233
 20
323.7261549381
 30
0.0
 11
242.4224127233
 21
325.3016727093
 31
0.0
  0
LINE
  5
155
330
102
100
AcDbEntity
  8
40367000_HALT_PA
  6
Continuous
 62
     7
100
AcDbLine
 10
242.4224127233
 20
326.6499489365
 30
0.0
 11
242.4224127233
 21
327.7117684404
 31
0.0
  0
LINE
  5
156
330
102
100
AcDbEntity
  8
40367000_HALT_PA
  6
Continuous
 62
     7
100
AcDbLine
 10
239.4224127233
 20
327.7117684404
 30
0.0
 11
221.4224127233
 21
327.7117684404
 31
0.0
  0
LINE
  5
157
330
102
100
AcDbEntity
  8
40367000_HALT_PA
  6
Continuous
 62
     7
100
AcDbLine
 10
221.4224127233
 20
309.7117684404
 30
0.0
 11
237.8610255048
 21
309.7117684404
 31
0.0
  0
LINE
  5
158
330
102
100
AcDbEntity
  8
40367000_HALT_PA
  6
Continuous
 62
     7
100
AcDbLine
 10
255.4224127233
 20
327.7117684404
 30
0.0
 11
243.4224127233
 21
327.7117684404
 31
0.0
  0
LINE
  5
159
330
102
100
AcDbEntity
  8
40367000_HALT_PA
  6
Continuous
 62
     7
100
AcDbLine
 10
245.8691420997
 20
309.7117684404
 30
0.0
 11
255.4224127233
 21
309.7117684404
 31
0.0
  0
LINE
  5
15A
330
102
100
AcDbEntity
  8
40367000_HALT_PA
  6
Continuous
 62
     7
100
AcDbLine
 10
240.4224127233
 20
326.7117684404
 30
0.0
 11
239.4224127233
 21
326.7117684404
 31
0.0
  0
LINE
  5
15B
330
102
100
AcDbEntity
  8
40367000_HALT_PA
  6
Continuous
 62
     7
100
AcDbLine
 10
242.4224127233
 20
327.7117684404
 30
0.0
 11
240.4224127233
 21
327.7117684404
 31
0.0
  0
LINE
  5
15C
330
102
100
AcDbEntity
  8
40367000_HALT_PA
  6
Continuous
 62
     7
100
AcDbLine
 10
243.4224127233
 20
326.7117684404
 30
0.0
 11
242.4224127233
 21
326.7117684404
 31
0.0
  0
ENDBLK
  5
15E
330
102
100
AcDbEntity
  8
0
100
AcDbBlockEnd
  0
ENDSEC
  0
SECTION
  2
ENTITIES
  0
INSERT
  5
5F
330
1F
100
AcDbEntity
  8
Default
100
AcDbBlockReference
  2
SE
 10
0.0
 20
0.0
 30
0.0
  0
INSERT
  5
99
330
1F
100
AcDbEntity
  8
Default
100
AcDbBlockReference
  2
SE1
 10
0.0
 20
0.0
 30
0.0
  0
INSERT
  5
103
330
1F
100
AcDbEntity
  8
Default
100
AcDbBlockReference
  2
SE2
 10
0.0
 20
0.0
 30
0.0
  0
TEXT
  5
160
330
1F
100
AcDbEntity
  8
Default
  6
Continuous
 62
     7
100
AcDbText
 10
5.9362635081
 20
53.4225120485
 30
0.0
 40
10.0
  1
Grohe AG^J
  7
SEACAD_seiso_ttf
 11
5.9362635081
 21
63.4225120485
 31
0.0
100
AcDbText
 73
     3
  0
TEXT
  5
161
330
1F
100
AcDbEntity
  8
Default
  6
Continuous
 62
     7
100
AcDbText
 10
5.9362635081
 20
37.0588756849
 30
0.0
 40
10.0
  1
 
  7
SEACAD_seiso_ttf
 11
5.9362635081
 21
47.0588756849
 31
0.0
100
AcDbText
 73
     3
  0
TEXT
  5
162
330
1F
100
AcDbEntity
  8
Default
  6
Continuous
 62
     7
100
AcDbText
 10
5.9362635081
 20
20.6952393213
 30
0.0
 40
10.0
  1
ecn: 
  7
SEACAD_seiso_ttf
 11
5.9362635081
 21
30.6952393213
 31
0.0
100
AcDbText
 73
     3
  0
TEXT
  5
163
330
1F
100
AcDbEntity
  8
Default
  6
Continuous
 62
     7
100
AcDbText
 10
5.9362635081
 20
4.3316029576
 30
0.0
 40
10.0
  1
unit: mm
  7
SEACAD_seiso_ttf
 11
5.9362635081
 21
14.3316029576
 31
0.0
100
AcDbText
 73
     3
  0
LINE
  5
164
330
1F
100
AcDbEntity
  8
Default
  6
Continuous
 62
     7
100
AcDbLine
 10
0.0
 20
0.0
 30
0.0
 11
100.0
 21
0.0
 31
0.0
  0
LINE
  5
165
330
1F
100
AcDbEntity
  8
Default
  6
Continuous
 62
     7
100
AcDbLine
 10
0.0
 20
0.0
 30
0.0
 11
0.0
 21
100.0
 31
0.0
  0
TEXT
  5
166
330
1F
100
AcDbEntity
  8
Default
  6
Continuous
 62
     7
100
AcDbText
 10
24.3923665681
 20
-18.2375342018
 30
0.0
 40
10.0
  1
100 mm
  7
SEACAD_seiso_ttf
 11
24.3923665681
 21
-8.2375342018
 31
0.0
100
AcDbText
 73
     3
  0
TEXT
  5
167
330
1F
100
AcDbEntity
  8
Default
  6
Continuous
 62
     7
100
AcDbText
 10
-7.6150308803
 20
24.6231930421
 30
0.0
 40
10.0
  1
100 mm
 50
90.0
  7
SEACAD_seiso_ttf
 11
-17.6150308803
 21
24.6231930421
 31
0.0
100
AcDbText
 73
     3
  0
TEXT
  5
168
330
1F
100
AcDbEntity
  8
Default
  6
Continuous
 62
     7
100
AcDbText
 10
28.4878128572
 20
20.0907663715
 30
0.0
 40
10.0
  1
205884
  7
SEACAD_seiso_ttf
 11
28.4878128572
 21
30.0907663715
 31
0.0
100
AcDbText
 73
     3
  0
TEXT
  5
169
330
1F
100
AcDbEntity
  8
Default
  6
Continuous
 62
     7
100
AcDbText
 10
5.9012241913
 20
36.7242780188
 30
0.0
 40
10.0
  1
40367000
  7
SEACAD_seiso_ttf
 11
5.9012241913
 21
46.7242780188
 31
0.0
100
AcDbText
 73
     3
  0
ENDSEC
  0
SECTION
  2
OBJECTS
  0
DICTIONARY
  5
C
330
0
100
AcDbDictionary
281
     1
  3
ACAD_GROUP
350
D
  3
ACAD_LAYOUT
350
1A
  3
ACAD_MLEADERSTYLE
350
16D
  3
ACAD_MLINESTYLE
350
17
  3
ACAD_PLOTSETTINGS
350
19
  3
ACAD_PLOTSTYLENAME
350
E
  3
ACAD_SCALELIST
350
3B
  3
ACAD_TABLESTYLE
350
16C
  3
ACAD_VISUALSTYLE
350
2A
  3
AcDbVariableDictionary
350
16A
  0
DICTIONARY
  5
D
102
{ACAD_REACTORS
330
C
102
}
330
C
100
AcDbDictionary
281
     1
  0
DICTIONARY
  5
1A
102
{ACAD_REACTORS
330
C
102
}
330
C
100
AcDbDictionary
281
     1
  3
Layout1
350
1E
  3
Model
350
22
  0
DICTIONARY
  5
16D
102
{ACAD_REACTORS
330
C
102
}
330
C
100
AcDbDictionary
281
     1
  0
DICTIONARY
  5
17
102
{ACAD_REACTORS
330
C
102
}
330
C
100
AcDbDictionary
281
     1
  3
Standard
350
18
  0
DICTIONARY
  5
19
102
{ACAD_REACTORS
330
C
102
}
330
C
100
AcDbDictionary
281
     1
  0
ACDBDICTIONARYWDFLT
  5
E
102
{ACAD_REACTORS
330
C
102
}
330
C
100
AcDbDictionary
281
     1
  3
Normal
350
F
100
AcDbDictionaryWithDefault
340
F
  0
DICTIONARY
  5
3B
102
{ACAD_REACTORS
330
C
102
}
330
C
100
AcDbDictionary
281
     1
  3
A0
350
3C
  3
A1
350
3D
  3
A2
350
3E
  3
A3
350
3F
  3
A4
350
40
  3
A5
350
41
  3
A6
350
42
  3
A7
350
43
  3
A8
350
44
  3
A9
350
45
  3
B0
350
46
  3
B1
350
47
  3
B2
350
48
  3
B3
350
49
  3
B4
350
4A
  3
B5
350
4B
  3
B6
350
4C
  3
B7
350
4D
  3
B8
350
4E
  3
B9
350
4F
  3
C0
350
50
  3
C1
350
51
  3
C2
350
52
  3
C3
350
53
  3
C4
350
54
  3
C5
350
55
  3
C6
350
56
  3
C7
350
57
  3
C8
350
58
  3
C9
350
59
  3
D0
350
5A
  3
D1
350
5B
  3
D2
350
5C
  0
DICTIONARY
  5
16C
102
{ACAD_REACTORS
330
C
102
}
330
C
100
AcDbDictionary
281
     1
  0
DICTIONARY
  5
2A
102
{ACAD_REACTORS
330
C
102
}
330
C
100
AcDbDictionary
281
     1
  3
2dWireframe
350
2F
  3
3D Hidden
350
31
  3
3dWireframe
350
30
  3
Basic
350
32
  3
Brighten
350
36
  3
ColorChange
350
3A
  3
Conceptual
350
34
  3
Dim
350
35
  3
Facepattern
350
39
  3
Flat
350
2B
  3
FlatWithEdges
350
2C
  3
Gouraud
350
2D
  3
GouraudWithEdges
350
2E
  3
Linepattern
350
38
  3
Realistic
350
33
  3
Thicken
350
37
  0
DICTIONARY
  5
16A
102
{ACAD_REACTORS
330
C
102
}
330
C
100
AcDbDictionary
281
     1
  3
CANNOSCALE
350
16B
  3
PSOLHEIGHT
350
16F
  3
PSOLWIDTH
350
16E
  0
LAYOUT
  5
1E
102
{ACAD_REACTORS
330
1A
102
}
330
1A
100
AcDbPlotSettings
  1

  2
none_device
  4

  6

 40
0.0
 41
0.0
 42
0.0
 43
0.0
 44
0.0
 45
0.0
 46
0.0
 47
0.0
 48
0.0
 49
0.0
140
0.0
141
0.0
142
1.0
143
1.0
 70
   688
 72
     0
 73
     0
 74
     5
  7

 75
    16
147
1.0
148
0.0
149
0.0
100
AcDbLayout
  1
Layout1
 70
     1
 71
     1
 10
0.0
 20
0.0
 11
1682.0
 21
2378.0
 12
0.0
 22
0.0
 32
0.0
 14
0.0
 24
0.0
 34
0.0
 15
1682.0
 25
2378.0
 35
0.0
146
0.0
 13
0.0
 23
0.0
 33
0.0
 16
1.0
 26
0.0
 36
0.0
 17
0.0
 27
1.0
 37
0.0
 76
     0
330
1B
  0
LAYOUT
  5
22
102
{ACAD_REACTORS
330
1A
102
}
330
1A
100
AcDbPlotSettings
  1

  2
none_device
  4

  6

 40
0.0
 41
0.0
 42
0.0
 43
0.0
 44
0.0
 45
0.0
 46
0.0
 47
0.0
 48
0.0
 49
0.0
140
0.0
141
0.0
142
1.0
143
1.0
 70
  1712
 72
     0
 73
     0
 74
     0
  7

 75
     0
147
1.0
148
0.0
149
0.0
100
AcDbLayout
  1
Model
 70
     1
 71
     0
 10
0.0
 20
0.0
 11
1682.0
 21
2378.0
 12
0.0
 22
0.0
 32
0.0
 14
0.0
 24
0.0
 34
0.0
 15
1682.0
 25
2378.0
 35
0.0
146
0.0
 13
0.0
 23
0.0
 33
0.0
 16
1.0
 26
0.0
 36
0.0
 17
0.0
 27
1.0
 37
0.0
 76
     0
330
1F
331
29
  0
MLINESTYLE
  5
18
102
{ACAD_REACTORS
330
17
102
}
330
17
100
AcDbMlineStyle
  2
Standard
 70
     0
  3

 62
   256
 51
90.0
 52
90.0
 71
     2
 49
0.5
 62
   256
  6
BYLAYER
 49
-0.5
 62
   256
  6
BYLAYER
  0
ACDBPLACEHOLDER
  5
F
102
{ACAD_REACTORS
330
E
102
}
330
E
  0
SCALE
  5
3C
102
{ACAD_REACTORS
330
3B
102
}
330
3B
100
AcDbScale
 70
     0
300
1:1
140
1.0
141
1.0
290
     1
  0
SCALE
  5
3D
102
{ACAD_REACTORS
330
3B
102
}
330
3B
100
AcDbScale
 70
     0
300
1:2
140
1.0
141
2.0
290
     0
  0
SCALE
  5
3E
102
{ACAD_REACTORS
330
3B
102
}
330
3B
100
AcDbScale
 70
     0
300
1:4
140
1.0
141
4.0
290
     0
  0
SCALE
  5
3F
102
{ACAD_REACTORS
330
3B
102
}
330
3B
100
AcDbScale
 70
     0
300
1:5
140
1.0
141
5.0
290
     0
  0
SCALE
  5
40
102
{ACAD_REACTORS
330
3B
102
}
330
3B
100
AcDbScale
 70
     0
300
1:8
140
1.0
141
8.0
290
     0
  0
SCALE
  5
41
102
{ACAD_REACTORS
330
3B
102
}
330
3B
100
AcDbScale
 70
     0
300
1:10
140
1.0
141
10.0
290
     0
  0
SCALE
  5
42
102
{ACAD_REACTORS
330
3B
102
}
330
3B
100
AcDbScale
 70
     0
300
1:16
140
1.0
141
16.0
290
     0
  0
SCALE
  5
43
102
{ACAD_REACTORS
330
3B
102
}
330
3B
100
AcDbScale
 70
     0
300
1:20
140
1.0
141
20.0
290
     0
  0
SCALE
  5
44
102
{ACAD_REACTORS
330
3B
102
}
330
3B
100
AcDbScale
 70
     0
300
1:30
140
1.0
141
30.0
290
     0
  0
SCALE
  5
45
102
{ACAD_REACTORS
330
3B
102
}
330
3B
100
AcDbScale
 70
     0
300
1:40
140
1.0
141
40.0
290
     0
  0
SCALE
  5
46
102
{ACAD_REACTORS
330
3B
102
}
330
3B
100
AcDbScale
 70
     0
300
1:50
140
1.0
141
50.0
290
     0
  0
SCALE
  5
47
102
{ACAD_REACTORS
330
3B
102
}
330
3B
100
AcDbScale
 70
     0
300
1:100
140
1.0
141
100.0
290
     0
  0
SCALE
  5
48
102
{ACAD_REACTORS
330
3B
102
}
330
3B
100
AcDbScale
 70
     0
300
2:1
140
2.0
141
1.0
290
     0
  0
SCALE
  5
49
102
{ACAD_REACTORS
330
3B
102
}
330
3B
100
AcDbScale
 70
     0
300
4:1
140
4.0
141
1.0
290
     0
  0
SCALE
  5
4A
102
{ACAD_REACTORS
330
3B
102
}
330
3B
100
AcDbScale
 70
     0
300
8:1
140
8.0
141
1.0
290
     0
  0
SCALE
  5
4B
102
{ACAD_REACTORS
330
3B
102
}
330
3B
100
AcDbScale
 70
     0
300
10:1
140
10.0
141
1.0
290
     0
  0
SCALE
  5
4C
102
{ACAD_REACTORS
330
3B
102
}
330
3B
100
AcDbScale
 70
     0
300
100:1
140
100.0
141
1.0
290
     0
  0
SCALE
  5
4D
102
{ACAD_REACTORS
330
3B
102
}
330
3B
100
AcDbScale
 70
     0
300
1/128" = 1'-0"
140
0.0078125
141
12.0
290
     0
  0
SCALE
  5
4E
102
{ACAD_REACTORS
330
3B
102
}
330
3B
100
AcDbScale
 70
     0
300
1/64" = 1'-0"
140
0.015625
141
12.0
290
     0
  0
SCALE
  5
4F
102
{ACAD_REACTORS
330
3B
102
}
330
3B
100
AcDbScale
 70
     0
300
1/32" = 1'-0"
140
0.03125
141
12.0
290
     0
  0
SCALE
  5
50
102
{ACAD_REACTORS
330
3B
102
}
330
3B
100
AcDbScale
 70
     0
300
1/16" = 1'-0"
140
0.0625
141
12.0
290
     0
  0
SCALE
  5
51
102
{ACAD_REACTORS
330
3B
102
}
330
3B
100
AcDbScale
 70
     0
300
3/32" = 1'-0"
140
0.09375
141
12.0
290
     0
  0
SCALE
  5
52
102
{ACAD_REACTORS
330
3B
102
}
330
3B
100
AcDbScale
 70
     0
300
1/8" = 1'-0"
140
0.125
141
12.0
290
     0
  0
SCALE
  5
53
102
{ACAD_REACTORS
330
3B
102
}
330
3B
100
AcDbScale
 70
     0
300
3/16" = 1'-0"
140
0.1875
141
12.0
290
     0
  0
SCALE
  5
54
102
{ACAD_REACTORS
330
3B
102
}
330
3B
100
AcDbScale
 70
     0
300
1/4" = 1'-0"
140
0.25
141
12.0
290
     0
  0
SCALE
  5
55
102
{ACAD_REACTORS
330
3B
102
}
330
3B
100
AcDbScale
 70
     0
300
3/8" = 1'-0"
140
0.375
141
12.0
290
     0
  0
SCALE
  5
56
102
{ACAD_REACTORS
330
3B
102
}
330
3B
100
AcDbScale
 70
     0
300
1/2" = 1'-0"
140
0.5
141
12.0
290
     0
  0
SCALE
  5
57
102
{ACAD_REACTORS
330
3B
102
}
330
3B
100
AcDbScale
 70
     0
300
3/4" = 1'-0"
140
0.75
141
12.0
290
     0
  0
SCALE
  5
58
102
{ACAD_REACTORS
330
3B
102
}
330
3B
100
AcDbScale
 70
     0
300
1" = 1'-0"
140
1.0
141
12.0
290
     0
  0
SCALE
  5
59
102
{ACAD_REACTORS
330
3B
102
}
330
3B
100
AcDbScale
 70
     0
300
1-1/2" = 1'-0"
140
1.5
141
12.0
290
     0
  0
SCALE
  5
5A
102
{ACAD_REACTORS
330
3B
102
}
330
3B
100
AcDbScale
 70
     0
300
3" = 1'-0"
140
3.0
141
12.0
290
     0
  0
SCALE
  5
5B
102
{ACAD_REACTORS
330
3B
102
}
330
3B
100
AcDbScale
 70
     0
300
6" = 1'-0"
140
6.0
141
12.0
290
     0
  0
SCALE
  5
5C
102
{ACAD_REACTORS
330
3B
102
}
330
3B
100
AcDbScale
 70
     0
300
1'-0" = 1'-0"
140
12.0
141
12.0
290
     0
  0
VISUALSTYLE
  5
2F
102
{ACAD_REACTORS
330
2A
102
}
330
2A
100
AcDbVisualStyle
  2
2dWireframe
 70
     4
 71
     0
 72
     2
 73
     0
 90
        0
 40
-0.6
 41
-30.0
 62
     5
 63
     7
 74
     1
 91
        4
 64
     7
 65
   257
 75
     1
175
     1
 42
1.0
 92
        0
 66
   257
 43
1.0
 76
     1
 77
     6
 78
     2
 67
     7
 79
     5
170
     0
171
     0
290
     0
174
     0
 93
        1
 44
0.0
173
     0
291
     0
 45
0.0
1001
ACAD
1000
AcDbSavedByObjectVersion
1070
     0
  0
VISUALSTYLE
  5
31
102
{ACAD_REACTORS
330
2A
102
}
330
2A
100
AcDbVisualStyle
  2
3D Hidden
 70
     6
 71
     1
 72
     2
 73
     2
 90
        0
 40
-0.6
 41
-30.0
 62
     5
 63
     7
 74
     2
 91
        2
 64
     7
 65
   257
 75
     2
175
     1
 42
40.0
 92
        0
 66
   257
 43
1.0
 76
     1
 77
     6
 78
     2
 67
     7
 79
     3
170
     0
171
     0
290
     0
174
     0
 93
        1
 44
0.0
173
     0
291
     0
 45
0.0
1001
ACAD
1000
AcDbSavedByObjectVersion
1070
     0
  0
VISUALSTYLE
  5
30
102
{ACAD_REACTORS
330
2A
102
}
330
2A
100
AcDbVisualStyle
  2
3dWireframe
 70
     5
 71
     0
 72
     2
 73
     0
 90
        0
 40
-0.6
 41
-30.0
 62
     5
 63
     7
 74
     1
 91
        4
 64
     7
 65
   257
 75
     1
175
     1
 42
1.0
 92
        0
 66
   257
 43
1.0
 76
     1
 77
     6
 78
     2
 67
     7
 79
     5
170
     0
171
     0
290
     0
174
     0
 93
        1
 44
0.0
173
     0
291
     0
 45
0.0
1001
ACAD
1000
AcDbSavedByObjectVersion
1070
     0
  0
VISUALSTYLE
  5
32
102
{ACAD_REACTORS
330
2A
102
}
330
2A
100
AcDbVisualStyle
  2
Basic
 70
     7
 71
     1
 72
     0
 73
     1
 90
        0
 40
-0.6
 41
-30.0
 62
     5
 63
     7
 74
     0
 91
        4
 64
     7
 65
   257
 75
     1
175
     1
 42
1.0
 92
        8
 66
     7
 43
1.0
 76
     1
 77
     6
 78
     2
 67
     7
 79
     5
170
     0
171
     0
290
     0
174
     0
 93
        1
 44
0.0
173
     0
291
     1
 45
0.0
1001
ACAD
1000
AcDbSavedByObjectVersion
1070
     0
  0
VISUALSTYLE
  5
36
102
{ACAD_REACTORS
330
2A
102
}
330
2A
100
AcDbVisualStyle
  2
Brighten
 70
    12
 71
     2
 72
     2
 73
     0
 90
        0
 40
-0.6
 41
-30.0
 62
     5
 63
     7
 74
     1
 91
        4
 64
     7
 65
   257
 75
     1
175
     1
 42
1.0
 92
        8
 66
     7
 43
1.0
 76
     1
 77
     6
 78
     2
 67
     7
 79
     5
170
     0
171
     0
290
     0
174
     0
 93
        1
 44
50.0
173
     0
291
     1
 45
0.0
1001
ACAD
1000
AcDbSavedByObjectVersion
1070
     0
  0
VISUALSTYLE
  5
3A
102
{ACAD_REACTORS
330
2A
102
}
330
2A
100
AcDbVisualStyle
  2
ColorChange
 70
    16
 71
     2
 72
     2
 73
     3
 90
        0
 40
-0.6
 41
-30.0
 62
     5
 63
     8
 74
     1
 91
        4
 64
     7
 65
   257
 75
     1
175
     1
 42
1.0
 92
        8
 66
     8
 43
1.0
 76
     1
 77
     6
 78
     2
 67
     7
 79
     5
170
     0
171
     0
290
     0
174
     0
 93
        1
 44
0.0
173
     0
291
     1
 45
0.0
1001
ACAD
1000
AcDbSavedByObjectVersion
1070
     0
  0
VISUALSTYLE
  5
34
102
{ACAD_REACTORS
330
2A
102
}
330
2A
100
AcDbVisualStyle
  2
Conceptual
 70
     9
 71
     3
 72
     2
 73
     0
 90
        0
 40
-0.6
 41
-30.0
 62
     5
 63
     7
 74
     2
 91
        2
 64
     7
 65
   257
 75
     1
175
     1
 42
40.0
 92
        8
 66
     7
 43
1.0
 76
     1
 77
     6
 78
     2
 67
     7
 79
     3
170
     0
171
     0
290
     0
174
     0
 93
        1
 44
0.0
173
     0
291
     0
 45
0.0
1001
ACAD
1000
AcDbSavedByObjectVersion
1070
     0
  0
VISUALSTYLE
  5
35
102
{ACAD_REACTORS
330
2A
102
}
330
2A
100
AcDbVisualStyle
  2
Dim
 70
    11
 71
     2
 72
     2
 73
     0
 90
        0
 40
-0.6
 41
-30.0
 62
     5
 63
     7
 74
     1
 91
        4
 64
     7
 65
   257
 75
     1
175
     1
 42
1.0
 92
        8
 66
     7
 43
1.0
 76
     1
 77
     6
 78
     2
 67
     7
 79
     5
170
     0
171
     0
290
     0
174
     0
 93
        1
 44
-50.0
173
     0
291
     1
 45
0.0
1001
ACAD
1000
AcDbSavedByObjectVersion
1070
     0
  0
VISUALSTYLE
  5
39
102
{ACAD_REACTORS
330
2A
102
}
330
2A
100
AcDbVisualStyle
  2
Facepattern
 70
    15
 71
     2
 72
     2
 73
     0
 90
        0
 40
-0.6
 41
-30.0
 62
     5
 63
     7
 74
     1
 91
        4
 64
     7
 65
   257
 75
     1
175
     1
 42
1.0
 92
        8
 66
     7
 43
1.0
 76
     1
 77
     6
 78
     2
 67
     7
 79
     5
170
     0
171
     0
290
     0
174
     0
 93
        1
 44
0.0
173
     0
291
     1
 45
0.0
1001
ACAD
1000
AcDbSavedByObjectVersion
1070
     0
  0
VISUALSTYLE
  5
2B
102
{ACAD_REACTORS
330
2A
102
}
330
2A
100
AcDbVisualStyle
  2
Flat
 70
     0
 71
     2
 72
     1
 73
     1
 90
        2
 40
-0.6
 41
30.0
 62
     5
 63
     7
 74
     0
 91
        4
 64
     7
 65
   257
 75
     1
175
     1
 42
1.0
 92
        8
 66
     7
 43
1.0
 76
     1
 77
     6
 78
     2
 67
     7
 79
     5
170
     0
171
     0
290
     0
174
     0
 93
       13
 44
0.0
173
     0
291
     1
 45
0.0
1001
ACAD
1000
AcDbSavedByObjectVersion
1070
     0
  0
VISUALSTYLE
  5
2C
102
{ACAD_REACTORS
330
2A
102
}
330
2A
100
AcDbVisualStyle
  2
FlatWithEdges
 70
     1
 71
     2
 72
     1
 73
     1
 90
        2
 40
-0.6
 41
30.0
 62
     5
 63
     7
 74
     1
 91
        4
 64
     7
 65
   257
 75
     1
175
     1
 42
1.0
 92
        0
 66
   257
 43
1.0
 76
     1
 77
     6
 78
     2
 67
     7
 79
     5
170
     0
171
     0
290
     0
174
     0
 93
       13
 44
0.0
173
     0
291
     1
 45
0.0
1001
ACAD
1000
AcDbSavedByObjectVersion
1070
     0
  0
VISUALSTYLE
  5
2D
102
{ACAD_REACTORS
330
2A
102
}
330
2A
100
AcDbVisualStyle
  2
Gouraud
 70
     2
 71
     2
 72
     2
 73
     1
 90
        2
 40
-0.6
 41
30.0
 62
     5
 63
     7
 74
     0
 91
        4
 64
     7
 65
   257
 75
     1
175
     1
 42
1.0
 92
        0
 66
     7
 43
1.0
 76
     1
 77
     6
 78
     2
 67
     7
 79
     5
170
     0
171
     0
290
     0
174
     0
 93
       13
 44
0.0
173
     0
291
     1
 45
0.0
1001
ACAD
1000
AcDbSavedByObjectVersion
1070
     0
  0
VISUALSTYLE
  5
2E
102
{ACAD_REACTORS
330
2A
102
}
330
2A
100
AcDbVisualStyle
  2
GouraudWithEdges
 70
     3
 71
     2
 72
     2
 73
     1
 90
        2
 40
-0.6
 41
30.0
 62
     5
 63
     7
 74
     1
 91
        4
 64
     7
 65
   257
 75
     1
175
     1
 42
1.0
 92
        0
 66
   257
 43
1.0
 76
     1
 77
     6
 78
     2
 67
     7
 79
     5
170
     0
171
     0
290
     0
174
     0
 93
       13
 44
0.0
173
     0
291
     1
 45
0.0
1001
ACAD
1000
AcDbSavedByObjectVersion
1070
     0
  0
VISUALSTYLE
  5
38
102
{ACAD_REACTORS
330
2A
102
}
330
2A
100
AcDbVisualStyle
  2
Linepattern
 70
    14
 71
     2
 72
     2
 73
     0
 90
        0
 40
-0.6
 41
-30.0
 62
     5
 63
     7
 74
     1
 91
        4
 64
     7
 65
   257
 75
     7
175
     7
 42
1.0
 92
        8
 66
     7
 43
1.0
 76
     1
 77
     6
 78
     2
 67
     7
 79
     5
170
     0
171
     0
290
     0
174
     0
 93
        1
 44
0.0
173
     0
291
     1
 45
0.0
1001
ACAD
1000
AcDbSavedByObjectVersion
1070
     0
  0
VISUALSTYLE
  5
33
102
{ACAD_REACTORS
330
2A
102
}
330
2A
100
AcDbVisualStyle
  2
Realistic
 70
     8
 71
     2
 72
     2
 73
     0
 90
        0
 40
-0.6
 41
-30.0
 62
     5
 63
     7
 74
     1
 91
        0
 64
     7
 65
   257
 75
     1
175
     1
 42
1.0
 92
        8
 66
     8
 43
1.0
 76
     1
 77
     6
 78
     2
 67
     7
 79
     5
170
     0
171
     0
290
     0
174
     0
 93
       13
 44
0.0
173
     0
291
     0
 45
0.0
1001
ACAD
1000
AcDbSavedByObjectVersion
1070
     0
  0
VISUALSTYLE
  5
37
102
{ACAD_REACTORS
330
2A
102
}
330
2A
100
AcDbVisualStyle
  2
Thicken
 70
    13
 71
     2
 72
     2
 73
     0
 90
        0
 40
-0.6
 41
-30.0
 62
     5
 63
     7
 74
     1
 91
        4
 64
     7
 65
   257
 75
     1
175
     1
 42
1.0
 92
       12
 66
     7
 43
1.0
 76
     1
 77
     6
 78
     2
 67
     7
 79
     5
170
     0
171
     0
290
     0
174
     0
 93
        1
 44
0.0
173
     0
291
     1
 45
0.0
1001
ACAD
1000
AcDbSavedByObjectVersion
1070
     0
  0
DICTIONARYVAR
  5
16B
102
{ACAD_REACTORS
330
16A
102
}
330
16A
100
DictionaryVariables
280
     0
  1
1:1
  0
DICTIONARYVAR
  5
16F
102
{ACAD_REACTORS
330
16A
102
}
330
16A
100
DictionaryVariables
280
     0
  1
80.000000
  0
DICTIONARYVAR
  5
16E
102
{ACAD_REACTORS
330
16A
102
}
330
16A
100
DictionaryVariables
280
     0
  1
5.000000
  0
ENDSEC
  0
EOF
