  0
SECTION
  2
HEADER
  9
$ACADVER
  1
AC1015
  9
$ACADMAINTVER
 70
     6
  9
$DWGCODEPAGE
  3
ANSI_1252
  9
$INSBASE
 10
0.0
 20
0.0
 30
0.0
  9
$EXTMIN
 10
0.0
 20
0.0
 30
0.0
  9
$EXTMAX
 10
1682.0
 20
2378.0
 30
0.0
  9
$LIMMIN
 10
0.0
 20
0.0
  9
$LIMMAX
 10
1682.0
 20
2378.0
  9
$ORTHOMODE
 70
     0
  9
$REGENMODE
 70
     1
  9
$FILLMODE
 70
     1
  9
$QTEXTMODE
 70
     0
  9
$MIRRTEXT
 70
     1
  9
$LTSCALE
 40
1.0
  9
$ATTMODE
 70
     1
  9
$TEXTSIZE
 40
2.5
  9
$TRACEWID
 40
1.0
  9
$TEXTSTYLE
  7
Standard
  9
$CLAYER
  8
0
  9
$CELTYPE
  6
ByLayer
  9
$CECOLOR
 62
   256
  9
$CELTSCALE
 40
1.0
  9
$DISPSILH
 70
     0
  9
$DIMSCALE
 40
1.0
  9
$DIMASZ
 40
2.5
  9
$DIMEXO
 40
0.625
  9
$DIMDLI
 40
3.75
  9
$DIMRND
 40
0.0
  9
$DIMDLE
 40
0.0
  9
$DIMEXE
 40
1.25
  9
$DIMTP
 40
0.0
  9
$DIMTM
 40
0.0
  9
$DIMTXT
 40
2.5
  9
$DIMCEN
 40
2.5
  9
$DIMTSZ
 40
0.0
  9
$DIMTOL
 70
     0
  9
$DIMLIM
 70
     0
  9
$DIMTIH
 70
     0
  9
$DIMTOH
 70
     0
  9
$DIMSE1
 70
     0
  9
$DIMSE2
 70
     0
  9
$DIMTAD
 70
     1
  9
$DIMZIN
 70
     8
  9
$DIMBLK
  1

  9
$DIMASO
 70
     1
  9
$DIMSHO
 70
     1
  9
$DIMPOST
  1

  9
$DIMAPOST
  1

  9
$DIMALT
 70
     0
  9
$DIMALTD
 70
     3
  9
$DIMALTF
 40
0.0393700787
  9
$DIMLFAC
 40
1.0
  9
$DIMTOFL
 70
     1
  9
$DIMTVP
 40
0.0
  9
$DIMTIX
 70
     0
  9
$DIMSOXD
 70
     0
  9
$DIMSAH
 70
     0
  9
$DIMBLK1
  1

  9
$DIMBLK2
  1

  9
$DIMSTYLE
  2
ISO-25
  9
$DIMCLRD
 70
     0
  9
$DIMCLRE
 70
     0
  9
$DIMCLRT
 70
     0
  9
$DIMTFAC
 40
1.0
  9
$DIMGAP
 40
0.625
  9
$DIMJUST
 70
     0
  9
$DIMSD1
 70
     0
  9
$DIMSD2
 70
     0
  9
$DIMTOLJ
 70
     0
  9
$DIMTZIN
 70
     8
  9
$DIMALTZ
 70
     0
  9
$DIMALTTZ
 70
     0
  9
$DIMUPT
 70
     0
  9
$DIMDEC
 70
     2
  9
$DIMTDEC
 70
     2
  9
$DIMALTU
 70
     2
  9
$DIMALTTD
 70
     3
  9
$DIMTXSTY
  7
Standard
  9
$DIMAUNIT
 70
     0
  9
$DIMADEC
 70
     0
  9
$DIMALTRND
 40
0.0
  9
$DIMAZIN
 70
     0
  9
$DIMDSEP
 70
    44
  9
$DIMATFIT
 70
     3
  9
$DIMFRAC
 70
     0
  9
$DIMLDRBLK
  1

  9
$DIMLUNIT
 70
     2
  9
$DIMLWD
 70
    -2
  9
$DIMLWE
 70
    -2
  9
$DIMTMOVE
 70
     0
  9
$LUNITS
 70
     2
  9
$LUPREC
 70
     4
  9
$SKETCHINC
 40
1.0
  9
$FILLETRAD
 40
10.0
  9
$AUNITS
 70
     0
  9
$AUPREC
 70
     0
  9
$MENU
  1
.
  9
$ELEVATION
 40
0.0
  9
$PELEVATION
 40
0.0
  9
$THICKNESS
 40
0.0
  9
$LIMCHECK
 70
     0
  9
$CHAMFERA
 40
10.0
  9
$CHAMFERB
 40
10.0
  9
$CHAMFERC
 40
20.0
  9
$CHAMFERD
 40
0.0
  9
$SKPOLY
 70
     0
  9
$TDCREATE
 40
2455133.596583148
  9
$TDUCREATE
 40
2455133.554916481
  9
$TDUPDATE
 40
2455133.59658316
  9
$TDUUPDATE
 40
2455133.554916493
  9
$TDINDWG
 40
0.0000000116
  9
$TDUSRTIMER
 40
0.0000000116
  9
$USRTIMER
 70
     1
  9
$ANGBASE
 50
0.0
  9
$ANGDIR
 70
     0
  9
$PDMODE
 70
     0
  9
$PDSIZE
 40
0.0
  9
$PLINEWID
 40
0.0
  9
$SPLFRAME
 70
     0
  9
$SPLINETYPE
 70
     6
  9
$SPLINESEGS
 70
     8
  9
$HANDSEED
  5
120
  9
$SURFTAB1
 70
     6
  9
$SURFTAB2
 70
     6
  9
$SURFTYPE
 70
     6
  9
$SURFU
 70
     6
  9
$SURFV
 70
     6
  9
$UCSBASE
  2

  9
$UCSNAME
  2

  9
$UCSORG
 10
0.0
 20
0.0
 30
0.0
  9
$UCSXDIR
 10
1.0
 20
0.0
 30
0.0
  9
$UCSYDIR
 10
0.0
 20
1.0
 30
0.0
  9
$UCSORTHOREF
  2

  9
$UCSORTHOVIEW
 70
     0
  9
$UCSORGTOP
 10
0.0
 20
0.0
 30
0.0
  9
$UCSORGBOTTOM
 10
0.0
 20
0.0
 30
0.0
  9
$UCSORGLEFT
 10
0.0
 20
0.0
 30
0.0
  9
$UCSORGRIGHT
 10
0.0
 20
0.0
 30
0.0
  9
$UCSORGFRONT
 10
0.0
 20
0.0
 30
0.0
  9
$UCSORGBACK
 10
0.0
 20
0.0
 30
0.0
  9
$PUCSBASE
  2

  9
$PUCSNAME
  2

  9
$PUCSORG
 10
0.0
 20
0.0
 30
0.0
  9
$PUCSXDIR
 10
1.0
 20
0.0
 30
0.0
  9
$PUCSYDIR
 10
0.0
 20
1.0
 30
0.0
  9
$PUCSORTHOREF
  2

  9
$PUCSORTHOVIEW
 70
     0
  9
$PUCSORGTOP
 10
0.0
 20
0.0
 30
0.0
  9
$PUCSORGBOTTOM
 10
0.0
 20
0.0
 30
0.0
  9
$PUCSORGLEFT
 10
0.0
 20
0.0
 30
0.0
  9
$PUCSORGRIGHT
 10
0.0
 20
0.0
 30
0.0
  9
$PUCSORGFRONT
 10
0.0
 20
0.0
 30
0.0
  9
$PUCSORGBACK
 10
0.0
 20
0.0
 30
0.0
  9
$USERI1
 70
     0
  9
$USERI2
 70
     0
  9
$USERI3
 70
     0
  9
$USERI4
 70
     0
  9
$USERI5
 70
     0
  9
$USERR1
 40
0.0
  9
$USERR2
 40
0.0
  9
$USERR3
 40
0.0
  9
$USERR4
 40
0.0
  9
$USERR5
 40
0.0
  9
$WORLDVIEW
 70
     1
  9
$SHADEDGE
 70
     3
  9
$SHADEDIF
 70
    70
  9
$TILEMODE
 70
     1
  9
$MAXACTVP
 70
    64
  9
$PINSBASE
 10
0.0
 20
0.0
 30
0.0
  9
$PLIMCHECK
 70
     0
  9
$PEXTMIN
 10
0.0
 20
0.0
 30
0.0
  9
$PEXTMAX
 10
1682.0
 20
2378.0
 30
0.0
  9
$PLIMMIN
 10
0.0
 20
0.0
  9
$PLIMMAX
 10
1682.0
 20
2378.0
  9
$UNITMODE
 70
     0
  9
$VISRETAIN
 70
     1
  9
$PLINEGEN
 70
     0
  9
$PSLTSCALE
 70
     1
  9
$TREEDEPTH
 70
  3020
  9
$CMLSTYLE
  2
Standard
  9
$CMLJUST
 70
     0
  9
$CMLSCALE
 40
20.0
  9
$PROXYGRAPHICS
 70
     1
  9
$MEASUREMENT
 70
     1
  9
$CELWEIGHT
370
    -1
  9
$ENDCAPS
280
     0
  9
$JOINSTYLE
280
     0
  9
$LWDISPLAY
290
     0
  9
$INSUNITS
 70
     4
  9
$HYPERLINKBASE
  1

  9
$STYLESHEET
  1

  9
$XEDIT
290
     1
  9
$CEPSNTYPE
380
     0
  9
$PSTYLEMODE
290
     1
  9
$FINGERPRINTGUID
  2
{713424B4-6005-43A5-A764-B08E52ABA20D}
  9
$VERSIONGUID
  2
{FAEB1C32-E019-11D5-929B-00C0DF256EC4}
  9
$EXTNAMES
290
     1
  9
$PSVPSCALE
 40
0.0
  9
$OLESTARTUP
290
     0
  0
ENDSEC
  0
SECTION
  2
CLASSES
  0
CLASS
  1
ACDBDICTIONARYWDFLT
  2
AcDbDictionaryWithDefault
  3
ObjectDBX Classes
 90
        0
280
     0
281
     0
  0
CLASS
  1
VISUALSTYLE
  2
AcDbVisualStyle
  3
ObjectDBX Classes
 90
     4095
280
     0
281
     0
  0
CLASS
  1
SCALE
  2
AcDbScale
  3
ObjectDBX Classes
 90
     1153
280
     0
281
     0
  0
CLASS
  1
DICTIONARYVAR
  2
AcDbDictionaryVar
  3
ObjectDBX Classes
 90
        0
280
     0
281
     0
  0
CLASS
  1
ACDBPLACEHOLDER
  2
AcDbPlaceHolder
  3
ObjectDBX Classes
 90
        0
280
     0
281
     0
  0
CLASS
  1
LAYOUT
  2
AcDbLayout
  3
ObjectDBX Classes
 90
        0
280
     0
281
     0
  0
ENDSEC
  0
SECTION
  2
TABLES
  0
TABLE
  2
VPORT
  5
8
330
0
100
AcDbSymbolTable
 70
     1
  0
VPORT
  5
29
330
8
100
AcDbSymbolTableRecord
100
AcDbViewportTableRecord
  2
*Active
 70
     0
 10
0.0
 20
0.0
 11
1.0
 21
1.0
 12
344.1869158879
 22
148.5
 13
0.0
 23
0.0
 14
10.0
 24
10.0
 15
10.0
 25
10.0
 16
0.0
 26
0.0
 36
1.0
 17
0.0
 27
0.0
 37
0.0
 40
297.0
 41
1.9729729729
 42
50.0
 43
0.0
 44
0.0
 50
0.0
 51
0.0
 71
     0
 72
   100
 73
     1
 74
     3
 75
     0
 76
     0
 77
     0
 78
     0
281
     0
 65
     1
110
0.0
120
0.0
130
0.0
111
1.0
121
0.0
131
0.0
112
0.0
122
1.0
132
0.0
 79
     0
146
0.0
  0
ENDTAB
  0
TABLE
  2
LTYPE
  5
5
330
0
100
AcDbSymbolTable
 70
     1
  0
LTYPE
  5
14
330
5
100
AcDbSymbolTableRecord
100
AcDbLinetypeTableRecord
  2
ByBlock
 70
     0
  3

 72
    65
 73
     0
 40
0.0
  0
LTYPE
  5
15
330
5
100
AcDbSymbolTableRecord
100
AcDbLinetypeTableRecord
  2
ByLayer
 70
     0
  3

 72
    65
 73
     0
 40
0.0
  0
LTYPE
  5
16
330
5
100
AcDbSymbolTableRecord
100
AcDbLinetypeTableRecord
  2
Continuous
 70
     0
  3
Solid line
 72
    65
 73
     0
 40
0.0
  0
ENDTAB
  0
TABLE
  2
LAYER
  5
2
330
0
100
AcDbSymbolTable
 70
     9
  0
LAYER
  5
10
330
2
100
AcDbSymbolTableRecord
100
AcDbLayerTableRecord
  2
0
 70
     0
 62
     7
  6
Continuous
370
    -3
390
F
  0
LAYER
  5
5D
330
2
100
AcDbSymbolTableRecord
100
AcDbLayerTableRecord
  2
Default
 70
     0
 62
     7
  6
Continuous
370
    -3
390
F
  0
LAYER
  5
60
330
2
100
AcDbSymbolTableRecord
100
AcDbLayerTableRecord
  2
$DDT_AUDIT_GENERATED_(60)
 70
     0
 62
     7
  6
Continuous
370
    -3
390
F
  0
LAYER
  5
66
330
2
100
AcDbSymbolTableRecord
100
AcDbLayerTableRecord
  2
$DDT_AUDIT_GENERATED_(66)
 70
     0
 62
     7
  6
Continuous
370
    -3
390
F
  0
LAYER
  5
69
330
2
100
AcDbSymbolTableRecord
100
AcDbLayerTableRecord
  2
$DDT_AUDIT_GENERATED_(69)
 70
     0
 62
     7
  6
Continuous
370
    -3
390
F
  0
LAYER
  5
6C
330
2
100
AcDbSymbolTableRecord
100
AcDbLayerTableRecord
  2
$DDT_AUDIT_GENERATED_(6C)
 70
     0
 62
     7
  6
Continuous
370
    -3
390
F
  0
LAYER
  5
73
330
2
100
AcDbSymbolTableRecord
100
AcDbLayerTableRecord
  2
$DDT_AUDIT_GENERATED_(73)
 70
     0
 62
     7
  6
Continuous
370
    -3
390
F
  0
LAYER
  5
7A
330
2
100
AcDbSymbolTableRecord
100
AcDbLayerTableRecord
  2
$DDT_AUDIT_GENERATED_(7A)
 70
     0
 62
     7
  6
Continuous
370
    -3
390
F
  0
LAYER
  5
9E
330
2
100
AcDbSymbolTableRecord
100
AcDbLayerTableRecord
  2
$DDT_AUDIT_GENERATED_(9E)
 70
     0
 62
     7
  6
Continuous
370
    -3
390
F
  0
ENDTAB
  0
TABLE
  2
STYLE
  5
3
330
0
100
AcDbSymbolTable
 70
     2
  0
STYLE
  5
11
330
3
100
AcDbSymbolTableRecord
100
AcDbTextStyleTableRecord
  2
Standard
 70
     0
 40
0.0
 41
1.0
 50
0.0
 71
     0
 42
2.5
  3
txt
  4

  0
STYLE
  5
10F
330
3
100
AcDbSymbolTableRecord
100
AcDbTextStyleTableRecord
  2
SEACAD_seiso_ttf
 70
     0
 40
0.0
 41
1.0
 50
0.0
 71
     0
 42
0.2
  3
seiso.ttf
  4

  0
ENDTAB
  0
TABLE
  2
VIEW
  5
6
330
0
100
AcDbSymbolTable
 70
     0
  0
ENDTAB
  0
TABLE
  2
UCS
  5
7
330
0
100
AcDbSymbolTable
 70
     0
  0
ENDTAB
  0
TABLE
  2
APPID
  5
9
330
0
100
AcDbSymbolTable
 70
     1
  0
APPID
  5
12
330
9
100
AcDbSymbolTableRecord
100
AcDbRegAppTableRecord
  2
ACAD
 70
     0
  0
ENDTAB
  0
TABLE
  2
DIMSTYLE
  5
A
330
0
100
AcDbSymbolTable
 70
     1
100
AcDbDimStyleTable
  0
DIMSTYLE
105
27
330
A
100
AcDbSymbolTableRecord
100
AcDbDimStyleTableRecord
  2
ISO-25
 70
     0
 41
2.5
 42
0.625
 43
3.75
 44
1.25
 73
     0
 74
     0
 77
     1
 78
     8
140
2.5
141
2.5
143
0.0393700787
147
0.625
171
     3
172
     1
271
     2
272
     2
274
     3
278
    44
283
     0
284
     8
340
11
  0
ENDTAB
  0
TABLE
  2
BLOCK_RECORD
  5
1
330
0
100
AcDbSymbolTable
 70
     4
  0
BLOCK_RECORD
  5
1F
330
1
100
AcDbSymbolTableRecord
100
AcDbBlockTableRecord
  2
*Model_Space
340
22
  0
BLOCK_RECORD
  5
1B
330
1
100
AcDbSymbolTableRecord
100
AcDbBlockTableRecord
  2
*Paper_Space
340
1E
  0
BLOCK_RECORD
  5
5E
330
1
100
AcDbSymbolTableRecord
100
AcDbBlockTableRecord
  2
SE
340
0
102
{BLKREFS
331
5F
102
}
  0
BLOCK_RECORD
  5
95
330
1
100
AcDbSymbolTableRecord
100
AcDbBlockTableRecord
  2
SE1
340
0
102
{BLKREFS
331
96
102
}
  0
BLOCK_RECORD
  5
CD
330
1
100
AcDbSymbolTableRecord
100
AcDbBlockTableRecord
  2
SE2
340
0
102
{BLKREFS
331
CE
102
}
  0
ENDTAB
  0
ENDSEC
  0
SECTION
  2
BLOCKS
  0
BLOCK
  5
20
330
1F
100
AcDbEntity
  8
0
100
AcDbBlockBegin
  2
*Model_Space
 70
     0
 10
0.0
 20
0.0
 30
0.0
  3
*Model_Space
  1

  0
ENDBLK
  5
21
330
1F
100
AcDbEntity
  8
0
100
AcDbBlockEnd
  0
BLOCK
  5
1C
330
1B
100
AcDbEntity
 67
     1
  8
0
100
AcDbBlockBegin
  2
*Paper_Space
 70
     0
 10
0.0
 20
0.0
 30
0.0
  3
*Paper_Space
  1

  0
ENDBLK
  5
1D
330
1B
100
AcDbEntity
 67
     1
  8
0
100
AcDbBlockEnd
  0
BLOCK
  5
93
330
5E
100
AcDbEntity
  8
0
100
AcDbBlockBegin
  2
SE
 70
     0
 10
0.0
 20
0.0
 30
0.0
  3
SE
  1

  0
ARC
  5
61
330
5E
100
AcDbEntity
  8
$DDT_AUDIT_GENERATED_(60)
  6
Continuous
 62
     7
100
AcDbCircle
 10
99.2062606913
 20
301.2159526626
 30
0.0
 40
24.7499999999987
100
AcDbArc
 50
11.6341545503
 51
168.4427475964
  0
ARC
  5
62
330
5E
100
AcDbEntity
  8
$DDT_AUDIT_GENERATED_(60)
  6
Continuous
 62
     7
100
AcDbCircle
 10
99.2062606913
 20
301.2159526626
 30
0.0
 40
24.7499999999987
100
AcDbArc
 50
191.6393312635
 51
348.4279265005
  0
SPLINE
  5
63
330
5E
100
AcDbEntity
  8
$DDT_AUDIT_GENERATED_(60)
  6
Continuous
 62
     7
100
AcDbSpline
210
0.0
220
0.0
230
1.0
 70
     8
 71
     3
 72
    14
 73
    10
 74
     0
 42
0.0000000000527507
 43
0.0000000001
 40
0.0
 40
0.0
 40
0.0
 40
0.0
 40
0.0625
 40
0.0625
 40
0.125
 40
0.125
 40
0.1875
 40
0.1875
 40
0.2233470693440825
 40
0.2233470693440825
 40
0.2233470693440825
 40
0.2233470693440825
 10
99.20625623638489
 20
331.2159585293163
 30
0.0
 10
103.1332507482533
 20
331.2159615209111
 30
0.0
 10
107.0587007503028
 20
330.4351440767099
 30
0.0
 10
114.314842747569
 20
327.429558127095
 30
0.0
 10
117.6426797607616
 20
325.205972191408
 30
0.0
 10
123.1962928895645
 20
319.652367524113
 30
0.0
 10
125.4198838955592
 20
316.3245338987916
 30
0.0
 10
127.7846171522128
 20
310.6155751002999
 30
0.0
 10
128.4090486965678
 20
308.4368579094287
 30
0.0
 10
128.7848742160143
 20
306.2161310161299
 30
0.0
  0
SPLINE
  5
64
330
5E
100
AcDbEntity
  8
$DDT_AUDIT_GENERATED_(60)
  6
Continuous
 62
     7
100
AcDbSpline
210
0.0
220
0.0
230
1.0
 70
     8
 71
     3
 72
    22
 73
    18
 74
     0
 42
0.0000000000527507
 43
0.0000000001
 40
0.2766020682309551
 40
0.2766020682309551
 40
0.2766020682309551
 40
0.2766020682309551
 40
0.3125
 40
0.3125
 40
0.375
 40
0.375
 40
0.4375
 40
0.4375
 40
0.5
 40
0.5
 40
0.5625
 40
0.5625
 40
0.625
 40
0.625
 40
0.6875
 40
0.6875
 40
0.7233474025262812
 40
0.7233474025262812
 40
0.7233474025262812
 40
0.7233474025262812
 10
128.7864800640082
 20
296.2252276966971
 30
0.0
 10
128.4108311884504
 20
294.001230033035
 30
0.0
 10
127.7858544446468
 20
291.8192815666486
 30
0.0
 10
125.4199069150772
 20
286.1073666454205
 30
0.0
 10
123.1963209793901
 20
282.779529632228
 30
0.0
 10
117.6427163120951
 20
277.2259165034251
 30
0.0
 10
114.3148826867737
 20
275.0023254974304
 30
0.0
 10
107.0587452688426
 20
271.9967284923227
 30
0.0
 10
103.1332964564552
 20
271.215905067286
 30
0.0
 10
95.27930743271847
 20
271.2158990840964
 30
0.0
 10
91.35385743066888
 20
271.9967165282976
 30
0.0
 10
84.09771543340268
 20
275.0023024779124
 30
0.0
 10
80.76987842021009
 20
277.2258884135995
 30
0.0
 10
75.21626529140718
 20
282.7794930808945
 30
0.0
 10
72.99267428541256
 20
286.1073267062159
 30
0.0
 10
70.62793301746761
 20
291.8163048456341
 30
0.0
 10
70.00349787681024
 20
293.9950431959571
 30
0.0
 10
69.62767348564022
 20
296.2157915108265
 30
0.0
  0
SPLINE
  5
65
330
5E
100
AcDbEntity
  8
$DDT_AUDIT_GENERATED_(60)
  6
Continuous
 62
     7
100
AcDbSpline
210
0.0
220
0.0
230
1.0
 70
     8
 71
     3
 72
    14
 73
    10
 74
     0
 42
0.0000000000527507
 43
0.0000000001
 40
0.7766013988938055
 40
0.7766013988938055
 40
0.7766013988938055
 40
0.7766013988938055
 40
0.8125
 40
0.8125
 40
0.875
 40
0.875
 40
0.9375
 40
0.9375
 40
1.0
 40
1.0
 40
1.0
 40
1.0
 10
69.62605710466921
 20
306.2065085052006
 30
0.0
 10
70.00170368651759
 20
308.430549204623
 30
0.0
 10
70.62668764232221
 20
310.6125401839157
 30
0.0
 10
72.99265126589451
 20
316.324493959587
 30
0.0
 10
75.21623720158159
 20
319.6523309727795
 30
0.0
 10
80.76984186887658
 20
325.2059441015824
 30
0.0
 10
84.09767549419797
 20
327.4295351075771
 30
0.0
 10
91.35381291212909
 20
330.4351321126848
 30
0.0
 10
95.2792617245165
 20
331.2159555377215
 30
0.0
 10
99.20625623638489
 20
331.2159585293163
 30
0.0
  0
LINE
  5
67
330
5E
100
AcDbEntity
  8
$DDT_AUDIT_GENERATED_(66)
  6
Continuous
 62
     7
100
AcDbLine
 10
136.2561025869
 20
234.7009772036
 30
0.0
 11
137.0561025869
 21
234.7009772036
 31
0.0
  0
LINE
  5
68
330
5E
100
AcDbEntity
  8
$DDT_AUDIT_GENERATED_(66)
  6
Continuous
 62
     7
100
AcDbLine
 10
136.2561025869
 20
224.7006390722
 30
0.0
 11
137.0561025869
 21
224.7006390722
 31
0.0
  0
LINE
  5
6A
330
5E
100
AcDbEntity
  8
$DDT_AUDIT_GENERATED_(69)
  6
Continuous
 62
     7
100
AcDbLine
 10
137.0561025869
 20
296.2157835968
 30
0.0
 11
136.2561025869
 21
296.2157835968
 31
0.0
  0
LINE
  5
6B
330
5E
100
AcDbEntity
  8
$DDT_AUDIT_GENERATED_(69)
  6
Continuous
 62
     7
100
AcDbLine
 10
137.0561025869
 20
306.2161217282
 30
0.0
 11
136.2561025869
 21
306.2161217282
 31
0.0
  0
SPLINE
  5
6D
330
5E
100
AcDbEntity
  8
$DDT_AUDIT_GENERATED_(6C)
  6
Continuous
 62
     7
100
AcDbSpline
210
0.0
220
0.0
230
1.0
 70
     8
 71
     3
 72
    26
 73
    22
 74
     0
 42
0.0000000000778216
 43
0.0000000001
 40
0.0
 40
0.0
 40
0.0
 40
0.0
 40
0.03125
 40
0.0625
 40
0.125
 40
0.1875
 40
0.25
 40
0.3125
 40
0.375
 40
0.4375
 40
0.46875
 40
0.53125
 40
0.59375
 40
0.65625
 40
0.71875
 40
0.78125
 40
0.84375
 40
0.90625
 40
0.9375
 40
0.96875
 40
1.0
 40
1.0
 40
1.0
 40
1.0
 10
152.0561023006851
 20
224.7055966167969
 30
0.0
 10
153.3080027100755
 20
224.7084870821022
 30
0.0
 10
156.055736615128
 20
224.8525191107226
 30
0.0
 10
161.3372241695418
 20
225.635953708889
 30
0.0
 10
167.747417651346
 20
227.5788167108058
 30
0.0
 10
174.8359070752529
 20
231.369756248375
 30
0.0
 10
181.04971597792
 20
236.4671281420242
 30
0.0
 10
186.1485819395845
 20
242.6824311126754
 30
0.0
 10
189.9380274099824
 20
249.7694264694037
 30
0.0
 10
191.8821354707661
 20
256.1808650079568
 30
0.0
 10
192.8609306945892
 20
262.7822263142856
 30
0.0
 10
192.8625075883702
 20
269.4803819459484
 30
0.0
 10
191.2924845947381
 20
277.3640945580964
 30
0.0
 10
188.2183774994383
 20
284.7900277708497
 30
0.0
 10
183.7508261696564
 20
291.4735454285931
 30
0.0
 10
178.0690123668088
 20
297.1570650679849
 30
0.0
 10
171.3837888722711
 20
301.6229105615326
 30
0.0
 10
165.1969327241719
 20
304.1860880060691
 30
0.0
 10
160.0168522809469
 20
305.4828820745612
 30
0.0
 10
156.0557366151361
 20
306.0704580231867
 30
0.0
 10
153.3080027100839
 20
306.214490051808
 30
0.0
 10
152.0561022748812
 20
306.2173805209348
 30
0.0
  0
LINE
  5
6E
330
5E
100
AcDbEntity
  8
$DDT_AUDIT_GENERATED_(6C)
  6
Continuous
 62
     7
100
AcDbLine
 10
152.0561023007
 20
224.705470407
 30
0.0
 11
137.0561028369
 21
224.705470407
 31
0.0
  0
SPLINE
  5
6F
330
5E
100
AcDbEntity
  8
$DDT_AUDIT_GENERATED_(6C)
  6
Continuous
 62
     7
100
AcDbSpline
210
0.0
220
0.0
230
1.0
 70
     8
 71
     3
 72
    22
 73
    18
 74
     0
 42
0.0000000001028421
 43
0.0000000001
 40
0.0
 40
0.0
 40
0.0
 40
0.0
 40
0.125
 40
0.125
 40
0.25
 40
0.25
 40
0.375
 40
0.375
 40
0.5
 40
0.5
 40
0.625
 40
0.625
 40
0.75
 40
0.75
 40
0.875
 40
0.875
 40
1.0
 40
1.0
 40
1.0
 40
1.0
 10
152.0561024858309
 20
234.7041178028498
 30
0.0
 10
156.0818739847468
 20
234.7032086927514
 30
0.0
 10
160.1059733848622
 20
235.5040550860626
 30
0.0
 10
167.5443738697726
 20
238.5858615161287
 30
0.0
 10
170.9557490794816
 20
240.8656093325047
 30
0.0
 10
176.6487355793369
 20
246.5592230671003
 30
0.0
 10
178.9281075483552
 20
249.9708494174708
 30
0.0
 10
182.0090944660879
 20
257.4095893819455
 30
0.0
 10
182.8094975167766
 20
261.4337769874301
 30
0.0
 10
182.8094974610186
 20
269.4853192400866
 30
0.0
 10
182.0090943545939
 20
273.5095068344855
 30
0.0
 10
178.9281073338327
 20
280.9482467562876
 30
0.0
 10
176.6487353175626
 20
284.3598730750883
 30
0.0
 10
170.9557487388492
 20
290.0534867308347
 30
0.0
 10
167.5443734975651
 20
292.3332344999622
 30
0.0
 10
160.1059729699708
 20
295.4150408270045
 30
0.0
 10
156.0818735587636
 20
296.2158871645809
 30
0.0
 10
152.056102114506
 20
296.2170448916036
 30
0.0
  0
LINE
  5
70
330
5E
100
AcDbEntity
  8
$DDT_AUDIT_GENERATED_(6C)
  6
Continuous
 62
     7
100
AcDbLine
 10
137.0561028369
 20
234.705470407
 30
0.0
 11
152.0561024858
 21
234.705470407
 31
0.0
  0
LINE
  5
71
330
5E
100
AcDbEntity
  8
$DDT_AUDIT_GENERATED_(6C)
  6
Continuous
 62
     7
100
AcDbLine
 10
137.0561025869
 20
306.2175067691
 30
0.0
 11
152.0561022749
 21
306.2175067691
 31
0.0
  0
LINE
  5
72
330
5E
100
AcDbEntity
  8
$DDT_AUDIT_GENERATED_(6C)
  6
Continuous
 62
     7
100
AcDbLine
 10
137.0561025869
 20
296.2177591803
 30
0.0
 11
152.0561021145
 21
296.2177591803
 31
0.0
  0
LINE
  5
74
330
5E
100
AcDbEntity
  8
$DDT_AUDIT_GENERATED_(73)
  6
Continuous
 62
     7
100
AcDbLine
 10
136.2561025869
 20
224.7023622384
 30
0.0
 11
47.156409722
 21
224.7023622023
 31
0.0
  0
LINE
  5
75
330
5E
100
AcDbEntity
  8
$DDT_AUDIT_GENERATED_(73)
  6
Continuous
 62
     7
100
AcDbLine
 10
136.2561025869
 20
234.7023593205
 30
0.0
 11
47.156409819
 21
234.7023592844
 31
0.0
  0
SPLINE
  5
76
330
5E
100
AcDbEntity
  8
$DDT_AUDIT_GENERATED_(73)
  6
Continuous
 62
     7
100
AcDbSpline
210
0.0
220
0.0
230
1.0
 70
     8
 71
     3
 72
    26
 73
    22
 74
     0
 42
0.0000000000778216
 43
0.0000000001
 40
0.0
 40
0.0
 40
0.0
 40
0.0
 40
0.03125
 40
0.0625
 40
0.09375
 40
0.15625
 40
0.21875
 40
0.28125
 40
0.34375
 40
0.40625
 40
0.46875
 40
0.53125
 40
0.5625
 40
0.625
 40
0.6875
 40
0.75
 40
0.8125
 40
0.875
 40
0.9375
 40
0.96875
 40
1.0
 40
1.0
 40
1.0
 40
1.0
 10
47.15640972196881
 20
224.7023622026846
 30
0.0
 10
45.90450964283408
 20
224.7053740156654
 30
0.0
 10
43.15677537890207
 20
224.8494060663351
 30
0.0
 10
39.19565923895838
 20
225.4369820852912
 30
0.0
 10
34.01557817569177
 20
226.7337763090057
 30
0.0
 10
27.82872128704338
 20
229.2969540603469
 30
0.0
 10
21.14349699230257
 20
233.7628000884437
 30
0.0
 10
15.46168250935777
 20
239.4463204081363
 30
0.0
 10
10.99413064482187
 20
246.129838865878
 30
0.0
 10
7.920023181560001
 20
253.5557729674942
 30
0.0
 10
6.349999999999994
 20
261.4394865233006
 30
0.0
 10
6.351576893969479
 20
268.1376429567136
 30
0.0
 10
7.33037223495138
 20
274.7390050532071
 30
0.0
 10
9.274480528438309
 20
281.1504443591913
 30
0.0
 10
13.0639264524228
 20
288.2374405642134
 30
0.0
 10
18.1627930244059
 20
294.452744278819
 30
0.0
 10
24.37660267084921
 20
299.5501167826098
 30
0.0
 10
31.46509294322711
 20
303.341056773944
 30
0.0
 10
37.87528719231432
 20
305.2839200084167
 30
0.0
 10
43.15677537890632
 20
306.067354700358
 30
0.0
 10
45.90450964283802
 20
306.2113867510269
 30
0.0
 10
47.15641013324615
 20
306.2146149486633
 30
0.0
  0
LINE
  5
77
330
5E
100
AcDbEntity
  8
$DDT_AUDIT_GENERATED_(73)
  6
Continuous
 62
     7
100
AcDbLine
 10
62.1564096358
 20
306.2148313331
 30
0.0
 11
47.1564101332
 21
306.2148313331
 31
0.0
  0
LINE
  5
78
330
5E
100
AcDbEntity
  8
$DDT_AUDIT_GENERATED_(73)
  6
Continuous
 62
     7
100
AcDbLine
 10
47.156409987
 20
296.2144932427
 30
0.0
 11
62.1564096358
 21
296.2144932427
 31
0.0
  0
ARC
  5
79
330
5E
100
AcDbEntity
  8
$DDT_AUDIT_GENERATED_(73)
  6
Continuous
 62
     7
100
AcDbCircle
 10
47.1563223478
 20
265.4583803833
 30
0.0
 40
30.85154940885009
100
AcDbArc
 50
89.9998372649
 51
270.0001625708
  0
ARC
  5
7B
330
5E
100
AcDbEntity
  8
$DDT_AUDIT_GENERATED_(7A)
  6
Continuous
 62
     7
100
AcDbCircle
 10
79.4892101626
 20
-15658.4626725457
 30
0.0
 40
15954.68804018558
100
AcDbArc
 50
90.0338985577
 51
90.0622448083
  0
ARC
  5
7C
330
5E
100
AcDbEntity
  8
$DDT_AUDIT_GENERATED_(7A)
  6
Continuous
 62
     7
100
AcDbCircle
 10
118.9233023102
 20
-15658.4626725461
 30
0.0
 40
15954.68804018607
100
AcDbArc
 50
89.9377551917
 51
89.9515538132
  0
ARC
  5
7D
330
5E
100
AcDbEntity
  8
$DDT_AUDIT_GENERATED_(7A)
  6
Continuous
 62
     7
100
AcDbCircle
 10
118.7668143803
 20
14289.3703573669
 30
0.0
 40
13983.16534197475
100
AcDbArc
 50
270.0394924706
 51
270.0716620763
  0
ARC
  5
7E
330
5E
100
AcDbEntity
  8
$DDT_AUDIT_GENERATED_(7A)
  6
Continuous
 62
     7
100
AcDbCircle
 10
79.6456980925
 20
14289.3703573588
 30
0.0
 40
13983.16534196668
100
AcDbArc
 50
269.9283379237
 51
269.9438833084
  0
ARC
  5
7F
330
5E
100
AcDbEntity
  8
$DDT_AUDIT_GENERATED_(7A)
  6
Continuous
 62
     7
100
AcDbCircle
 10
99.2113902182
 20
301.2181222006
 30
0.0
 40
20.65013906922868
100
AcDbArc
 50
194.0131378442
 51
247.4904528897
  0
SPLINE
  5
80
330
5E
100
AcDbEntity
  8
$DDT_AUDIT_GENERATED_(7A)
  6
Continuous
 62
     7
100
AcDbSpline
210
0.0
220
0.0
230
1.0
 70
     8
 71
     5
 72
    15
 73
     9
 74
     0
 42
0.0000000006624882
 43
0.0000000001
 40
0.0
 40
0.0
 40
0.0
 40
0.0
 40
0.0
 40
0.0
 40
0.181819355741687
 40
0.454546237161125
 40
0.7272731185805631
 40
1.0
 40
1.0
 40
1.0
 40
1.0
 40
1.0
 40
1.0
 10
87.88693124138041
 20
295.8891394264829
 30
0.0
 10
88.011266486175
 20
295.8174744165254
 30
0.0
 10
88.35546854516491
 20
295.6157913311886
 30
0.0
 10
89.04737784986901
 20
295.1718168441127
 30
0.0
 10
90.43561530502792
 20
293.9415104396836
 30
0.0
 10
91.05646366967407
 20
291.1220119986165
 30
0.0
 10
91.28731860413629
 20
287.308109483006
 30
0.0
 10
91.32270765203188
 20
283.9970149978574
 30
0.0
 10
91.30574525129443
 20
282.1411984119755
 30
0.0
  0
ARC
  5
81
330
5E
100
AcDbEntity
  8
$DDT_AUDIT_GENERATED_(7A)
  6
Continuous
 62
     7
100
AcDbCircle
 10
99.2067026911
 20
301.2033186188
 30
0.0
 40
20.63466876995148
100
AcDbArc
 50
247.4867406052
 51
269.9987604485
  0
ARC
  5
82
330
5E
100
AcDbEntity
  8
$DDT_AUDIT_GENERATED_(7A)
  6
Continuous
 62
     7
100
AcDbCircle
 10
99.2057690016
 20
301.2035234984
 30
0.0
 40
20.6348736504791
100
AcDbArc
 50
270.0013529879
 51
292.5131461753
  0
SPLINE
  5
83
330
5E
100
AcDbEntity
  8
$DDT_AUDIT_GENERATED_(7A)
  6
Continuous
 62
     7
100
AcDbSpline
210
0.0
220
0.0
230
1.0
 70
     8
 71
     5
 72
    15
 73
     9
 74
     0
 42
0.0000000006624882
 43
0.0000000001
 40
0.0
 40
0.0
 40
0.0
 40
0.0
 40
0.0
 40
0.0
 40
0.272726881419422
 40
0.5454537628388689
 40
0.818180644258315
 40
1.0
 40
1.0
 40
1.0
 40
1.0
 40
1.0
 40
1.0
 10
107.1067672214842
 20
282.1411984119755
 30
0.0
 10
107.0898048207467
 20
283.9970149978574
 30
0.0
 10
107.1251938686423
 20
287.308109483006
 30
0.0
 10
107.3560488031045
 20
291.1220119986165
 30
0.0
 10
107.9768971677507
 20
293.9415104396836
 30
0.0
 10
109.3651346229096
 20
295.1718168441127
 30
0.0
 10
110.0570439276137
 20
295.6157913311886
 30
0.0
 10
110.4012459866036
 20
295.8174744165254
 30
0.0
 10
110.5255812313982
 20
295.8891394264829
 30
0.0
  0
ARC
  5
84
330
5E
100
AcDbEntity
  8
$DDT_AUDIT_GENERATED_(7A)
  6
Continuous
 62
     7
100
AcDbCircle
 10
99.2012330303
 20
301.2180481875
 30
0.0
 40
20.65002828582757
100
AcDbArc
 50
292.5093417852
 51
345.9876702599
  0
ARC
  5
85
330
5E
100
AcDbEntity
  8
$DDT_AUDIT_GENERATED_(7A)
  6
Continuous
 62
     7
100
AcDbCircle
 10
99.2011222542
 20
301.2137831242
 30
0.0
 40
20.65013906964715
100
AcDbArc
 50
14.0089652531
 51
67.4904528892
  0
SPLINE
  5
86
330
5E
100
AcDbEntity
  8
$DDT_AUDIT_GENERATED_(7A)
  6
Continuous
 62
     7
100
AcDbSpline
210
0.0
220
0.0
230
1.0
 70
     8
 71
     5
 72
    15
 73
     9
 74
     0
 42
0.0000000006624882
 43
0.0000000001
 40
0.0
 40
0.0
 40
0.0
 40
0.0
 40
0.0
 40
0.0
 40
0.181819355741687
 40
0.454546237161125
 40
0.7272731185805631
 40
1.0
 40
1.0
 40
1.0
 40
1.0
 40
1.0
 40
1.0
 10
110.5255812313982
 20
306.5427658985962
 30
0.0
 10
110.4012459866036
 20
306.6144309085537
 30
0.0
 10
110.0570439276137
 20
306.8161139938906
 30
0.0
 10
109.3651346229096
 20
307.2600884809664
 30
0.0
 10
107.9768971677507
 20
308.4903948853956
 30
0.0
 10
107.3560488031046
 20
311.3098933264627
 30
0.0
 10
107.1251938686423
 20
315.123795842073
 30
0.0
 10
107.0898048207467
 20
318.4348903272216
 30
0.0
 10
107.1067672214842
 20
320.2907069131037
 30
0.0
  0
ARC
  5
87
330
5E
100
AcDbEntity
  8
$DDT_AUDIT_GENERATED_(7A)
  6
Continuous
 62
     7
100
AcDbCircle
 10
99.2058098793
 20
301.2285871969
 30
0.0
 40
20.63466827935891
100
AcDbArc
 50
67.4867403341
 51
89.9987607196
  0
ARC
  5
88
330
5E
100
AcDbEntity
  8
$DDT_AUDIT_GENERATED_(7A)
  6
Continuous
 62
     7
100
AcDbCircle
 10
99.2067434712
 20
301.2283818267
 30
0.0
 40
20.63487365047912
100
AcDbArc
 50
90.0013529879
 51
112.5131461753
  0
SPLINE
  5
89
330
5E
100
AcDbEntity
  8
$DDT_AUDIT_GENERATED_(7A)
  6
Continuous
 62
     7
100
AcDbSpline
210
0.0
220
0.0
230
1.0
 70
     8
 71
     5
 72
    15
 73
     9
 74
     0
 42
0.0000000006624882
 43
0.0000000001
 40
0.0
 40
0.0
 40
0.0
 40
0.0
 40
0.0
 40
0.0
 40
0.272726881419422
 40
0.5454537628388689
 40
0.818180644258315
 40
1.0
 40
1.0
 40
1.0
 40
1.0
 40
1.0
 40
1.0
 10
91.30574525129445
 20
320.2907069131037
 30
0.0
 10
91.3227076520319
 20
318.4348903272216
 30
0.0
 10
91.28731860413629
 20
315.123795842073
 30
0.0
 10
91.05646366967409
 20
311.3098933264627
 30
0.0
 10
90.43561530502794
 20
308.4903948853956
 30
0.0
 10
89.04737784986901
 20
307.2600884809665
 30
0.0
 10
88.35546854516491
 20
306.8161139938906
 30
0.0
 10
88.011266486175
 20
306.6144309085537
 30
0.0
 10
87.88693124138042
 20
306.5427658985962
 30
0.0
  0
ARC
  5
8A
330
5E
100
AcDbEntity
  8
$DDT_AUDIT_GENERATED_(7A)
  6
Continuous
 62
     7
100
AcDbCircle
 10
99.2112794426
 20
301.2138571374
 30
0.0
 40
20.65002828603652
100
AcDbArc
 50
112.5093417853
 51
165.99084905
  0
ARC
  5
8B
330
5E
100
AcDbEntity
  8
$DDT_AUDIT_GENERATED_(7A)
  6
Continuous
 62
     7
100
AcDbCircle
 10
97.4057938501
 20
4334.3871312313
 30
0.0
 40
4028.29786288711
100
AcDbArc
 50
269.5525308381
 51
270.4410321093
  0
ARC
  5
8C
330
5E
100
AcDbEntity
  8
$DDT_AUDIT_GENERATED_(7A)
  6
Continuous
 62
     7
100
AcDbCircle
 10
101.0023555516
 20
-3739.8860581365
 30
0.0
 40
4036.228127431345
100
AcDbArc
 50
89.5540365425
 51
90.4395002553
  0
SPLINE
  5
8D
330
5E
100
AcDbEntity
  8
$DDT_AUDIT_GENERATED_(7A)
  6
Continuous
 62
     7
100
AcDbSpline
210
0.0
220
0.0
230
1.0
 70
     8
 71
     3
 72
    21
 73
    17
 74
     0
 42
0.0000000007709405
 43
0.0000000001
 40
0.0
 40
0.0
 40
0.0
 40
0.0
 40
0.0540934106810958
 40
0.1002960086582397
 40
0.1389989575893068
 40
0.1707175074714472
 40
0.2025252481181223
 40
0.2376035117247255
 40
0.2840584615753079
 40
0.3332563032107053
 40
0.3790664782027527
 40
0.4210973916387415
 40
0.4598788365144722
 40
0.5073573731231388
 40
0.5542439481739349
 40
0.56557398251035
 40
0.56557398251035
 40
0.56557398251035
 40
0.56557398251035
 10
77.35819351169387
 20
296.2301518576876
 30
0.0
 10
77.79692124030468
 20
296.2289548924757
 30
0.0
 10
78.47861937571456
 20
296.2271137985607
 30
0.0
 10
79.41451509897023
 20
296.2227970618071
 30
0.0
 10
80.12768595352316
 20
296.2196430965549
 30
0.0
 10
80.73425303056771
 20
296.2166964821096
 30
0.0
 10
81.29976160359236
 20
296.213319229221
 30
0.0
 10
81.91428716574507
 20
296.2086785683543
 30
0.0
 10
82.57492693780688
 20
296.2019868747256
 30
0.0
 10
83.22593871568074
 20
296.1930603004086
 30
0.0
 10
83.74186999538709
 20
296.1840172071866
 30
0.0
 10
84.12009888687659
 20
296.1755373143509
 30
0.0
 10
84.3916948998489
 20
296.1678311962608
 30
0.0
 10
84.58663319983542
 20
296.1609335039391
 30
0.0
 10
84.68023369586255
 20
296.1568235999973
 30
0.0
 10
84.69363448833575
 20
296.1561752428051
 30
0.0
 10
84.69368514355492
 20
296.1561895028644
 30
0.0
  0
LINE
  5
8E
330
5E
100
AcDbEntity
  8
$DDT_AUDIT_GENERATED_(7A)
  6
Continuous
 62
     7
100
AcDbLine
 10
62.1564109561
 20
296.2160218865
 30
0.0
 11
63.6091746269
 21
296.2173902688
 31
0.0
  0
SPLINE
  5
8F
330
5E
100
AcDbEntity
  8
$DDT_AUDIT_GENERATED_(7A)
  6
Continuous
 62
     7
100
AcDbSpline
210
0.0
220
0.0
230
1.0
 70
     8
 71
     3
 72
    19
 73
    15
 74
     0
 42
0.0000000007582845
 43
0.0000000001
 40
0.4437514963841006
 40
0.4437514963841006
 40
0.4437514963841006
 40
0.4437514963841006
 40
0.4614577509121016
 40
0.4820999750903687
 40
0.5030283116377671
 40
0.5457521258001641
 40
0.5903838208443625
 40
0.6408338607499675
 40
0.6977220664452688
 40
0.7613539876357822
 40
0.8325069458536878
 40
0.8843996904955349
 40
0.9401200606835508
 40
1.0
 40
1.0
 40
1.0
 40
1.0
 10
113.7193666414989
 20
296.1562141400784
 30
0.0
 10
113.7201235475163
 20
296.156215015474
 30
0.0
 10
113.7393397391439
 20
296.1571446051443
 30
0.0
 10
113.7835852422755
 20
296.1590347512818
 30
0.0
 10
113.8733668404811
 20
296.1626147167829
 30
0.0
 10
114.040011922334
 20
296.1684514281199
 30
0.0
 10
114.344335271855
 20
296.1769542119637
 30
0.0
 10
114.8387904201524
 20
296.1873823430239
 30
0.0
 10
115.5619706131631
 20
296.1987416900584
 30
0.0
 10
116.5174712777259
 20
296.2092518057145
 30
0.0
 10
117.5192788207389
 20
296.2157501870734
 30
0.0
 10
118.6032614851821
 20
296.2213946656778
 30
0.0
 10
119.7486377946263
 20
296.2267305960731
 30
0.0
 10
120.5558223701862
 20
296.2288521974723
 30
0.0
 10
121.054318952806
 20
296.2301518576729
 30
0.0
  0
LINE
  5
90
330
5E
100
AcDbEntity
  8
$DDT_AUDIT_GENERATED_(7A)
  6
Continuous
 62
     7
100
AcDbLine
 10
63.7342650105
 20
306.2143895136
 30
0.0
 11
62.1564107928
 21
306.2158812756
 31
0.0
  0
LINE
  5
91
330
5E
100
AcDbEntity
  8
$DDT_AUDIT_GENERATED_(7A)
  6
Continuous
 62
     7
100
AcDbLine
 10
136.2560894935
 20
306.2157007311
 30
0.0
 11
134.8033378893
 21
306.2145150564
 31
0.0
  0
LINE
  5
92
330
5E
100
AcDbEntity
  8
$DDT_AUDIT_GENERATED_(7A)
  6
Continuous
 62
     7
100
AcDbLine
 10
134.6782475319
 20
296.2175158114
 30
0.0
 11
136.2560893398
 21
296.2162226501
 31
0.0
  0
ENDBLK
  5
94
330
5E
100
AcDbEntity
  8
0
100
AcDbBlockEnd
  0
BLOCK
  5
CB
330
95
100
AcDbEntity
  8
0
100
AcDbBlockBegin
  2
SE1
 70
     0
 10
0.0
 20
0.0
 30
0.0
  3
SE1
  1

  0
LINE
  5
97
330
95
100
AcDbEntity
  8
$DDT_AUDIT_GENERATED_(60)
  6
Continuous
 62
     7
100
AcDbLine
 10
244.3837576378
 20
330.2159526477
 30
0.0
 11
244.3837576378
 21
272.2159513844
 31
0.0
  0
LINE
  5
98
330
95
100
AcDbEntity
  8
$DDT_AUDIT_GENERATED_(60)
  6
Continuous
 62
     7
100
AcDbLine
 10
238.6837576378
 20
271.2159020757
 30
0.0
 11
238.6837576378
 21
331.2159585293
 31
0.0
  0
LINE
  5
99
330
95
100
AcDbEntity
  8
$DDT_AUDIT_GENERATED_(60)
  6
Continuous
 62
     7
100
AcDbLine
 10
243.3837576229
 20
331.2159585293
 30
0.0
 11
243.3837576229
 21
271.2159020757
 31
0.0
  0
SPLINE
  5
9A
330
95
100
AcDbEntity
  8
$DDT_AUDIT_GENERATED_(60)
  6
Continuous
 62
     7
100
AcDbSpline
210
0.0
220
0.0
230
1.0
 70
     8
 71
     3
 72
    13
 73
     9
 74
     0
 42
0.0000000063014675
 43
0.0000000001
 40
0.0
 40
0.0
 40
0.0
 40
0.0
 40
0.1294353584796121
 40
0.2550301072098068
 40
0.4999999914726229
 40
0.7449698805975513
 40
0.8705646348070479
 40
1.0
 40
1.0
 40
1.0
 40
1.0
 10
243.3837576228869
 20
271.2159513166079
 30
0.0
 10
243.457937001849
 20
271.219632326358
 30
0.0
 10
243.5818484686021
 20
271.2277056552049
 30
0.0
 10
243.8367939815936
 20
271.3077767586357
 30
0.0
 10
244.1083836993503
 20
271.4913252753394
 30
0.0
 10
244.2919322019238
 20
271.7629150052674
 30
0.0
 10
244.3720032999137
 20
272.0178605290477
 30
0.0
 10
244.3800766282806
 20
272.1417720016082
 30
0.0
 10
244.3837576377879
 20
272.2159513844393
 30
0.0
  0
SPLINE
  5
9B
330
95
100
AcDbEntity
  8
$DDT_AUDIT_GENERATED_(60)
  6
Continuous
 62
     7
100
AcDbSpline
210
0.0
220
0.0
230
1.0
 70
     8
 71
     3
 72
    13
 73
     9
 74
     0
 42
0.0000000063014676
 43
0.0000000001
 40
0.0
 40
0.0
 40
0.0
 40
0.0
 40
0.1294353618362314
 40
0.2550301133060648
 40
0.4999999999999997
 40
0.7449698866939336
 40
0.8705646381637674
 40
1.0
 40
1.0
 40
1.0
 40
1.0
 10
244.3837576377879
 20
330.2159526477466
 30
0.0
 10
244.3800766282567
 20
330.2901320266799
 30
0.0
 10
244.3720032998634
 20
330.4140434930574
 30
0.0
 10
244.2919322012721
 20
330.668989004696
 30
0.0
 10
244.108383696491
 20
330.9405787213507
 30
0.0
 10
243.8367939798364
 20
331.1241272261316
 30
0.0
 10
243.5818484681977
 20
331.2041983247231
 30
0.0
 10
243.4579370018203
 20
331.2122716531163
 30
0.0
 10
243.3837576228869
 20
331.2159526626476
 30
0.0
  0
LINE
  5
9C
330
95
100
AcDbEntity
  8
$DDT_AUDIT_GENERATED_(60)
  6
Continuous
 62
     7
100
AcDbLine
 10
243.3887576229
 20
331.2159585293
 30
0.0
 11
238.6837576378
 21
331.2159585293
 31
0.0
  0
LINE
  5
9D
330
95
100
AcDbEntity
  8
$DDT_AUDIT_GENERATED_(60)
  6
Continuous
 62
     7
100
AcDbLine
 10
238.6837576378
 20
271.2159020757
 30
0.0
 11
243.3887576229
 21
271.2159020757
 31
0.0
  0
LINE
  5
9F
330
95
100
AcDbEntity
  8
$DDT_AUDIT_GENERATED_(9E)
  6
Continuous
 62
     7
100
AcDbLine
 10
245.3719194302
 20
301.2159526626
 30
0.0
 11
245.3719221795
 21
286.8028476907
 31
0.0
  0
LINE
  5
A0
330
95
100
AcDbEntity
  8
$DDT_AUDIT_GENERATED_(9E)
  6
Continuous
 62
     7
100
AcDbLine
 10
245.3719221795
 20
315.6290576343
 30
0.0
 11
245.3719194302
 21
301.2159526626
 31
0.0
  0
SPLINE
  5
A1
330
95
100
AcDbEntity
  8
$DDT_AUDIT_GENERATED_(9E)
  6
Continuous
 62
     7
100
AcDbSpline
210
0.0
220
0.0
230
1.0
 70
     8
 71
     3
 72
    17
 73
    13
 74
     0
 42
0.000000001553544
 43
0.0000000001
 40
0.0
 40
0.0
 40
0.0
 40
0.0
 40
0.0833354487014831
 40
0.1663736216528879
 40
0.2494866424919604
 40
0.3752626340111653
 40
0.5000479199939184
 40
0.6246601036732432
 40
0.7502964613493427
 40
0.8754314240554908
 40
0.9377169111661814
 40
1.0
 40
1.0
 40
1.0
 40
1.0
 10
245.3719221795288
 20
315.6290576343162
 30
0.0
 10
245.3718575088126
 20
315.9607514527387
 30
0.0
 10
245.3717283980747
 20
316.6229558652751
 30
0.0
 10
245.3715988878323
 20
317.5289454627556
 30
0.0
 10
245.3715607288945
 20
318.5081087449657
 30
0.0
 10
245.3714554329777
 20
319.496605252928
 30
0.0
 10
245.3714708235939
 20
320.4216656529756
 30
0.0
 10
245.3715594272902
 20
321.150997550506
 30
0.0
 10
245.3717072751864
 20
321.6783831725614
 30
0.0
 10
245.3718385092592
 20
321.9414232904132
 30
0.0
 10
245.3718985499335
 20
322.0507018470753
 30
0.0
 10
245.3719105388527
 20
322.0608691226339
 30
0.0
 10
245.3719221795288
 20
322.0659526625396
 30
0.0
  0
SPLINE
  5
A2
330
95
100
AcDbEntity
  8
$DDT_AUDIT_GENERATED_(9E)
  6
Continuous
 62
     7
100
AcDbSpline
210
0.0
220
0.0
230
1.0
 70
     8
 71
     3
 72
    17
 73
    13
 74
     0
 42
0.000000001553544
 43
0.0000000001
 40
0.0
 40
0.0
 40
0.0
 40
0.0
 40
0.0627289163599583
 40
0.1254602832760826
 40
0.2499137825791045
 40
0.3746483269236378
 40
0.500297641949969
 40
0.6249459110890658
 40
0.7494413562942406
 40
0.8749659811880093
 40
0.9374489124370873
 40
1.0
 40
1.0
 40
1.0
 40
1.0
 10
245.3719221795288
 20
280.3659526625395
 30
0.0
 10
245.371910422269
 20
280.3711086119268
 30
0.0
 10
245.3718982001744
 20
280.3814207121225
 30
0.0
 10
245.3718379672669
 20
280.4915763237357
 30
0.0
 10
245.3717069559137
 20
280.7544105915683
 30
0.0
 10
245.3715600536002
 20
281.280597798028
 30
0.0
 10
245.3714687321766
 20
282.009624643357
 30
0.0
 10
245.3714630439843
 20
282.93420234233
 30
0.0
 10
245.3715453929856
 20
284.0431765101044
 30
0.0
 10
245.3716844287728
 20
285.115762729829
 30
0.0
 10
245.3718090511328
 20
286.052898578379
 30
0.0
 10
245.3718844563623
 20
286.5527738255871
 30
0.0
 10
245.3719221795288
 20
286.8028476907299
 30
0.0
  0
LINE
  5
A3
330
95
100
AcDbEntity
  8
$DDT_AUDIT_GENERATED_(9E)
  6
Continuous
 62
     7
100
AcDbLine
 10
245.3547602706
 20
322.0619830181
 30
0.0
 11
244.4771854351
 21
325.8644321762
 31
0.0
  0
LINE
  5
A4
330
95
100
AcDbEntity
  8
$DDT_AUDIT_GENERATED_(9E)
  6
Continuous
 62
     7
100
AcDbLine
 10
244.4771854351
 20
276.5674731488
 30
0.0
 11
245.3547602863
 21
280.3699223749
 31
0.0
  0
LINE
  5
A5
330
95
100
AcDbEntity
  8
$DDT_AUDIT_GENERATED_(9E)
  6
Continuous
 62
     7
100
AcDbLine
 10
244.4887576378
 20
325.8659526625
 30
0.0
 11
244.3837576378
 21
325.8659526625
 31
0.0
  0
LINE
  5
A6
330
95
100
AcDbEntity
  8
$DDT_AUDIT_GENERATED_(9E)
  6
Continuous
 62
     7
100
AcDbLine
 10
244.3837576378
 20
276.5659526625
 30
0.0
 11
244.4887576378
 21
276.5659526625
 31
0.0
  0
ARC
  5
A7
330
95
100
AcDbEntity
  8
$DDT_AUDIT_GENERATED_(66)
  6
Continuous
 62
     7
100
AcDbCircle
 10
315.8949400247
 20
229.7008081379
 30
0.0
 40
5.000169065696461
100
AcDbArc
 50
270.0
 51
270.5201332087
  0
ARC
  5
A8
330
95
100
AcDbEntity
  8
$DDT_AUDIT_GENERATED_(66)
  6
Continuous
 62
     7
100
AcDbCircle
 10
315.8949400247
 20
229.7008081379
 30
0.0
 40
5.000169065696461
100
AcDbArc
 50
346.4610764255
 51
0.0941890008
  0
ARC
  5
A9
330
95
100
AcDbEntity
  8
$DDT_AUDIT_GENERATED_(66)
  6
Continuous
 62
     7
100
AcDbCircle
 10
308.8954894492
 20
229.7008081379
 30
0.0
 40
5.000169065696489
100
AcDbArc
 50
182.0380205502
 51
193.4621452547
  0
ARC
  5
AA
330
95
100
AcDbEntity
  8
$DDT_AUDIT_GENERATED_(66)
  6
Continuous
 62
     7
100
AcDbCircle
 10
308.8954894492
 20
229.7008081379
 30
0.0
 40
5.000169065696489
100
AcDbArc
 50
269.1973873771
 51
270.0
  0
LINE
  5
AB
330
95
100
AcDbEntity
  8
$DDT_AUDIT_GENERATED_(66)
  6
Continuous
 62
     7
100
AcDbLine
 10
308.8954894492
 20
224.7006390722
 30
0.0
 11
315.8949400247
 21
224.7006390722
 31
0.0
  0
ARC
  5
AC
330
95
100
AcDbEntity
  8
$DDT_AUDIT_GENERATED_(6C)
  6
Continuous
 62
     7
100
AcDbCircle
 10
308.8938875506
 20
229.7052066835
 30
0.0
 40
5.000169065696555
100
AcDbArc
 50
182.1791587717
 51
193.4469283661
  0
LINE
  5
AD
330
95
100
AcDbEntity
  8
$DDT_AUDIT_GENERATED_(6C)
  6
Continuous
 62
     7
100
AcDbLine
 10
320.8934360616
 20
231.6570694644
 30
0.0
 11
320.8934360616
 21
274.2487024252
 31
0.0
  0
LINE
  5
AE
330
95
100
AcDbEntity
  8
$DDT_AUDIT_GENERATED_(6C)
  6
Continuous
 62
     7
100
AcDbLine
 10
320.8934360616
 20
277.4190405469
 30
0.0
 11
320.8934360616
 21
287.8306437932
 31
0.0
  0
LINE
  5
AF
330
95
100
AcDbEntity
  8
$DDT_AUDIT_GENERATED_(6C)
  6
Continuous
 62
     7
100
AcDbLine
 10
320.8934360616
 20
290.422051372
 30
0.0
 11
320.8934360616
 21
299.2746623822
 31
0.0
  0
ARC
  5
B0
330
95
100
AcDbEntity
  8
$DDT_AUDIT_GENERATED_(6C)
  6
Continuous
 62
     7
100
AcDbCircle
 10
3083.3937162993
 20
265.4614885594
 30
0.0
 40
2762.757270716592
100
AcDbArc
 50
180.4101204179
 51
180.7384596347
  0
LINE
  5
B1
330
95
100
AcDbEntity
  8
$DDT_AUDIT_GENERATED_(73)
  6
Continuous
 62
     7
100
AcDbLine
 10
315.8972015191
 20
224.7023622023
 30
0.0
 11
308.8971976429
 21
224.7023641476
 31
0.0
  0
ARC
  5
B2
330
95
100
AcDbEntity
  8
$DDT_AUDIT_GENERATED_(73)
  6
Continuous
 62
     7
100
AcDbCircle
 10
315.8971242083
 20
229.702655019
 30
0.0
 40
5.000292816957105
100
AcDbArc
 50
270.0008858652
 51
0.0180248708
  0
LINE
  5
B3
330
95
100
AcDbEntity
  8
$DDT_AUDIT_GENERATED_(73)
  6
Continuous
 62
     7
100
AcDbLine
 10
315.8972015191
 20
224.7023622027
 30
0.0
 11
315.8972015348
 21
306.2146149487
 31
0.0
  0
LINE
  5
B4
330
95
100
AcDbEntity
  8
$DDT_AUDIT_GENERATED_(73)
  6
Continuous
 62
     7
100
AcDbLine
 10
315.8972015349
 20
306.2143985644
 30
0.0
 11
308.8971976429
 21
306.2143966191
 31
0.0
  0
LINE
  5
B5
330
95
100
AcDbEntity
  8
$DDT_AUDIT_GENERATED_(73)
  6
Continuous
 62
     7
100
AcDbLine
 10
308.8971976429
 20
306.2142723547
 30
0.0
 11
308.8971976429
 21
224.7024884124
 31
0.0
  0
ARC
  5
B6
330
95
100
AcDbEntity
  8
$DDT_AUDIT_GENERATED_(73)
  6
Continuous
 62
     7
100
AcDbCircle
 10
315.8976019005
 20
301.2151830588
 30
0.0
 40
4.999431905936673
100
AcDbArc
 50
359.9679880986
 51
90.0045883745
  0
ARC
  5
B7
330
95
100
AcDbEntity
  8
$DDT_AUDIT_GENERATED_(73)
  6
Continuous
 62
     7
100
AcDbCircle
 10
308.8966134047
 20
301.2148590803
 30
0.0
 40
4.999413308518968
100
AcDbArc
 50
89.9933043373
 51
174.8862105228
  0
LINE
  5
B8
330
95
100
AcDbEntity
  8
$DDT_AUDIT_GENERATED_(73)
  6
Continuous
 62
     7
100
AcDbLine
 10
303.8972001173
 20
301.2143992417
 30
0.0
 11
303.8972001173
 21
229.702361525
 31
0.0
  0
ARC
  5
B9
330
95
100
AcDbEntity
  8
$DDT_AUDIT_GENERATED_(73)
  6
Continuous
 62
     7
100
AcDbCircle
 10
308.8965743399
 20
229.7018147271
 30
0.0
 40
4.999326353587713
100
AcDbArc
 50
185.1128308658
 51
270.0071434896
  0
LINE
  5
BA
330
95
100
AcDbEntity
  8
$DDT_AUDIT_GENERATED_(73)
  6
Continuous
 62
     7
100
AcDbLine
 10
320.8980732867
 20
229.7035358836
 30
0.0
 11
320.8980732867
 21
301.2132248733
 31
0.0
  0
ARC
  5
BB
330
95
100
AcDbEntity
  8
$DDT_AUDIT_GENERATED_(73)
  6
Continuous
 62
     7
100
AcDbCircle
 10
-2459.511235334
 20
265.4583803905
 30
0.0
 40
2763.665347984654
100
AcDbArc
 50
359.2494389046
 51
0.7505610952
  0
SPLINE
  5
BC
330
95
100
AcDbEntity
  8
$DDT_AUDIT_GENERATED_(7A)
  6
Continuous
 62
     7
100
AcDbSpline
210
0.0
220
0.0
230
1.0
 70
     8
 71
     5
 72
    13
 73
     7
 74
     0
 42
0.0000000006352788
 43
0.0000000001
 40
0.3897432594119513
 40
0.3897432594119513
 40
0.3897432594119513
 40
0.3897432594119513
 40
0.3897432594119513
 40
0.3897432594119513
 40
0.398838358596082
 40
0.4973686741388617
 40
0.4973686741388617
 40
0.4973686741388617
 40
0.4973686741388617
 40
0.4973686741388617
 40
0.4973686741388617
 10
320.5985993073775
 20
302.9133720312986
 30
0.0
 10
320.6083013429397
 20
302.8864951125014
 30
0.0
 10
320.7208327277958
 20
302.567632429572
 30
0.0
 10
320.8063368901153
 20
302.2393353696664
 30
0.0
 10
320.8637583344362
 20
301.9046509802928
 30
0.0
 10
320.8926114586984
 20
301.5667889638408
 30
0.0
 10
320.8950841002106
 20
301.2572811527784
 30
0.0
  0
SPLINE
  5
BD
330
95
100
AcDbEntity
  8
$DDT_AUDIT_GENERATED_(7A)
  6
Continuous
 62
     7
100
AcDbSpline
210
0.0
220
0.0
230
1.0
 70
     8
 71
     3
 72
     8
 73
     4
 74
     0
 42
0.0000000012699806
 43
0.0000000001
 40
0.0
 40
0.0
 40
0.0
 40
0.0
 40
0.1506845279773008
 40
0.1506845279773008
 40
0.1506845279773008
 40
0.1506845279773008
 10
308.8953356074838
 20
306.1832889304763
 30
0.0
 10
308.4994684222786
 20
306.1792491567617
 30
0.0
 10
308.1031235941632
 20
306.1500425176421
 30
0.0
 10
307.7173578130681
 20
306.0739276363038
 30
0.0
  0
SPLINE
  5
BE
330
95
100
AcDbEntity
  8
$DDT_AUDIT_GENERATED_(7A)
  6
Continuous
 62
     7
100
AcDbSpline
210
0.0
220
0.0
230
1.0
 70
     8
 71
     3
 72
     8
 73
     4
 74
     0
 42
0.0000000012633893
 43
0.0000000001
 40
0.866230769967612
 40
0.866230769967612
 40
0.866230769967612
 40
0.866230769967612
 40
1.0
 40
1.0
 40
1.0
 40
1.0
 10
304.0091239893209
 20
302.2645600582611
 30
0.0
 10
303.9343837854924
 20
301.921376461964
 30
0.0
 10
303.8953380785165
 20
301.5697621810584
 30
0.0
 10
303.8953380686419
 20
301.2159533158443
 30
0.0
  0
LINE
  5
BF
330
95
100
AcDbEntity
  8
$DDT_AUDIT_GENERATED_(7A)
  6
Continuous
 62
     7
100
AcDbLine
 10
245.3704277767
 20
282.141198412
 30
0.0
 11
245.3704615636
 21
301.2159531489
 31
0.0
  0
LINE
  5
C0
330
95
100
AcDbEntity
  8
$DDT_AUDIT_GENERATED_(7A)
  6
Continuous
 62
     7
100
AcDbLine
 10
245.3702865234
 20
280.5686498537
 30
0.0
 11
245.3704277767
 21
282.141198412
 31
0.0
  0
SPLINE
  5
C1
330
95
100
AcDbEntity
  8
$DDT_AUDIT_GENERATED_(7A)
  6
Continuous
 62
     7
100
AcDbSpline
210
0.0
220
0.0
230
1.0
 70
     8
 71
     5
 72
    15
 73
     9
 74
     0
 42
0.0000000002460516
 43
0.0000000001
 40
0.0
 40
0.0
 40
0.0
 40
0.0
 40
0.0
 40
0.0
 40
0.18182552319473
 40
0.454550348796489
 40
0.727275174398243
 40
1.0
 40
1.0
 40
1.0
 40
1.0
 40
1.0
 40
1.0
 10
278.3713504234842
 20
295.7313805637763
 30
0.0
 10
275.6029723467854
 20
295.6439557105131
 30
0.0
 10
269.2790694898584
 20
295.4064822873812
 30
0.0
 10
261.3846324040753
 20
294.9178842974812
 30
0.0
 10
253.9061589973584
 20
293.5622308945312
 30
0.0
 10
249.7418855577695
 20
290.4003420671536
 30
0.0
 10
247.3434092199352
 20
286.1870875290299
 30
0.0
 10
245.9924017655649
 20
282.5774624742411
 30
0.0
 10
245.3702865234075
 20
280.5686498536826
 30
0.0
  0
SPLINE
  5
C2
330
95
100
AcDbEntity
  8
$DDT_AUDIT_GENERATED_(7A)
  6
Continuous
 62
     7
100
AcDbSpline
210
0.0
220
0.0
230
1.0
 70
     8
 71
     5
 72
    15
 73
     9
 74
     0
 42
0.0000000002460516
 43
0.0000000001
 40
0.0
 40
0.0
 40
0.0
 40
0.0
 40
0.0
 40
0.0
 40
0.18182552319473
 40
0.454550348796489
 40
0.727275174398243
 40
1.0
 40
1.0
 40
1.0
 40
1.0
 40
1.0
 40
1.0
 10
278.3713504234842
 20
306.7005247613028
 30
0.0
 10
275.6029723467854
 20
306.787949614566
 30
0.0
 10
269.2790694898584
 20
307.025423037698
 30
0.0
 10
261.3846324040753
 20
307.5140210275979
 30
0.0
 10
253.9061589973584
 20
308.8696744305479
 30
0.0
 10
249.7418855577695
 20
312.0315632579255
 30
0.0
 10
247.3434092199352
 20
316.2448177960493
 30
0.0
 10
245.9924017655649
 20
319.854442850838
 30
0.0
 10
245.3702865234075
 20
321.8632554713965
 30
0.0
  0
LINE
  5
C3
330
95
100
AcDbEntity
  8
$DDT_AUDIT_GENERATED_(7A)
  6
Continuous
 62
     7
100
AcDbLine
 10
245.3702865234
 20
321.8632554714
 30
0.0
 11
245.3704277767
 21
320.2907069131
 31
0.0
  0
ARC
  5
C4
330
95
100
AcDbEntity
  8
$DDT_AUDIT_GENERATED_(7A)
  6
Continuous
 62
     7
100
AcDbCircle
 10
307.0977067203
 20
306.62164533
 30
0.0
 40
28.72646459373489
100
AcDbArc
 50
179.8426724538
 51
179.8714053928
  0
LINE
  5
C5
330
95
100
AcDbEntity
  8
$DDT_AUDIT_GENERATED_(7A)
  6
Continuous
 62
     7
100
AcDbLine
 10
245.3704277767
 20
320.2907069131
 30
0.0
 11
245.3704615636
 21
301.2159531489
 31
0.0
  0
ARC
  5
C6
330
95
100
AcDbEntity
  8
$DDT_AUDIT_GENERATED_(7A)
  6
Continuous
 62
     7
100
AcDbCircle
 10
310.9057025664
 20
-776.5531311751
 30
0.0
 40
1072.777963133309
100
AcDbArc
 50
90.3732656579
 51
91.7147829476
  0
ARC
  5
C7
330
95
100
AcDbEntity
  8
$DDT_AUDIT_GENERATED_(7A)
  6
Continuous
 62
     7
100
AcDbCircle
 10
310.9070328644
 20
1379.0346262437
 30
0.0
 40
1072.827570410996
100
AcDbArc
 50
268.285225312
 51
270.1884226754
  0
SPLINE
  5
C8
330
95
100
AcDbEntity
  8
$DDT_AUDIT_GENERATED_(7A)
  6
Continuous
 62
     7
100
AcDbSpline
210
0.0
220
0.0
230
1.0
 70
     8
 71
     3
 72
     9
 73
     5
 74
     0
 42
0.0000000006382225
 43
0.0000000001
 40
0.941018758641971
 40
0.941018758641971
 40
0.941018758641971
 40
0.941018758641971
 40
0.9506949658318734
 40
1.0
 40
1.0
 40
1.0
 40
1.0
 10
316.8229504177735
 20
306.1341125919758
 30
0.0
 10
316.7736517851484
 20
306.1432363539169
 30
0.0
 10
316.4743726916533
 20
306.1933273910273
 30
0.0
 10
316.1878657369229
 20
306.2076095030635
 30
0.0
 10
315.904370402301
 20
306.2185938320511
 30
0.0
  0
ARC
  5
C9
330
95
100
AcDbEntity
  8
$DDT_AUDIT_GENERATED_(7A)
  6
Continuous
 62
     7
100
AcDbCircle
 10
278.6227456945
 20
301.7983257727
 30
0.0
 40
6.056138642097636
100
AcDbArc
 50
267.6207819646
 51
271.7363870523
  0
ARC
  5
CA
330
95
100
AcDbEntity
  8
$DDT_AUDIT_GENERATED_(7A)
  6
Continuous
 62
     7
100
AcDbCircle
 10
278.622745714
 20
300.6335756504
 30
0.0
 40
6.056142541677422
100
AcDbArc
 50
88.2636128963
 51
92.3792166869
  0
ENDBLK
  5
CC
330
95
100
AcDbEntity
  8
0
100
AcDbBlockEnd
  0
BLOCK
  5
10D
330
CD
100
AcDbEntity
  8
0
100
AcDbBlockBegin
  2
SE2
 70
     0
 10
0.0
 20
0.0
 30
0.0
  3
SE2
  1

  0
LINE
  5
CF
330
CD
100
AcDbEntity
  8
$DDT_AUDIT_GENERATED_(60)
  6
Continuous
 62
     7
100
AcDbLine
 10
128.2062575147
 20
182.8728899645
 30
0.0
 11
70.2062549581
 21
182.8728899645
 31
0.0
  0
LINE
  5
D0
330
CD
100
AcDbEntity
  8
$DDT_AUDIT_GENERATED_(60)
  6
Continuous
 62
     7
100
AcDbLine
 10
69.2062508637
 20
188.5728899645
 30
0.0
 11
129.2063073173
 21
188.5728899645
 31
0.0
  0
LINE
  5
D1
330
CD
100
AcDbEntity
  8
$DDT_AUDIT_GENERATED_(60)
  6
Continuous
 62
     7
100
AcDbLine
 10
129.2063073173
 20
183.8728899794
 30
0.0
 11
69.2062508637
 21
183.8728899794
 31
0.0
  0
SPLINE
  5
D2
330
CD
100
AcDbEntity
  8
$DDT_AUDIT_GENERATED_(60)
  6
Continuous
 62
     7
100
AcDbSpline
210
0.0
220
0.0
230
1.0
 70
     8
 71
     3
 72
    13
 73
     9
 74
     0
 42
0.0000000063014675
 43
0.0000000001
 40
0.0
 40
0.0
 40
0.0
 40
0.0
 40
0.1294353584734506
 40
0.2550301071986155
 40
0.4999999914569673
 40
0.7449698805863574
 40
0.8705646348008826
 40
1.0
 40
1.0
 40
1.0
 40
1.0
 10
69.2062548901346
 20
183.8728899793518
 30
0.0
 10
69.20993589988501
 20
183.7987106003897
 30
0.0
 10
69.21800922873281
 20
183.6747991336359
 30
0.0
 10
69.29808033217252
 20
183.4198536206419
 30
0.0
 10
69.48162884889805
 20
183.1482639028833
 30
0.0
 10
69.75321857885045
 20
182.9647154003138
 30
0.0
 10
70.00816410265297
 20
182.8846443023249
 30
0.0
 10
70.13207557522492
 20
182.8765709739581
 30
0.0
 10
70.20625495806311
 20
182.8728899644508
 30
0.0
  0
SPLINE
  5
D3
330
CD
100
AcDbEntity
  8
$DDT_AUDIT_GENERATED_(60)
  6
Continuous
 62
     7
100
AcDbSpline
210
0.0
220
0.0
230
1.0
 70
     8
 71
     3
 72
    13
 73
     9
 74
     0
 42
0.0000000063014675
 43
0.0000000001
 40
0.0
 40
0.0
 40
0.0
 40
0.0
 40
0.1294353651990117
 40
0.2550301194134887
 40
0.5000000085429129
 40
0.7449698928013473
 40
0.8705646415265372
 40
1.0
 40
1.0
 40
1.0
 40
1.0
 10
128.2062575147154
 20
182.8728899644508
 30
0.0
 10
128.2804368975536
 20
182.8765709739581
 30
0.0
 10
128.4043483701254
 20
182.8846443023249
 30
0.0
 10
128.6592938939279
 20
182.9647154003138
 30
0.0
 10
128.9308836238802
 20
183.1482639028833
 30
0.0
 10
129.1144321406059
 20
183.4198536206419
 30
0.0
 10
129.1945032440457
 20
183.6747991336359
 30
0.0
 10
129.2025765728935
 20
183.7987106003897
 30
0.0
 10
129.206257582644
 20
183.8728899793518
 30
0.0
  0
LINE
  5
D4
330
CD
100
AcDbEntity
  8
$DDT_AUDIT_GENERATED_(60)
  6
Continuous
 62
     7
100
AcDbLine
 10
129.2063073173
 20
183.8678899794
 30
0.0
 11
129.2063073173
 21
188.5728899645
 31
0.0
  0
LINE
  5
D5
330
CD
100
AcDbEntity
  8
$DDT_AUDIT_GENERATED_(60)
  6
Continuous
 62
     7
100
AcDbLine
 10
69.2062508637
 20
188.5728899645
 30
0.0
 11
69.2062508637
 21
183.8678899794
 31
0.0
  0
LINE
  5
D6
330
CD
100
AcDbEntity
  8
$DDT_AUDIT_GENERATED_(9E)
  6
Continuous
 62
     7
100
AcDbLine
 10
84.1402380142
 20
181.8847254227
 30
0.0
 11
78.3562568225
 21
181.8847281721
 31
0.0
  0
LINE
  5
D7
330
CD
100
AcDbEntity
  8
$DDT_AUDIT_GENERATED_(9E)
  6
Continuous
 62
     7
100
AcDbLine
 10
120.0562562364
 20
181.8847254227
 30
0.0
 11
114.2722744586
 21
181.8847254227
 31
0.0
  0
SPLINE
  5
D8
330
CD
100
AcDbEntity
  8
$DDT_AUDIT_GENERATED_(9E)
  6
Continuous
 62
     7
100
AcDbSpline
210
0.0
220
0.0
230
1.0
 70
     8
 71
     3
 72
    17
 73
    13
 74
     0
 42
0.0000000006637454
 43
0.0000000001
 40
0.0
 40
0.0
 40
0.0
 40
0.0
 40
0.0833354487014831
 40
0.1663736216528879
 40
0.2494866424919604
 40
0.3752626340111653
 40
0.5000479199939184
 40
0.6246601036732432
 40
0.7502964613493427
 40
0.8754314240554908
 40
0.9377169111661814
 40
1.0
 40
1.0
 40
1.0
 40
1.0
 10
84.14023801415988
 20
181.8847254227099
 30
0.0
 10
84.47002157968231
 20
181.8847900934262
 30
0.0
 10
85.12841230070799
 20
181.884919204164
 30
0.0
 10
86.19756973774551
 20
181.8850487144065
 30
0.0
 10
87.5116071319491
 20
181.8850868733442
 30
0.0
 10
89.10567060926077
 20
181.885192169261
 30
0.0
 10
91.00030828018447
 20
181.8851767786448
 30
0.0
 10
92.97781751559887
 20
181.8850881749485
 30
0.0
 10
95.02064009470924
 20
181.8849403270523
 30
0.0
 10
96.7602955845213
 20
181.8848090929795
 30
0.0
 10
98.15777927688251
 20
181.8847490523052
 30
0.0
 10
98.85676840235834
 20
181.8847370633861
 30
0.0
 10
99.20625623639505
 20
181.8847254227099
 30
0.0
  0
SPLINE
  5
D9
330
CD
100
AcDbEntity
  8
$DDT_AUDIT_GENERATED_(9E)
  6
Continuous
 62
     7
100
AcDbSpline
210
0.0
220
0.0
230
1.0
 70
     8
 71
     3
 72
    16
 73
    12
 74
     0
 42
0.0000000006637454
 43
0.0000000001
 40
0.0
 40
0.0
 40
0.0
 40
0.0
 40
0.0625509658289192
 40
0.1251043610270316
 40
0.2505663713252279
 40
0.3750305871579224
 40
0.4997224528208468
 40
0.6253703718972006
 40
0.7500479492199676
 40
0.8748984370948331
 40
1.0
 40
1.0
 40
1.0
 40
1.0
 10
99.20625623639505
 20
181.8847254227099
 30
0.0
 10
99.55722710502619
 20
181.8847371316624
 30
0.0
 10
100.259182473378
 20
181.8847492571387
 30
0.0
 10
101.6613847233146
 20
181.884809603704
 30
0.0
 10
103.3975949882153
 20
181.8849408326887
 30
0.0
 10
105.4360042486991
 20
181.8850880809726
 30
0.0
 10
107.4121524885583
 20
181.8851771038728
 30
0.0
 10
109.3066257317952
 20
181.8851913300244
 30
0.0
 10
111.0957513443829
 20
181.8850771593756
 30
0.0
 10
112.7729888721785
 20
181.8850275011714
 30
0.0
 10
113.7721780370295
 20
181.884826182938
 30
0.0
 10
114.2722744586059
 20
181.8847254227099
 30
0.0
  0
LINE
  5
DA
330
CD
100
AcDbEntity
  8
$DDT_AUDIT_GENERATED_(9E)
  6
Continuous
 62
     7
100
AcDbLine
 10
120.04655888
 20
181.9278758231
 30
0.0
 11
123.8542825889
 21
182.7816544819
 31
0.0
  0
LINE
  5
DB
330
CD
100
AcDbEntity
  8
$DDT_AUDIT_GENERATED_(9E)
  6
Continuous
 62
     7
100
AcDbLine
 10
74.5582298687
 20
182.7816544156
 30
0.0
 11
78.3659535972
 21
181.9278758478
 31
0.0
  0
LINE
  5
DC
330
CD
100
AcDbEntity
  8
$DDT_AUDIT_GENERATED_(9E)
  6
Continuous
 62
     7
100
AcDbLine
 10
123.8562562364
 20
182.7678899645
 30
0.0
 11
123.8562562364
 21
182.8728899645
 31
0.0
  0
LINE
  5
DD
330
CD
100
AcDbEntity
  8
$DDT_AUDIT_GENERATED_(9E)
  6
Continuous
 62
     7
100
AcDbLine
 10
74.5562562364
 20
182.8728899645
 30
0.0
 11
74.5562562364
 21
182.7678899645
 31
0.0
  0
LINE
  5
DE
330
CD
100
AcDbEntity
  8
$DDT_AUDIT_GENERATED_(66)
  6
Continuous
 62
     7
100
AcDbLine
 10
137.0561025869
 20
123.3613272188
 30
0.0
 11
136.2561025869
 21
123.3613272188
 31
0.0
  0
LINE
  5
DF
330
CD
100
AcDbEntity
  8
$DDT_AUDIT_GENERATED_(69)
  6
Continuous
 62
     7
100
AcDbLine
 10
136.2561025869
 20
106.3613318067
 30
0.0
 11
137.0561025869
 21
106.3613318067
 31
0.0
  0
LINE
  5
E0
330
CD
100
AcDbEntity
  8
$DDT_AUDIT_GENERATED_(69)
  6
Continuous
 62
     7
100
AcDbLine
 10
137.0561025869
 20
123.3611205137
 30
0.0
 11
136.2561025869
 21
123.3611205137
 31
0.0
  0
LINE
  5
E1
330
CD
100
AcDbEntity
  8
$DDT_AUDIT_GENERATED_(6C)
  6
Continuous
 62
     7
100
AcDbLine
 10
192.7962395016
 20
111.363209109
 30
0.0
 11
152.0561022749
 21
111.3632090659
 31
0.0
  0
LINE
  5
E2
330
CD
100
AcDbEntity
  8
$DDT_AUDIT_GENERATED_(6C)
  6
Continuous
 62
     7
100
AcDbLine
 10
192.796244357
 20
118.3632129385
 30
0.0
 11
152.0561023449
 21
118.3632129581
 31
0.0
  0
LINE
  5
E3
330
CD
100
AcDbEntity
  8
$DDT_AUDIT_GENERATED_(6C)
  6
Continuous
 62
     7
100
AcDbLine
 10
152.0561027176
 20
118.3632129385
 30
0.0
 11
137.0561025869
 21
118.3632129385
 31
0.0
  0
LINE
  5
E4
330
CD
100
AcDbEntity
  8
$DDT_AUDIT_GENERATED_(6C)
  6
Continuous
 62
     7
100
AcDbLine
 10
152.0561025869
 20
106.3632115406
 30
0.0
 11
187.8039707167
 21
106.3632115406
 31
0.0
  0
LINE
  5
E5
330
CD
100
AcDbEntity
  8
$DDT_AUDIT_GENERATED_(6C)
  6
Continuous
 62
     7
100
AcDbLine
 10
137.0561025869
 20
111.3632090227
 30
0.0
 11
152.0561022749
 21
111.3632090227
 31
0.0
  0
LINE
  5
E6
330
CD
100
AcDbEntity
  8
$DDT_AUDIT_GENERATED_(6C)
  6
Continuous
 62
     7
100
AcDbLine
 10
137.0561025869
 20
106.3633073397
 30
0.0
 11
152.05610272
 21
106.3633073397
 31
0.0
  0
LINE
  5
E7
330
CD
100
AcDbEntity
  8
$DDT_AUDIT_GENERATED_(6C)
  6
Continuous
 62
     7
100
AcDbLine
 10
192.796244357
 20
111.363209109
 30
0.0
 11
192.796244357
 21
118.3632129385
 31
0.0
  0
LINE
  5
E8
330
CD
100
AcDbEntity
  8
$DDT_AUDIT_GENERATED_(6C)
  6
Continuous
 62
     7
100
AcDbLine
 10
152.1041024858
 20
123.3629291174
 30
0.0
 11
137.0561025869
 21
123.3629291174
 31
0.0
  0
LINE
  5
E9
330
CD
100
AcDbEntity
  8
$DDT_AUDIT_GENERATED_(6C)
  6
Continuous
 62
     7
100
AcDbLine
 10
152.0561028483
 20
123.3628507941
 30
0.0
 11
137.0561025869
 21
123.3628507941
 31
0.0
  0
ARC
  5
EA
330
CD
100
AcDbEntity
  8
$DDT_AUDIT_GENERATED_(6C)
  6
Continuous
 62
     7
100
AcDbCircle
 10
187.7990066367
 20
118.366848334
 30
0.0
 40
4.997239042649703
100
AcDbArc
 50
359.9583184155
 51
89.9391936243
  0
LINE
  5
EB
330
CD
100
AcDbEntity
  8
$DDT_AUDIT_GENERATED_(6C)
  6
Continuous
 62
     7
100
AcDbLine
 10
187.8043113838
 20
123.3640845622
 30
0.0
 11
152.0561025869
 21
123.36408471
 31
0.0
  0
ARC
  5
EC
330
CD
100
AcDbEntity
  8
$DDT_AUDIT_GENERATED_(6C)
  6
Continuous
 62
     7
100
AcDbCircle
 10
170.3933520766
 20
-1072.149911957
 30
0.0
 40
1178.743743828019
100
AcDbArc
 50
89.1083012594
 51
90.8913637007
  0
ARC
  5
ED
330
CD
100
AcDbEntity
  8
$DDT_AUDIT_GENERATED_(6C)
  6
Continuous
 62
     7
100
AcDbCircle
 10
187.7983054895
 20
111.359982005
 30
0.0
 40
4.997935053982491
100
AcDbArc
 50
280.8230828919
 51
0.0369951687
  0
LINE
  5
EE
330
CD
100
AcDbEntity
  8
$DDT_AUDIT_GENERATED_(73)
  6
Continuous
 62
     7
100
AcDbLine
 10
62.1564098858
 20
123.3593516858
 30
0.0
 11
63.2741379356
 21
123.3593516858
 31
0.0
  0
LINE
  5
EF
330
CD
100
AcDbEntity
  8
$DDT_AUDIT_GENERATED_(73)
  6
Continuous
 62
     7
100
AcDbLine
 10
135.1383750103
 20
123.3593516858
 30
0.0
 11
136.2561025869
 21
123.3593516858
 31
0.0
  0
LINE
  5
F0
330
CD
100
AcDbEntity
  8
$DDT_AUDIT_GENERATED_(73)
  6
Continuous
 62
     7
100
AcDbLine
 10
6.4162680947
 20
111.359446087
 30
0.0
 11
47.1564101332
 21
111.3594460674
 31
0.0
  0
LINE
  5
F1
330
CD
100
AcDbEntity
  8
$DDT_AUDIT_GENERATED_(73)
  6
Continuous
 62
     7
100
AcDbLine
 10
47.1564102054
 20
118.3594499593
 30
0.0
 11
6.4162680947
 21
118.3594499165
 31
0.0
  0
LINE
  5
F2
330
CD
100
AcDbEntity
  8
$DDT_AUDIT_GENERATED_(73)
  6
Continuous
 62
     7
100
AcDbLine
 10
62.1564096358
 20
111.3594460478
 30
0.0
 11
47.1564101332
 21
111.3594460478
 31
0.0
  0
LINE
  5
F3
330
CD
100
AcDbEntity
  8
$DDT_AUDIT_GENERATED_(73)
  6
Continuous
 62
     7
100
AcDbLine
 10
47.1564098858
 20
123.3593516854
 30
0.0
 11
62.1564098858
 21
123.3593516855
 31
0.0
  0
LINE
  5
F4
330
CD
100
AcDbEntity
  8
$DDT_AUDIT_GENERATED_(73)
  6
Continuous
 62
     7
100
AcDbLine
 10
47.1564102054
 20
118.3594500021
 30
0.0
 11
62.1564096358
 21
118.3594500019
 31
0.0
  0
LINE
  5
F5
330
CD
100
AcDbEntity
  8
$DDT_AUDIT_GENERATED_(73)
  6
Continuous
 62
     7
100
AcDbLine
 10
47.1564098858
 20
123.3594474849
 30
0.0
 11
11.408541735
 21
123.3594474849
 31
0.0
  0
LINE
  5
F6
330
CD
100
AcDbEntity
  8
$DDT_AUDIT_GENERATED_(73)
  6
Continuous
 62
     7
100
AcDbLine
 10
62.1564098858
 20
106.3598082314
 30
0.0
 11
68.3323303722
 21
106.3598082314
 31
0.0
  0
LINE
  5
F7
330
CD
100
AcDbEntity
  8
$DDT_AUDIT_GENERATED_(73)
  6
Continuous
 62
     7
100
AcDbLine
 10
128.5661104158
 20
106.3598082314
 30
0.0
 11
136.2561025869
 21
106.3598082314
 31
0.0
  0
LINE
  5
F8
330
CD
100
AcDbEntity
  8
$DDT_AUDIT_GENERATED_(73)
  6
Continuous
 62
     7
100
AcDbLine
 10
6.4162680947
 20
118.3594499165
 30
0.0
 11
6.4162680947
 21
111.359446087
 31
0.0
  0
LINE
  5
F9
330
CD
100
AcDbEntity
  8
$DDT_AUDIT_GENERATED_(73)
  6
Continuous
 62
     7
100
AcDbLine
 10
47.108409987
 20
106.3597299081
 30
0.0
 11
62.1564098858
 21
106.3597299081
 31
0.0
  0
ARC
  5
FA
330
CD
100
AcDbEntity
  8
$DDT_AUDIT_GENERATED_(73)
  6
Continuous
 62
     7
100
AcDbCircle
 10
11.4135058144
 20
111.3558106909
 30
0.0
 40
4.997239042095577
100
AcDbArc
 50
179.9583184091
 51
269.9391936307
  0
LINE
  5
FB
330
CD
100
AcDbEntity
  8
$DDT_AUDIT_GENERATED_(73)
  6
Continuous
 62
     7
100
AcDbLine
 10
11.4082031259
 20
106.3585744628
 30
0.0
 11
47.1564099849
 21
106.3585743155
 31
0.0
  0
ARC
  5
FC
330
CD
100
AcDbEntity
  8
$DDT_AUDIT_GENERATED_(73)
  6
Continuous
 62
     7
100
AcDbCircle
 10
28.8262516206
 20
1304.6542365168
 30
0.0
 40
1181.524963509506
100
AcDbArc
 50
269.1101083088
 51
270.8889214197
  0
ARC
  5
FD
330
CD
100
AcDbEntity
  8
$DDT_AUDIT_GENERATED_(73)
  6
Continuous
 62
     7
100
AcDbCircle
 10
11.4142069467
 20
118.3626770266
 30
0.0
 40
4.997935038423959
100
AcDbArc
 50
100.8230823303
 51
180.0369952386
  0
SPLINE
  5
FE
330
CD
100
AcDbEntity
  8
$DDT_AUDIT_GENERATED_(7A)
  6
Continuous
 62
     7
100
AcDbSpline
210
0.0
220
0.0
230
1.0
 70
     8
 71
     3
 72
    22
 73
    18
 74
     0
 42
0.0000000002699066
 43
0.0000000001
 40
0.0
 40
0.0
 40
0.0
 40
0.0
 40
0.125
 40
0.125
 40
0.25
 40
0.25
 40
0.375
 40
0.375
 40
0.5
 40
0.5
 40
0.625
 40
0.625
 40
0.75
 40
0.75
 40
0.875
 40
0.875
 40
1.0
 40
1.0
 40
1.0
 40
1.0
 10
136.25610258693
 20
111.3613081357211
 30
0.0
 10
135.0550048418423
 20
111.3611538311634
 30
0.0
 10
133.8206810741231
 20
111.3610358664722
 30
0.0
 10
131.2520019235542
 20
111.36063593141
 30
0.0
 10
129.9186287260163
 20
111.3603614042661
 30
0.0
 10
127.1597141891762
 20
111.3597087370134
 30
0.0
 10
125.7351550351908
 20
111.3593380401318
 30
0.0
 10
122.8117451720094
 20
111.3586123209799
 30
0.0
 10
121.313807221991
 20
111.358264117362
 30
0.0
 10
118.2423891279413
 20
111.3575411961297
 30
0.0
 10
116.6678094749386
 20
111.3571551943082
 30
0.0
 10
113.4195058944375
 20
111.3561657886445
 30
0.0
 10
111.7444823190297
 20
111.3555493340835
 30
0.0
 10
108.2906156145699
 20
111.3541724214596
 30
0.0
 10
106.5120058566689
 20
111.3534240839273
 30
0.0
 10
102.8906382136901
 20
111.3522867691267
 30
0.0
 10
101.0486361905208
 20
111.3519184913726
 30
0.0
 10
99.2062562363905
 20
111.3519028877965
 30
0.0
  0
SPLINE
  5
FF
330
CD
100
AcDbEntity
  8
$DDT_AUDIT_GENERATED_(7A)
  6
Continuous
 62
     7
100
AcDbSpline
210
0.0
220
0.0
230
1.0
 70
     8
 71
     3
 72
    22
 73
    18
 74
     0
 42
0.0000000002699066
 43
0.0000000001
 40
0.0
 40
0.0
 40
0.0
 40
0.0
 40
0.1249999999999999
 40
0.1249999999999999
 40
0.2499999999999998
 40
0.2499999999999998
 40
0.3749999999999998
 40
0.3749999999999998
 40
0.4999999999999998
 40
0.4999999999999998
 40
0.6249999999999998
 40
0.6249999999999998
 40
0.7499999999999998
 40
0.7499999999999998
 40
0.8749999999999999
 40
0.8749999999999999
 40
1.0
 40
1.0
 40
1.0
 40
1.0
 10
99.2062562363905
 20
111.3519028877965
 30
0.0
 10
97.3638762822593
 20
111.3519184913725
 30
0.0
 10
95.52187425909007
 20
111.3522867691267
 30
0.0
 10
91.90050661611153
 20
111.3534240839272
 30
0.0
 10
90.12189685821072
 20
111.3541724214595
 30
0.0
 10
86.66803015375103
 20
111.3555493340835
 30
0.0
 10
84.99300657834321
 20
111.3561657886445
 30
0.0
 10
81.74470299784184
 20
111.3571551943082
 30
0.0
 10
80.17012334483886
 20
111.3575411961296
 30
0.0
 10
77.09870525078874
 20
111.358264117362
 30
0.0
 10
75.60076730077017
 20
111.3586123209798
 30
0.0
 10
72.67735743758851
 20
111.3593380401318
 30
0.0
 10
71.25279828360307
 20
111.3597087370134
 30
0.0
 10
68.49388374676283
 20
111.3603614042661
 30
0.0
 10
67.16051054922488
 20
111.36063593141
 30
0.0
 10
64.59183139865586
 20
111.3610358664723
 30
0.0
 10
63.35750763093642
 20
111.3611538311634
 30
0.0
 10
62.15640988584861
 20
111.3613081357211
 30
0.0
  0
SPLINE
  5
100
330
CD
100
AcDbEntity
  8
$DDT_AUDIT_GENERATED_(7A)
  6
Continuous
 62
     7
100
AcDbSpline
210
0.0
220
0.0
230
1.0
 70
     8
 71
     3
 72
    24
 73
    20
 74
     0
 42
0.000000000213995
 43
0.0000000001
 40
0.0
 40
0.0
 40
0.0
 40
0.0
 40
0.0312921935820284
 40
0.0625902303959695
 40
0.1251133616396193
 40
0.2500415402618686
 40
0.3125826884867026
 40
0.3751264776945483
 40
0.4376173847665013
 40
0.5001047583982949
 40
0.5628737067569174
 40
0.6250911619898386
 40
0.6874283331879694
 40
0.7498092278780805
 40
0.8123687160744182
 40
0.8750790974962709
 40
0.9376454872528831
 40
0.9688096638655236
 40
1.0
 40
1.0
 40
1.0
 40
1.0
 10
87.88693124138042
 20
148.8852971787544
 30
0.0
 10
87.86514555480579
 20
148.3995354665929
 30
0.0
 10
87.82157011358701
 20
147.4279213353549
 30
0.0
 10
87.72685036715512
 20
145.4857568380903
 30
0.0
 10
87.52129575530066
 20
142.0926317311701
 30
0.0
 10
87.10574354178534
 20
138.2219852880484
 30
0.0
 10
86.31485557140384
 20
134.4139310649724
 30
0.0
 10
85.48470830503157
 20
131.6146569528665
 30
0.0
 10
84.3649707986936
 20
128.9168021967991
 30
0.0
 10
82.91690369956744
 20
126.3728630850352
 30
0.0
 10
81.10425812523204
 20
124.07446289112
 30
0.0
 10
78.92568265738366
 20
122.1204614308851
 30
0.0
 10
76.44639721995854
 20
120.5766947323731
 30
0.0
 10
73.73532810982013
 20
119.4806974077556
 30
0.0
 10
70.88837936715076
 20
118.8058824849668
 30
0.0
 10
67.98317420689737
 20
118.4729951103436
 30
0.0
 10
65.55211994748205
 20
118.3791933448707
 30
0.0
 10
63.61046087154629
 20
118.3608732725498
 30
0.0
 10
62.64122908801516
 20
118.3611657130952
 30
0.0
 10
62.15640988584861
 20
118.3613119947549
 30
0.0
  0
SPLINE
  5
101
330
CD
100
AcDbEntity
  8
$DDT_AUDIT_GENERATED_(7A)
  6
Continuous
 62
     7
100
AcDbSpline
210
0.0
220
0.0
230
1.0
 70
     8
 71
     5
 72
    24
 73
    18
 74
     0
 42
0.000000000274804
 43
0.0000000001
 40
0.0
 40
0.0
 40
0.0
 40
0.0
 40
0.0
 40
0.0
 40
0.119290763996174
 40
0.193615738740638
 40
0.254105529248315
 40
0.308685179989536
 40
0.389299966735413
 40
0.456253196067019
 40
0.505313851291333
 40
0.553769799464164
 40
0.616324942713432
 40
0.659447287781273
 40
0.751370538359501
 40
0.870412205899034
 40
1.0
 40
1.0
 40
1.0
 40
1.0
 40
1.0
 40
1.0
 10
62.15640988584871
 20
123.3613095335968
 30
0.0
 10
63.03969249080531
 20
123.366607742698
 30
0.0
 10
64.42203581757181
 20
123.373488532165
 30
0.0
 10
66.14841100332501
 20
123.425023421827
 30
0.0
 10
68.14129857352911
 20
123.6314720328289
 30
0.0
 10
70.50904200026612
 20
124.2509646103241
 30
0.0
 10
72.4196970142233
 20
125.1266424772899
 30
0.0
 10
74.00350351617861
 20
126.2755863809707
 30
0.0
 10
75.29919734116241
 20
127.6607172725428
 30
0.0
 10
76.39678686564451
 20
129.3077327893536
 30
0.0
 10
77.18356603509261
 20
130.9114470973334
 30
0.0
 10
77.88596304084471
 20
132.8014399047419
 30
0.0
 10
78.54121663408091
 20
135.3369602638975
 30
0.0
 10
79.04457650370641
 20
138.7389975229146
 30
0.0
 10
79.21280199532832
 20
141.9832184284737
 30
0.0
 10
79.21687483702411
 20
145.1253717631159
 30
0.0
 10
79.18800331864301
 20
147.5689835780407
 30
0.0
 10
79.172257779827
 20
148.8852971787544
 30
0.0
  0
ARC
  5
102
330
CD
100
AcDbEntity
  8
$DDT_AUDIT_GENERATED_(7A)
  6
Continuous
 62
     7
100
AcDbCircle
 10
-1026.165115968
 20
144.9262419529
 30
0.0
 40
1105.344463921509
100
AcDbArc
 50
0.2052189591
 51
1.9161842183
  0
ARC
  5
103
330
CD
100
AcDbEntity
  8
$DDT_AUDIT_GENERATED_(7A)
  6
Continuous
 62
     7
100
AcDbCircle
 10
1223.6225972761
 20
144.9439242119
 30
0.0
 40
1104.389375641675
100
AcDbArc
 50
178.0830758957
 51
179.7955209269
  0
LINE
  5
104
330
CD
100
AcDbEntity
  8
$DDT_AUDIT_GENERATED_(7A)
  6
Continuous
 62
     7
100
AcDbLine
 10
107.1067672215
 20
181.8862198255
 30
0.0
 11
119.8512612099
 21
181.8861860386
 31
0.0
  0
SPLINE
  5
105
330
CD
100
AcDbEntity
  8
$DDT_AUDIT_GENERATED_(7A)
  6
Continuous
 62
     7
100
AcDbSpline
210
0.0
220
0.0
230
1.0
 70
     8
 71
     5
 72
    15
 73
     9
 74
     0
 42
0.0000000003009429
 43
0.0000000001
 40
0.0
 40
0.0
 40
0.0
 40
0.0
 40
0.0
 40
0.0
 40
0.181819355741687
 40
0.454546237161125
 40
0.7272731185805631
 40
1.0
 40
1.0
 40
1.0
 40
1.0
 40
1.0
 40
1.0
 10
110.5255812313982
 20
148.8852971787544
 30
0.0
 10
110.4012459866036
 20
151.6534830313205
 30
0.0
 10
110.0570439276137
 20
157.9771777758756
 30
0.0
 10
109.3651346229096
 20
165.8716659706353
 30
0.0
 10
107.9768971677507
 20
173.3502486563112
 30
0.0
 10
107.3560488031046
 20
177.514528440879
 30
0.0
 10
107.1251938686423
 20
179.9130554466653
 30
0.0
 10
107.0898048207467
 20
181.2640914411464
 30
0.0
 10
107.1067672214842
 20
181.8862198255244
 30
0.0
  0
LINE
  5
106
330
CD
100
AcDbEntity
  8
$DDT_AUDIT_GENERATED_(7A)
  6
Continuous
 62
     7
100
AcDbLine
 10
99.2062561973
 20
181.8863610788
 30
0.0
 11
107.1067672215
 21
181.8862198255
 31
0.0
  0
LINE
  5
107
330
CD
100
AcDbEntity
  8
$DDT_AUDIT_GENERATED_(7A)
  6
Continuous
 62
     7
100
AcDbLine
 10
99.2062561973
 20
181.8863610788
 30
0.0
 11
91.3057452513
 21
181.8862198255
 31
0.0
  0
SPLINE
  5
108
330
CD
100
AcDbEntity
  8
$DDT_AUDIT_GENERATED_(7A)
  6
Continuous
 62
     7
100
AcDbSpline
210
0.0
220
0.0
230
1.0
 70
     8
 71
     5
 72
    15
 73
     9
 74
     0
 42
0.0000000003009429
 43
0.0000000001
 40
0.0
 40
0.0
 40
0.0
 40
0.0
 40
0.0
 40
0.0
 40
0.272726881419422
 40
0.5454537628388689
 40
0.818180644258315
 40
1.0
 40
1.0
 40
1.0
 40
1.0
 40
1.0
 40
1.0
 10
91.30574525129445
 20
181.8862198255244
 30
0.0
 10
91.3227076520319
 20
181.2640914411464
 30
0.0
 10
91.28731860413629
 20
179.9130554466653
 30
0.0
 10
91.05646366967409
 20
177.514528440879
 30
0.0
 10
90.43561530502794
 20
173.3502486563112
 30
0.0
 10
89.04737784986901
 20
165.8716659706353
 30
0.0
 10
88.35546854516491
 20
157.9771777758756
 30
0.0
 10
88.011266486175
 20
151.6534830313205
 30
0.0
 10
87.88693124138042
 20
148.8852971787544
 30
0.0
  0
LINE
  5
109
330
CD
100
AcDbEntity
  8
$DDT_AUDIT_GENERATED_(7A)
  6
Continuous
 62
     7
100
AcDbLine
 10
91.3057452513
 20
181.8862198255
 30
0.0
 11
78.5612512612
 21
181.8861860386
 31
0.0
  0
SPLINE
  5
10A
330
CD
100
AcDbEntity
  8
$DDT_AUDIT_GENERATED_(7A)
  6
Continuous
 62
     7
100
AcDbSpline
210
0.0
220
0.0
230
1.0
 70
     8
 71
     5
 72
    24
 73
    18
 74
     0
 42
0.0000000002748041
 43
0.0000000001
 40
0.0
 40
0.0
 40
0.0
 40
0.0
 40
0.0
 40
0.0
 40
0.129587794100966
 40
0.248629461640499
 40
0.340552712218727
 40
0.383675057286568
 40
0.446230200535835
 40
0.494686148708667
 40
0.543746803932981
 40
0.610700033264586
 40
0.691314820010464
 40
0.745894470751685
 40
0.806384261259361
 40
0.880709236003825
 40
1.0
 40
1.0
 40
1.0
 40
1.0
 40
1.0
 40
1.0
 10
119.2402546929516
 20
148.8852971787544
 30
0.0
 10
119.2245091541356
 20
147.5689835780407
 30
0.0
 10
119.1956411032884
 20
145.125373531395
 30
0.0
 10
119.1997087475438
 20
141.9832140173572
 30
0.0
 10
119.3679433952799
 20
138.739004210166
 30
0.0
 10
119.8712967755624
 20
135.3369551797806
 30
0.0
 10
120.5265560021012
 20
132.8014485461235
 30
0.0
 10
121.2289507289305
 20
130.911440405347
 30
0.0
 10
122.0157290489339
 20
129.3077486333373
 30
0.0
 10
123.1133259956599
 20
127.6607062249312
 30
0.0
 10
124.4090043767348
 20
126.2756074023248
 30
0.0
 10
125.9928319494067
 20
125.1266362852022
 30
0.0
 10
127.9034609055446
 20
124.2509784787474
 30
0.0
 10
130.2712301423644
 20
123.6314707421748
 30
0.0
 10
132.2640882918072
 20
123.4250299471376
 30
0.0
 10
133.9904834478611
 20
123.3734905192439
 30
0.0
 10
135.3728199819733
 20
123.366607742698
 30
0.0
 10
136.2561025869299
 20
123.3613095335968
 30
0.0
  0
SPLINE
  5
10B
330
CD
100
AcDbEntity
  8
$DDT_AUDIT_GENERATED_(7A)
  6
Continuous
 62
     7
100
AcDbSpline
210
0.0
220
0.0
230
1.0
 70
     8
 71
     5
 72
    24
 73
    18
 74
     0
 42
0.0000000002137193
 43
0.0000000001
 40
0.0
 40
0.0
 40
0.0
 40
0.0
 40
0.0
 40
0.0
 40
0.1295877941010104
 40
0.2486294616405841
 40
0.3405527122188438
 40
0.3836750572866995
 40
0.446230200535988
 40
0.4946861487088368
 40
0.5437468039331675
 40
0.6107000332647952
 40
0.6913148200107007
 40
0.7458944707519412
 40
0.8063842612596378
 40
0.8807092360041272
 40
1.0
 40
1.0
 40
1.0
 40
1.0
 40
1.0
 40
1.0
 10
110.5255812313982
 20
148.8852971787544
 30
0.0
 10
110.579826394854
 20
147.6775891759487
 30
0.0
 10
110.6836371791922
 20
145.354494077448
 30
0.0
 10
110.8615276094507
 20
142.186157085262
 30
0.0
 10
111.2089277201023
 20
138.6238265065718
 30
0.0
 10
112.0105344832825
 20
134.524920272624
 30
0.0
 10
113.0298791701898
 20
131.2635968475375
 30
0.0
 10
114.1345078393647
 20
128.7363808703294
 30
0.0
 10
115.3741341717323
 20
126.5355031340455
 30
0.0
 10
117.1149886834037
 20
124.2308546403862
 30
0.0
 10
119.1661151380893
 20
122.2988484846145
 30
0.0
 10
121.6108706569102
 20
120.6948892040754
 30
0.0
 10
124.5242720170431
 20
119.4786108338122
 30
0.0
 10
128.0784717762346
 20
118.6420894119961
 30
0.0
 10
130.9773444275936
 20
118.4082160045896
 30
0.0
 10
133.3503700854195
 20
118.3592825709878
 30
0.0
 10
135.1426955268957
 20
118.3613119545368
 30
0.0
 10
136.25610258693
 20
118.3613119947549
 30
0.0
  0
SPLINE
  5
10C
330
CD
100
AcDbEntity
  8
$DDT_AUDIT_GENERATED_(7A)
  6
Continuous
 62
     7
100
AcDbSpline
210
0.0
220
0.0
230
1.0
 70
     8
 71
     3
 72
     8
 73
     4
 74
     0
 42
0.0000000001349533
 43
0.0000000001
 40
0.0
 40
0.0
 40
0.0
 40
0.0
 40
1.0
 40
1.0
 40
1.0
 40
1.0
 10
62.15640988584855
 20
106.3614038988793
 30
0.0
 10
84.15923161459342
 20
106.3500000000001
 30
0.0
 10
108.8591291816206
 20
106.35
 30
0.0
 10
136.2561025869301
 20
106.3614038988793
 30
0.0
  0
ENDBLK
  5
10E
330
CD
100
AcDbEntity
  8
0
100
AcDbBlockEnd
  0
ENDSEC
  0
SECTION
  2
ENTITIES
  0
INSERT
  5
5F
330
1F
100
AcDbEntity
  8
Default
100
AcDbBlockReference
  2
SE
 10
0.0
 20
0.0
 30
0.0
  0
INSERT
  5
96
330
1F
100
AcDbEntity
  8
Default
100
AcDbBlockReference
  2
SE1
 10
0.0
 20
0.0
 30
0.0
  0
INSERT
  5
CE
330
1F
100
AcDbEntity
  8
Default
100
AcDbBlockReference
  2
SE2
 10
0.0
 20
0.0
 30
0.0
  0
TEXT
  5
110
330
1F
100
AcDbEntity
  8
Default
  6
Continuous
 62
     7
100
AcDbText
 10
5.9362635081
 20
53.4225120485
 30
0.0
 40
10.0
  1
Grohe AG^J
  7
SEACAD_seiso_ttf
 11
5.9362635081
 21
63.4225120485
 31
0.0
100
AcDbText
 73
     3
  0
TEXT
  5
111
330
1F
100
AcDbEntity
  8
Default
  6
Continuous
 62
     7
100
AcDbText
 10
5.9362635081
 20
37.0588756849
 30
0.0
 40
10.0
  1
 
  7
SEACAD_seiso_ttf
 11
5.9362635081
 21
47.0588756849
 31
0.0
100
AcDbText
 73
     3
  0
TEXT
  5
112
330
1F
100
AcDbEntity
  8
Default
  6
Continuous
 62
     7
100
AcDbText
 10
5.9362635081
 20
20.6952393213
 30
0.0
 40
10.0
  1
ecn: 
  7
SEACAD_seiso_ttf
 11
5.9362635081
 21
30.6952393213
 31
0.0
100
AcDbText
 73
     3
  0
TEXT
  5
113
330
1F
100
AcDbEntity
  8
Default
  6
Continuous
 62
     7
100
AcDbText
 10
5.9362635081
 20
4.3316029576
 30
0.0
 40
10.0
  1
unit: mm
  7
SEACAD_seiso_ttf
 11
5.9362635081
 21
14.3316029576
 31
0.0
100
AcDbText
 73
     3
  0
LINE
  5
114
330
1F
100
AcDbEntity
  8
Default
  6
Continuous
 62
     7
100
AcDbLine
 10
0.0
 20
0.0
 30
0.0
 11
100.0
 21
0.0
 31
0.0
  0
LINE
  5
115
330
1F
100
AcDbEntity
  8
Default
  6
Continuous
 62
     7
100
AcDbLine
 10
0.0
 20
0.0
 30
0.0
 11
0.0
 21
100.0
 31
0.0
  0
TEXT
  5
116
330
1F
100
AcDbEntity
  8
Default
  6
Continuous
 62
     7
100
AcDbText
 10
24.3923665681
 20
-18.2375342018
 30
0.0
 40
10.0
  1
100 mm
  7
SEACAD_seiso_ttf
 11
24.3923665681
 21
-8.2375342018
 31
0.0
100
AcDbText
 73
     3
  0
TEXT
  5
117
330
1F
100
AcDbEntity
  8
Default
  6
Continuous
 62
     7
100
AcDbText
 10
-7.6150308803
 20
24.6231930421
 30
0.0
 40
10.0
  1
100 mm
 50
90.0
  7
SEACAD_seiso_ttf
 11
-17.6150308803
 21
24.6231930421
 31
0.0
100
AcDbText
 73
     3
  0
TEXT
  5
118
330
1F
100
AcDbEntity
  8
Default
  6
Continuous
 62
     7
100
AcDbText
 10
28.4878128572
 20
20.0907663715
 30
0.0
 40
10.0
  1
211890
  7
SEACAD_seiso_ttf
 11
28.4878128572
 21
30.0907663715
 31
0.0
100
AcDbText
 73
     3
  0
TEXT
  5
119
330
1F
100
AcDbEntity
  8
Default
  6
Continuous
 62
     7
100
AcDbText
 10
5.9012241913
 20
36.7242780188
 30
0.0
 40
10.0
  1
40377000
  7
SEACAD_seiso_ttf
 11
5.9012241913
 21
46.7242780188
 31
0.0
100
AcDbText
 73
     3
  0
ENDSEC
  0
SECTION
  2
OBJECTS
  0
DICTIONARY
  5
C
330
0
100
AcDbDictionary
281
     1
  3
ACAD_GROUP
350
D
  3
ACAD_LAYOUT
350
1A
  3
ACAD_MLEADERSTYLE
350
11D
  3
ACAD_MLINESTYLE
350
17
  3
ACAD_PLOTSETTINGS
350
19
  3
ACAD_PLOTSTYLENAME
350
E
  3
ACAD_SCALELIST
350
3B
  3
ACAD_TABLESTYLE
350
11C
  3
ACAD_VISUALSTYLE
350
2A
  3
AcDbVariableDictionary
350
11A
  0
DICTIONARY
  5
D
102
{ACAD_REACTORS
330
C
102
}
330
C
100
AcDbDictionary
281
     1
  0
DICTIONARY
  5
1A
102
{ACAD_REACTORS
330
C
102
}
330
C
100
AcDbDictionary
281
     1
  3
Layout1
350
1E
  3
Model
350
22
  0
DICTIONARY
  5
11D
102
{ACAD_REACTORS
330
C
102
}
330
C
100
AcDbDictionary
281
     1
  0
DICTIONARY
  5
17
102
{ACAD_REACTORS
330
C
102
}
330
C
100
AcDbDictionary
281
     1
  3
Standard
350
18
  0
DICTIONARY
  5
19
102
{ACAD_REACTORS
330
C
102
}
330
C
100
AcDbDictionary
281
     1
  0
ACDBDICTIONARYWDFLT
  5
E
102
{ACAD_REACTORS
330
C
102
}
330
C
100
AcDbDictionary
281
     1
  3
Normal
350
F
100
AcDbDictionaryWithDefault
340
F
  0
DICTIONARY
  5
3B
102
{ACAD_REACTORS
330
C
102
}
330
C
100
AcDbDictionary
281
     1
  3
A0
350
3C
  3
A1
350
3D
  3
A2
350
3E
  3
A3
350
3F
  3
A4
350
40
  3
A5
350
41
  3
A6
350
42
  3
A7
350
43
  3
A8
350
44
  3
A9
350
45
  3
B0
350
46
  3
B1
350
47
  3
B2
350
48
  3
B3
350
49
  3
B4
350
4A
  3
B5
350
4B
  3
B6
350
4C
  3
B7
350
4D
  3
B8
350
4E
  3
B9
350
4F
  3
C0
350
50
  3
C1
350
51
  3
C2
350
52
  3
C3
350
53
  3
C4
350
54
  3
C5
350
55
  3
C6
350
56
  3
C7
350
57
  3
C8
350
58
  3
C9
350
59
  3
D0
350
5A
  3
D1
350
5B
  3
D2
350
5C
  0
DICTIONARY
  5
11C
102
{ACAD_REACTORS
330
C
102
}
330
C
100
AcDbDictionary
281
     1
  0
DICTIONARY
  5
2A
102
{ACAD_REACTORS
330
C
102
}
330
C
100
AcDbDictionary
281
     1
  3
2dWireframe
350
2F
  3
3D Hidden
350
31
  3
3dWireframe
350
30
  3
Basic
350
32
  3
Brighten
350
36
  3
ColorChange
350
3A
  3
Conceptual
350
34
  3
Dim
350
35
  3
Facepattern
350
39
  3
Flat
350
2B
  3
FlatWithEdges
350
2C
  3
Gouraud
350
2D
  3
GouraudWithEdges
350
2E
  3
Linepattern
350
38
  3
Realistic
350
33
  3
Thicken
350
37
  0
DICTIONARY
  5
11A
102
{ACAD_REACTORS
330
C
102
}
330
C
100
AcDbDictionary
281
     1
  3
CANNOSCALE
350
11B
  3
PSOLHEIGHT
350
11F
  3
PSOLWIDTH
350
11E
  0
LAYOUT
  5
1E
102
{ACAD_REACTORS
330
1A
102
}
330
1A
100
AcDbPlotSettings
  1

  2
none_device
  4

  6

 40
0.0
 41
0.0
 42
0.0
 43
0.0
 44
0.0
 45
0.0
 46
0.0
 47
0.0
 48
0.0
 49
0.0
140
0.0
141
0.0
142
1.0
143
1.0
 70
   688
 72
     0
 73
     0
 74
     5
  7

 75
    16
147
1.0
148
0.0
149
0.0
100
AcDbLayout
  1
Layout1
 70
     1
 71
     1
 10
0.0
 20
0.0
 11
1682.0
 21
2378.0
 12
0.0
 22
0.0
 32
0.0
 14
0.0
 24
0.0
 34
0.0
 15
1682.0
 25
2378.0
 35
0.0
146
0.0
 13
0.0
 23
0.0
 33
0.0
 16
1.0
 26
0.0
 36
0.0
 17
0.0
 27
1.0
 37
0.0
 76
     0
330
1B
  0
LAYOUT
  5
22
102
{ACAD_REACTORS
330
1A
102
}
330
1A
100
AcDbPlotSettings
  1

  2
none_device
  4

  6

 40
0.0
 41
0.0
 42
0.0
 43
0.0
 44
0.0
 45
0.0
 46
0.0
 47
0.0
 48
0.0
 49
0.0
140
0.0
141
0.0
142
1.0
143
1.0
 70
  1712
 72
     0
 73
     0
 74
     0
  7

 75
     0
147
1.0
148
0.0
149
0.0
100
AcDbLayout
  1
Model
 70
     1
 71
     0
 10
0.0
 20
0.0
 11
1682.0
 21
2378.0
 12
0.0
 22
0.0
 32
0.0
 14
0.0
 24
0.0
 34
0.0
 15
1682.0
 25
2378.0
 35
0.0
146
0.0
 13
0.0
 23
0.0
 33
0.0
 16
1.0
 26
0.0
 36
0.0
 17
0.0
 27
1.0
 37
0.0
 76
     0
330
1F
331
29
  0
MLINESTYLE
  5
18
102
{ACAD_REACTORS
330
17
102
}
330
17
100
AcDbMlineStyle
  2
Standard
 70
     0
  3

 62
   256
 51
90.0
 52
90.0
 71
     2
 49
0.5
 62
   256
  6
BYLAYER
 49
-0.5
 62
   256
  6
BYLAYER
  0
ACDBPLACEHOLDER
  5
F
102
{ACAD_REACTORS
330
E
102
}
330
E
  0
SCALE
  5
3C
102
{ACAD_REACTORS
330
3B
102
}
330
3B
100
AcDbScale
 70
     0
300
1:1
140
1.0
141
1.0
290
     1
  0
SCALE
  5
3D
102
{ACAD_REACTORS
330
3B
102
}
330
3B
100
AcDbScale
 70
     0
300
1:2
140
1.0
141
2.0
290
     0
  0
SCALE
  5
3E
102
{ACAD_REACTORS
330
3B
102
}
330
3B
100
AcDbScale
 70
     0
300
1:4
140
1.0
141
4.0
290
     0
  0
SCALE
  5
3F
102
{ACAD_REACTORS
330
3B
102
}
330
3B
100
AcDbScale
 70
     0
300
1:5
140
1.0
141
5.0
290
     0
  0
SCALE
  5
40
102
{ACAD_REACTORS
330
3B
102
}
330
3B
100
AcDbScale
 70
     0
300
1:8
140
1.0
141
8.0
290
     0
  0
SCALE
  5
41
102
{ACAD_REACTORS
330
3B
102
}
330
3B
100
AcDbScale
 70
     0
300
1:10
140
1.0
141
10.0
290
     0
  0
SCALE
  5
42
102
{ACAD_REACTORS
330
3B
102
}
330
3B
100
AcDbScale
 70
     0
300
1:16
140
1.0
141
16.0
290
     0
  0
SCALE
  5
43
102
{ACAD_REACTORS
330
3B
102
}
330
3B
100
AcDbScale
 70
     0
300
1:20
140
1.0
141
20.0
290
     0
  0
SCALE
  5
44
102
{ACAD_REACTORS
330
3B
102
}
330
3B
100
AcDbScale
 70
     0
300
1:30
140
1.0
141
30.0
290
     0
  0
SCALE
  5
45
102
{ACAD_REACTORS
330
3B
102
}
330
3B
100
AcDbScale
 70
     0
300
1:40
140
1.0
141
40.0
290
     0
  0
SCALE
  5
46
102
{ACAD_REACTORS
330
3B
102
}
330
3B
100
AcDbScale
 70
     0
300
1:50
140
1.0
141
50.0
290
     0
  0
SCALE
  5
47
102
{ACAD_REACTORS
330
3B
102
}
330
3B
100
AcDbScale
 70
     0
300
1:100
140
1.0
141
100.0
290
     0
  0
SCALE
  5
48
102
{ACAD_REACTORS
330
3B
102
}
330
3B
100
AcDbScale
 70
     0
300
2:1
140
2.0
141
1.0
290
     0
  0
SCALE
  5
49
102
{ACAD_REACTORS
330
3B
102
}
330
3B
100
AcDbScale
 70
     0
300
4:1
140
4.0
141
1.0
290
     0
  0
SCALE
  5
4A
102
{ACAD_REACTORS
330
3B
102
}
330
3B
100
AcDbScale
 70
     0
300
8:1
140
8.0
141
1.0
290
     0
  0
SCALE
  5
4B
102
{ACAD_REACTORS
330
3B
102
}
330
3B
100
AcDbScale
 70
     0
300
10:1
140
10.0
141
1.0
290
     0
  0
SCALE
  5
4C
102
{ACAD_REACTORS
330
3B
102
}
330
3B
100
AcDbScale
 70
     0
300
100:1
140
100.0
141
1.0
290
     0
  0
SCALE
  5
4D
102
{ACAD_REACTORS
330
3B
102
}
330
3B
100
AcDbScale
 70
     0
300
1/128" = 1'-0"
140
0.0078125
141
12.0
290
     0
  0
SCALE
  5
4E
102
{ACAD_REACTORS
330
3B
102
}
330
3B
100
AcDbScale
 70
     0
300
1/64" = 1'-0"
140
0.015625
141
12.0
290
     0
  0
SCALE
  5
4F
102
{ACAD_REACTORS
330
3B
102
}
330
3B
100
AcDbScale
 70
     0
300
1/32" = 1'-0"
140
0.03125
141
12.0
290
     0
  0
SCALE
  5
50
102
{ACAD_REACTORS
330
3B
102
}
330
3B
100
AcDbScale
 70
     0
300
1/16" = 1'-0"
140
0.0625
141
12.0
290
     0
  0
SCALE
  5
51
102
{ACAD_REACTORS
330
3B
102
}
330
3B
100
AcDbScale
 70
     0
300
3/32" = 1'-0"
140
0.09375
141
12.0
290
     0
  0
SCALE
  5
52
102
{ACAD_REACTORS
330
3B
102
}
330
3B
100
AcDbScale
 70
     0
300
1/8" = 1'-0"
140
0.125
141
12.0
290
     0
  0
SCALE
  5
53
102
{ACAD_REACTORS
330
3B
102
}
330
3B
100
AcDbScale
 70
     0
300
3/16" = 1'-0"
140
0.1875
141
12.0
290
     0
  0
SCALE
  5
54
102
{ACAD_REACTORS
330
3B
102
}
330
3B
100
AcDbScale
 70
     0
300
1/4" = 1'-0"
140
0.25
141
12.0
290
     0
  0
SCALE
  5
55
102
{ACAD_REACTORS
330
3B
102
}
330
3B
100
AcDbScale
 70
     0
300
3/8" = 1'-0"
140
0.375
141
12.0
290
     0
  0
SCALE
  5
56
102
{ACAD_REACTORS
330
3B
102
}
330
3B
100
AcDbScale
 70
     0
300
1/2" = 1'-0"
140
0.5
141
12.0
290
     0
  0
SCALE
  5
57
102
{ACAD_REACTORS
330
3B
102
}
330
3B
100
AcDbScale
 70
     0
300
3/4" = 1'-0"
140
0.75
141
12.0
290
     0
  0
SCALE
  5
58
102
{ACAD_REACTORS
330
3B
102
}
330
3B
100
AcDbScale
 70
     0
300
1" = 1'-0"
140
1.0
141
12.0
290
     0
  0
SCALE
  5
59
102
{ACAD_REACTORS
330
3B
102
}
330
3B
100
AcDbScale
 70
     0
300
1-1/2" = 1'-0"
140
1.5
141
12.0
290
     0
  0
SCALE
  5
5A
102
{ACAD_REACTORS
330
3B
102
}
330
3B
100
AcDbScale
 70
     0
300
3" = 1'-0"
140
3.0
141
12.0
290
     0
  0
SCALE
  5
5B
102
{ACAD_REACTORS
330
3B
102
}
330
3B
100
AcDbScale
 70
     0
300
6" = 1'-0"
140
6.0
141
12.0
290
     0
  0
SCALE
  5
5C
102
{ACAD_REACTORS
330
3B
102
}
330
3B
100
AcDbScale
 70
     0
300
1'-0" = 1'-0"
140
12.0
141
12.0
290
     0
  0
VISUALSTYLE
  5
2F
102
{ACAD_REACTORS
330
2A
102
}
330
2A
100
AcDbVisualStyle
  2
2dWireframe
 70
     4
 71
     0
 72
     2
 73
     0
 90
        0
 40
-0.6
 41
-30.0
 62
     5
 63
     7
 74
     1
 91
        4
 64
     7
 65
   257
 75
     1
175
     1
 42
1.0
 92
        0
 66
   257
 43
1.0
 76
     1
 77
     6
 78
     2
 67
     7
 79
     5
170
     0
171
     0
290
     0
174
     0
 93
        1
 44
0.0
173
     0
291
     0
 45
0.0
1001
ACAD
1000
AcDbSavedByObjectVersion
1070
     0
  0
VISUALSTYLE
  5
31
102
{ACAD_REACTORS
330
2A
102
}
330
2A
100
AcDbVisualStyle
  2
3D Hidden
 70
     6
 71
     1
 72
     2
 73
     2
 90
        0
 40
-0.6
 41
-30.0
 62
     5
 63
     7
 74
     2
 91
        2
 64
     7
 65
   257
 75
     2
175
     1
 42
40.0
 92
        0
 66
   257
 43
1.0
 76
     1
 77
     6
 78
     2
 67
     7
 79
     3
170
     0
171
     0
290
     0
174
     0
 93
        1
 44
0.0
173
     0
291
     0
 45
0.0
1001
ACAD
1000
AcDbSavedByObjectVersion
1070
     0
  0
VISUALSTYLE
  5
30
102
{ACAD_REACTORS
330
2A
102
}
330
2A
100
AcDbVisualStyle
  2
3dWireframe
 70
     5
 71
     0
 72
     2
 73
     0
 90
        0
 40
-0.6
 41
-30.0
 62
     5
 63
     7
 74
     1
 91
        4
 64
     7
 65
   257
 75
     1
175
     1
 42
1.0
 92
        0
 66
   257
 43
1.0
 76
     1
 77
     6
 78
     2
 67
     7
 79
     5
170
     0
171
     0
290
     0
174
     0
 93
        1
 44
0.0
173
     0
291
     0
 45
0.0
1001
ACAD
1000
AcDbSavedByObjectVersion
1070
     0
  0
VISUALSTYLE
  5
32
102
{ACAD_REACTORS
330
2A
102
}
330
2A
100
AcDbVisualStyle
  2
Basic
 70
     7
 71
     1
 72
     0
 73
     1
 90
        0
 40
-0.6
 41
-30.0
 62
     5
 63
     7
 74
     0
 91
        4
 64
     7
 65
   257
 75
     1
175
     1
 42
1.0
 92
        8
 66
     7
 43
1.0
 76
     1
 77
     6
 78
     2
 67
     7
 79
     5
170
     0
171
     0
290
     0
174
     0
 93
        1
 44
0.0
173
     0
291
     1
 45
0.0
1001
ACAD
1000
AcDbSavedByObjectVersion
1070
     0
  0
VISUALSTYLE
  5
36
102
{ACAD_REACTORS
330
2A
102
}
330
2A
100
AcDbVisualStyle
  2
Brighten
 70
    12
 71
     2
 72
     2
 73
     0
 90
        0
 40
-0.6
 41
-30.0
 62
     5
 63
     7
 74
     1
 91
        4
 64
     7
 65
   257
 75
     1
175
     1
 42
1.0
 92
        8
 66
     7
 43
1.0
 76
     1
 77
     6
 78
     2
 67
     7
 79
     5
170
     0
171
     0
290
     0
174
     0
 93
        1
 44
50.0
173
     0
291
     1
 45
0.0
1001
ACAD
1000
AcDbSavedByObjectVersion
1070
     0
  0
VISUALSTYLE
  5
3A
102
{ACAD_REACTORS
330
2A
102
}
330
2A
100
AcDbVisualStyle
  2
ColorChange
 70
    16
 71
     2
 72
     2
 73
     3
 90
        0
 40
-0.6
 41
-30.0
 62
     5
 63
     8
 74
     1
 91
        4
 64
     7
 65
   257
 75
     1
175
     1
 42
1.0
 92
        8
 66
     8
 43
1.0
 76
     1
 77
     6
 78
     2
 67
     7
 79
     5
170
     0
171
     0
290
     0
174
     0
 93
        1
 44
0.0
173
     0
291
     1
 45
0.0
1001
ACAD
1000
AcDbSavedByObjectVersion
1070
     0
  0
VISUALSTYLE
  5
34
102
{ACAD_REACTORS
330
2A
102
}
330
2A
100
AcDbVisualStyle
  2
Conceptual
 70
     9
 71
     3
 72
     2
 73
     0
 90
        0
 40
-0.6
 41
-30.0
 62
     5
 63
     7
 74
     2
 91
        2
 64
     7
 65
   257
 75
     1
175
     1
 42
40.0
 92
        8
 66
     7
 43
1.0
 76
     1
 77
     6
 78
     2
 67
     7
 79
     3
170
     0
171
     0
290
     0
174
     0
 93
        1
 44
0.0
173
     0
291
     0
 45
0.0
1001
ACAD
1000
AcDbSavedByObjectVersion
1070
     0
  0
VISUALSTYLE
  5
35
102
{ACAD_REACTORS
330
2A
102
}
330
2A
100
AcDbVisualStyle
  2
Dim
 70
    11
 71
     2
 72
     2
 73
     0
 90
        0
 40
-0.6
 41
-30.0
 62
     5
 63
     7
 74
     1
 91
        4
 64
     7
 65
   257
 75
     1
175
     1
 42
1.0
 92
        8
 66
     7
 43
1.0
 76
     1
 77
     6
 78
     2
 67
     7
 79
     5
170
     0
171
     0
290
     0
174
     0
 93
        1
 44
-50.0
173
     0
291
     1
 45
0.0
1001
ACAD
1000
AcDbSavedByObjectVersion
1070
     0
  0
VISUALSTYLE
  5
39
102
{ACAD_REACTORS
330
2A
102
}
330
2A
100
AcDbVisualStyle
  2
Facepattern
 70
    15
 71
     2
 72
     2
 73
     0
 90
        0
 40
-0.6
 41
-30.0
 62
     5
 63
     7
 74
     1
 91
        4
 64
     7
 65
   257
 75
     1
175
     1
 42
1.0
 92
        8
 66
     7
 43
1.0
 76
     1
 77
     6
 78
     2
 67
     7
 79
     5
170
     0
171
     0
290
     0
174
     0
 93
        1
 44
0.0
173
     0
291
     1
 45
0.0
1001
ACAD
1000
AcDbSavedByObjectVersion
1070
     0
  0
VISUALSTYLE
  5
2B
102
{ACAD_REACTORS
330
2A
102
}
330
2A
100
AcDbVisualStyle
  2
Flat
 70
     0
 71
     2
 72
     1
 73
     1
 90
        2
 40
-0.6
 41
30.0
 62
     5
 63
     7
 74
     0
 91
        4
 64
     7
 65
   257
 75
     1
175
     1
 42
1.0
 92
        8
 66
     7
 43
1.0
 76
     1
 77
     6
 78
     2
 67
     7
 79
     5
170
     0
171
     0
290
     0
174
     0
 93
       13
 44
0.0
173
     0
291
     1
 45
0.0
1001
ACAD
1000
AcDbSavedByObjectVersion
1070
     0
  0
VISUALSTYLE
  5
2C
102
{ACAD_REACTORS
330
2A
102
}
330
2A
100
AcDbVisualStyle
  2
FlatWithEdges
 70
     1
 71
     2
 72
     1
 73
     1
 90
        2
 40
-0.6
 41
30.0
 62
     5
 63
     7
 74
     1
 91
        4
 64
     7
 65
   257
 75
     1
175
     1
 42
1.0
 92
        0
 66
   257
 43
1.0
 76
     1
 77
     6
 78
     2
 67
     7
 79
     5
170
     0
171
     0
290
     0
174
     0
 93
       13
 44
0.0
173
     0
291
     1
 45
0.0
1001
ACAD
1000
AcDbSavedByObjectVersion
1070
     0
  0
VISUALSTYLE
  5
2D
102
{ACAD_REACTORS
330
2A
102
}
330
2A
100
AcDbVisualStyle
  2
Gouraud
 70
     2
 71
     2
 72
     2
 73
     1
 90
        2
 40
-0.6
 41
30.0
 62
     5
 63
     7
 74
     0
 91
        4
 64
     7
 65
   257
 75
     1
175
     1
 42
1.0
 92
        0
 66
     7
 43
1.0
 76
     1
 77
     6
 78
     2
 67
     7
 79
     5
170
     0
171
     0
290
     0
174
     0
 93
       13
 44
0.0
173
     0
291
     1
 45
0.0
1001
ACAD
1000
AcDbSavedByObjectVersion
1070
     0
  0
VISUALSTYLE
  5
2E
102
{ACAD_REACTORS
330
2A
102
}
330
2A
100
AcDbVisualStyle
  2
GouraudWithEdges
 70
     3
 71
     2
 72
     2
 73
     1
 90
        2
 40
-0.6
 41
30.0
 62
     5
 63
     7
 74
     1
 91
        4
 64
     7
 65
   257
 75
     1
175
     1
 42
1.0
 92
        0
 66
   257
 43
1.0
 76
     1
 77
     6
 78
     2
 67
     7
 79
     5
170
     0
171
     0
290
     0
174
     0
 93
       13
 44
0.0
173
     0
291
     1
 45
0.0
1001
ACAD
1000
AcDbSavedByObjectVersion
1070
     0
  0
VISUALSTYLE
  5
38
102
{ACAD_REACTORS
330
2A
102
}
330
2A
100
AcDbVisualStyle
  2
Linepattern
 70
    14
 71
     2
 72
     2
 73
     0
 90
        0
 40
-0.6
 41
-30.0
 62
     5
 63
     7
 74
     1
 91
        4
 64
     7
 65
   257
 75
     7
175
     7
 42
1.0
 92
        8
 66
     7
 43
1.0
 76
     1
 77
     6
 78
     2
 67
     7
 79
     5
170
     0
171
     0
290
     0
174
     0
 93
        1
 44
0.0
173
     0
291
     1
 45
0.0
1001
ACAD
1000
AcDbSavedByObjectVersion
1070
     0
  0
VISUALSTYLE
  5
33
102
{ACAD_REACTORS
330
2A
102
}
330
2A
100
AcDbVisualStyle
  2
Realistic
 70
     8
 71
     2
 72
     2
 73
     0
 90
        0
 40
-0.6
 41
-30.0
 62
     5
 63
     7
 74
     1
 91
        0
 64
     7
 65
   257
 75
     1
175
     1
 42
1.0
 92
        8
 66
     8
 43
1.0
 76
     1
 77
     6
 78
     2
 67
     7
 79
     5
170
     0
171
     0
290
     0
174
     0
 93
       13
 44
0.0
173
     0
291
     0
 45
0.0
1001
ACAD
1000
AcDbSavedByObjectVersion
1070
     0
  0
VISUALSTYLE
  5
37
102
{ACAD_REACTORS
330
2A
102
}
330
2A
100
AcDbVisualStyle
  2
Thicken
 70
    13
 71
     2
 72
     2
 73
     0
 90
        0
 40
-0.6
 41
-30.0
 62
     5
 63
     7
 74
     1
 91
        4
 64
     7
 65
   257
 75
     1
175
     1
 42
1.0
 92
       12
 66
     7
 43
1.0
 76
     1
 77
     6
 78
     2
 67
     7
 79
     5
170
     0
171
     0
290
     0
174
     0
 93
        1
 44
0.0
173
     0
291
     1
 45
0.0
1001
ACAD
1000
AcDbSavedByObjectVersion
1070
     0
  0
DICTIONARYVAR
  5
11B
102
{ACAD_REACTORS
330
11A
102
}
330
11A
100
DictionaryVariables
280
     0
  1
1:1
  0
DICTIONARYVAR
  5
11F
102
{ACAD_REACTORS
330
11A
102
}
330
11A
100
DictionaryVariables
280
     0
  1
80.000000
  0
DICTIONARYVAR
  5
11E
102
{ACAD_REACTORS
330
11A
102
}
330
11A
100
DictionaryVariables
280
     0
  1
5.000000
  0
ENDSEC
  0
EOF
