  0
SECTION
  2
HEADER
  9
$ACADVER
  1
AC1015
  9
$ACADMAINTVER
 70
     6
  9
$DWGCODEPAGE
  3
ANSI_1252
  9
$INSBASE
 10
0.0
 20
0.0
 30
0.0
  9
$EXTMIN
 10
0.0
 20
0.0
 30
0.0
  9
$EXTMAX
 10
3000.0
 20
4500.0
 30
0.0
  9
$LIMMIN
 10
0.0
 20
0.0
  9
$LIMMAX
 10
3000.0
 20
4500.0
  9
$ORTHOMODE
 70
     0
  9
$REGENMODE
 70
     1
  9
$FILLMODE
 70
     1
  9
$QTEXTMODE
 70
     0
  9
$MIRRTEXT
 70
     1
  9
$LTSCALE
 40
1.0
  9
$ATTMODE
 70
     1
  9
$TEXTSIZE
 40
2.5
  9
$TRACEWID
 40
1.0
  9
$TEXTSTYLE
  7
Standard
  9
$CLAYER
  8
0
  9
$CELTYPE
  6
ByLayer
  9
$CECOLOR
 62
   256
  9
$CELTSCALE
 40
1.0
  9
$DISPSILH
 70
     0
  9
$DIMSCALE
 40
1.0
  9
$DIMASZ
 40
2.5
  9
$DIMEXO
 40
0.625
  9
$DIMDLI
 40
3.75
  9
$DIMRND
 40
0.0
  9
$DIMDLE
 40
0.0
  9
$DIMEXE
 40
1.25
  9
$DIMTP
 40
0.0
  9
$DIMTM
 40
0.0
  9
$DIMTXT
 40
2.5
  9
$DIMCEN
 40
2.5
  9
$DIMTSZ
 40
0.0
  9
$DIMTOL
 70
     0
  9
$DIMLIM
 70
     0
  9
$DIMTIH
 70
     0
  9
$DIMTOH
 70
     0
  9
$DIMSE1
 70
     0
  9
$DIMSE2
 70
     0
  9
$DIMTAD
 70
     1
  9
$DIMZIN
 70
     8
  9
$DIMBLK
  1

  9
$DIMASO
 70
     1
  9
$DIMSHO
 70
     1
  9
$DIMPOST
  1

  9
$DIMAPOST
  1

  9
$DIMALT
 70
     0
  9
$DIMALTD
 70
     3
  9
$DIMALTF
 40
0.0393700787
  9
$DIMLFAC
 40
1.0
  9
$DIMTOFL
 70
     1
  9
$DIMTVP
 40
0.0
  9
$DIMTIX
 70
     0
  9
$DIMSOXD
 70
     0
  9
$DIMSAH
 70
     0
  9
$DIMBLK1
  1

  9
$DIMBLK2
  1

  9
$DIMSTYLE
  2
ISO-25
  9
$DIMCLRD
 70
     0
  9
$DIMCLRE
 70
     0
  9
$DIMCLRT
 70
     0
  9
$DIMTFAC
 40
1.0
  9
$DIMGAP
 40
0.625
  9
$DIMJUST
 70
     0
  9
$DIMSD1
 70
     0
  9
$DIMSD2
 70
     0
  9
$DIMTOLJ
 70
     0
  9
$DIMTZIN
 70
     8
  9
$DIMALTZ
 70
     0
  9
$DIMALTTZ
 70
     0
  9
$DIMUPT
 70
     0
  9
$DIMDEC
 70
     2
  9
$DIMTDEC
 70
     2
  9
$DIMALTU
 70
     2
  9
$DIMALTTD
 70
     3
  9
$DIMTXSTY
  7
Standard
  9
$DIMAUNIT
 70
     0
  9
$DIMADEC
 70
     0
  9
$DIMALTRND
 40
0.0
  9
$DIMAZIN
 70
     0
  9
$DIMDSEP
 70
    44
  9
$DIMATFIT
 70
     3
  9
$DIMFRAC
 70
     0
  9
$DIMLDRBLK
  1

  9
$DIMLUNIT
 70
     2
  9
$DIMLWD
 70
    -2
  9
$DIMLWE
 70
    -2
  9
$DIMTMOVE
 70
     0
  9
$LUNITS
 70
     2
  9
$LUPREC
 70
     4
  9
$SKETCHINC
 40
1.0
  9
$FILLETRAD
 40
10.0
  9
$AUNITS
 70
     0
  9
$AUPREC
 70
     0
  9
$MENU
  1
.
  9
$ELEVATION
 40
0.0
  9
$PELEVATION
 40
0.0
  9
$THICKNESS
 40
0.0
  9
$LIMCHECK
 70
     0
  9
$CHAMFERA
 40
10.0
  9
$CHAMFERB
 40
10.0
  9
$CHAMFERC
 40
20.0
  9
$CHAMFERD
 40
0.0
  9
$SKPOLY
 70
     0
  9
$TDCREATE
 40
2456135.513041759
  9
$TDUCREATE
 40
2456135.429708426
  9
$TDUPDATE
 40
2456135.513041771
  9
$TDUUPDATE
 40
2456135.429708438
  9
$TDINDWG
 40
0.0000000116
  9
$TDUSRTIMER
 40
0.0000000116
  9
$USRTIMER
 70
     1
  9
$ANGBASE
 50
0.0
  9
$ANGDIR
 70
     0
  9
$PDMODE
 70
     0
  9
$PDSIZE
 40
0.0
  9
$PLINEWID
 40
0.0
  9
$SPLFRAME
 70
     0
  9
$SPLINETYPE
 70
     6
  9
$SPLINESEGS
 70
     8
  9
$HANDSEED
  5
145
  9
$SURFTAB1
 70
     6
  9
$SURFTAB2
 70
     6
  9
$SURFTYPE
 70
     6
  9
$SURFU
 70
     6
  9
$SURFV
 70
     6
  9
$UCSBASE
  2

  9
$UCSNAME
  2

  9
$UCSORG
 10
0.0
 20
0.0
 30
0.0
  9
$UCSXDIR
 10
1.0
 20
0.0
 30
0.0
  9
$UCSYDIR
 10
0.0
 20
1.0
 30
0.0
  9
$UCSORTHOREF
  2

  9
$UCSORTHOVIEW
 70
     0
  9
$UCSORGTOP
 10
0.0
 20
0.0
 30
0.0
  9
$UCSORGBOTTOM
 10
0.0
 20
0.0
 30
0.0
  9
$UCSORGLEFT
 10
0.0
 20
0.0
 30
0.0
  9
$UCSORGRIGHT
 10
0.0
 20
0.0
 30
0.0
  9
$UCSORGFRONT
 10
0.0
 20
0.0
 30
0.0
  9
$UCSORGBACK
 10
0.0
 20
0.0
 30
0.0
  9
$PUCSBASE
  2

  9
$PUCSNAME
  2

  9
$PUCSORG
 10
0.0
 20
0.0
 30
0.0
  9
$PUCSXDIR
 10
1.0
 20
0.0
 30
0.0
  9
$PUCSYDIR
 10
0.0
 20
1.0
 30
0.0
  9
$PUCSORTHOREF
  2

  9
$PUCSORTHOVIEW
 70
     0
  9
$PUCSORGTOP
 10
0.0
 20
0.0
 30
0.0
  9
$PUCSORGBOTTOM
 10
0.0
 20
0.0
 30
0.0
  9
$PUCSORGLEFT
 10
0.0
 20
0.0
 30
0.0
  9
$PUCSORGRIGHT
 10
0.0
 20
0.0
 30
0.0
  9
$PUCSORGFRONT
 10
0.0
 20
0.0
 30
0.0
  9
$PUCSORGBACK
 10
0.0
 20
0.0
 30
0.0
  9
$USERI1
 70
     0
  9
$USERI2
 70
     0
  9
$USERI3
 70
     0
  9
$USERI4
 70
     0
  9
$USERI5
 70
     0
  9
$USERR1
 40
0.0
  9
$USERR2
 40
0.0
  9
$USERR3
 40
0.0
  9
$USERR4
 40
0.0
  9
$USERR5
 40
0.0
  9
$WORLDVIEW
 70
     1
  9
$SHADEDGE
 70
     3
  9
$SHADEDIF
 70
    70
  9
$TILEMODE
 70
     1
  9
$MAXACTVP
 70
    64
  9
$PINSBASE
 10
0.0
 20
0.0
 30
0.0
  9
$PLIMCHECK
 70
     0
  9
$PEXTMIN
 10
0.0
 20
0.0
 30
0.0
  9
$PEXTMAX
 10
3000.0
 20
4500.0
 30
0.0
  9
$PLIMMIN
 10
0.0
 20
0.0
  9
$PLIMMAX
 10
3000.0
 20
4500.0
  9
$UNITMODE
 70
     0
  9
$VISRETAIN
 70
     1
  9
$PLINEGEN
 70
     0
  9
$PSLTSCALE
 70
     1
  9
$TREEDEPTH
 70
  3020
  9
$CMLSTYLE
  2
Standard
  9
$CMLJUST
 70
     0
  9
$CMLSCALE
 40
20.0
  9
$PROXYGRAPHICS
 70
     1
  9
$MEASUREMENT
 70
     1
  9
$CELWEIGHT
370
    -1
  9
$ENDCAPS
280
     0
  9
$JOINSTYLE
280
     0
  9
$LWDISPLAY
290
     0
  9
$INSUNITS
 70
     4
  9
$HYPERLINKBASE
  1

  9
$STYLESHEET
  1

  9
$XEDIT
290
     1
  9
$CEPSNTYPE
380
     0
  9
$PSTYLEMODE
290
     1
  9
$FINGERPRINTGUID
  2
{161FB448-BA59-4C58-9A6C-D3A89F192199}
  9
$VERSIONGUID
  2
{FAEB1C32-E019-11D5-929B-00C0DF256EC4}
  9
$EXTNAMES
290
     1
  9
$PSVPSCALE
 40
0.0
  9
$OLESTARTUP
290
     0
  0
ENDSEC
  0
SECTION
  2
CLASSES
  0
CLASS
  1
ACDBDICTIONARYWDFLT
  2
AcDbDictionaryWithDefault
  3
ObjectDBX Classes
 90
        0
280
     0
281
     0
  0
CLASS
  1
VISUALSTYLE
  2
AcDbVisualStyle
  3
ObjectDBX Classes
 90
     4095
280
     0
281
     0
  0
CLASS
  1
SCALE
  2
AcDbScale
  3
ObjectDBX Classes
 90
     1153
280
     0
281
     0
  0
CLASS
  1
DICTIONARYVAR
  2
AcDbDictionaryVar
  3
ObjectDBX Classes
 90
        0
280
     0
281
     0
  0
CLASS
  1
ACDBPLACEHOLDER
  2
AcDbPlaceHolder
  3
ObjectDBX Classes
 90
        0
280
     0
281
     0
  0
CLASS
  1
LAYOUT
  2
AcDbLayout
  3
ObjectDBX Classes
 90
        0
280
     0
281
     0
  0
ENDSEC
  0
SECTION
  2
TABLES
  0
TABLE
  2
VPORT
  5
8
330
0
100
AcDbSymbolTable
 70
     1
  0
VPORT
  5
29
330
8
100
AcDbSymbolTableRecord
100
AcDbViewportTableRecord
  2
*Active
 70
     0
 10
0.0
 20
0.0
 11
1.0
 21
1.0
 12
344.1869158879
 22
148.5
 13
0.0
 23
0.0
 14
10.0
 24
10.0
 15
10.0
 25
10.0
 16
0.0
 26
0.0
 36
1.0
 17
0.0
 27
0.0
 37
0.0
 40
297.0
 41
1.9729729729
 42
50.0
 43
0.0
 44
0.0
 50
0.0
 51
0.0
 71
     0
 72
   100
 73
     1
 74
     3
 75
     0
 76
     0
 77
     0
 78
     0
281
     0
 65
     1
110
0.0
120
0.0
130
0.0
111
1.0
121
0.0
131
0.0
112
0.0
122
1.0
132
0.0
 79
     0
146
0.0
  0
ENDTAB
  0
TABLE
  2
LTYPE
  5
5
330
0
100
AcDbSymbolTable
 70
     2
  0
LTYPE
  5
14
330
5
100
AcDbSymbolTableRecord
100
AcDbLinetypeTableRecord
  2
ByBlock
 70
     0
  3

 72
    65
 73
     0
 40
0.0
  0
LTYPE
  5
15
330
5
100
AcDbSymbolTableRecord
100
AcDbLinetypeTableRecord
  2
ByLayer
 70
     0
  3

 72
    65
 73
     0
 40
0.0
  0
LTYPE
  5
16
330
5
100
AcDbSymbolTableRecord
100
AcDbLinetypeTableRecord
  2
Continuous
 70
     0
  3
Solid line
 72
    65
 73
     0
 40
0.0
  0
LTYPE
  5
60
330
5
100
AcDbSymbolTableRecord
100
AcDbLinetypeTableRecord
  2
CENTER2
 70
     0
  3
Center (.5x) ___ _ ___ _ ___ _ ___ _ ___ _ ___
 72
    65
 73
     4
 40
28.575
 49
19.05
 74
     4
 75
     0
340
0
 46
0.0
 50
0.0
 44
0.0
 45
0.0
 49
-3.175
 74
     4
 75
     0
340
0
 46
0.0
 50
0.0
 44
0.0
 45
0.0
 49
3.175
 74
     4
 75
     0
340
0
 46
0.0
 50
0.0
 44
0.0
 45
0.0
 49
-3.175
 74
     4
 75
     0
340
0
 46
0.0
 50
0.0
 44
0.0
 45
0.0
  0
ENDTAB
  0
TABLE
  2
LAYER
  5
2
330
0
100
AcDbSymbolTable
 70
     5
  0
LAYER
  5
10
330
2
100
AcDbSymbolTableRecord
100
AcDbLayerTableRecord
  2
0
 70
     0
 62
     7
  6
Continuous
370
    -3
390
F
  0
LAYER
  5
5D
330
2
100
AcDbSymbolTableRecord
100
AcDbLayerTableRecord
  2
Default
 70
     0
 62
     7
  6
Continuous
370
    -3
390
F
  0
LAYER
  5
7F
330
2
100
AcDbSymbolTableRecord
100
AcDbLayerTableRecord
  2
DV1_Default
 70
     0
 62
     7
  6
Continuous
370
    -3
390
F
  0
LAYER
  5
C0
330
2
100
AcDbSymbolTableRecord
100
AcDbLayerTableRecord
  2
DV2_Default
 70
     0
 62
     7
  6
Continuous
370
    -3
390
F
  0
LAYER
  5
10F
330
2
100
AcDbSymbolTableRecord
100
AcDbLayerTableRecord
  2
DV3_Default
 70
     0
 62
     7
  6
Continuous
370
    -3
390
F
  0
ENDTAB
  0
TABLE
  2
STYLE
  5
3
330
0
100
AcDbSymbolTable
 70
     2
  0
STYLE
  5
11
330
3
100
AcDbSymbolTableRecord
100
AcDbTextStyleTableRecord
  2
Standard
 70
     0
 40
0.0
 41
1.0
 50
0.0
 71
     0
 42
2.5
  3
txt
  4

  0
STYLE
  5
134
330
3
100
AcDbSymbolTableRecord
100
AcDbTextStyleTableRecord
  2
SEACAD_seiso_ttf
 70
     0
 40
0.0
 41
1.0
 50
0.0
 71
     0
 42
0.2
  3
seiso.ttf
  4

  0
ENDTAB
  0
TABLE
  2
VIEW
  5
6
330
0
100
AcDbSymbolTable
 70
     0
  0
ENDTAB
  0
TABLE
  2
UCS
  5
7
330
0
100
AcDbSymbolTable
 70
     0
  0
ENDTAB
  0
TABLE
  2
APPID
  5
9
330
0
100
AcDbSymbolTable
 70
     1
  0
APPID
  5
12
330
9
100
AcDbSymbolTableRecord
100
AcDbRegAppTableRecord
  2
ACAD
 70
     0
  0
ENDTAB
  0
TABLE
  2
DIMSTYLE
  5
A
330
0
100
AcDbSymbolTable
 70
     1
100
AcDbDimStyleTable
  0
DIMSTYLE
105
27
330
A
100
AcDbSymbolTableRecord
100
AcDbDimStyleTableRecord
  2
ISO-25
 70
     0
 41
2.5
 42
0.625
 43
3.75
 44
1.25
 73
     0
 74
     0
 77
     1
 78
     8
140
2.5
141
2.5
143
0.0393700787
147
0.625
171
     3
172
     1
271
     2
272
     2
274
     3
278
    44
283
     0
284
     8
340
11
  0
ENDTAB
  0
TABLE
  2
BLOCK_RECORD
  5
1
330
0
100
AcDbSymbolTable
 70
     9
  0
BLOCK_RECORD
  5
1F
330
1
100
AcDbSymbolTableRecord
100
AcDbBlockTableRecord
  2
*Model_Space
340
22
  0
BLOCK_RECORD
  5
1B
330
1
100
AcDbSymbolTableRecord
100
AcDbBlockTableRecord
  2
*Paper_Space
340
1E
  0
BLOCK_RECORD
  5
5E
330
1
100
AcDbSymbolTableRecord
100
AcDbBlockTableRecord
  2
SEANNOT_GROUP
340
0
102
{BLKREFS
331
5F
102
}
  0
BLOCK_RECORD
  5
65
330
1
100
AcDbSymbolTableRecord
100
AcDbBlockTableRecord
  2
SEANNOT_GROUP1
340
0
102
{BLKREFS
331
66
102
}
  0
BLOCK_RECORD
  5
6B
330
1
100
AcDbSymbolTableRecord
100
AcDbBlockTableRecord
  2
SEANNOT_GROUP2
340
0
102
{BLKREFS
331
6C
102
}
  0
BLOCK_RECORD
  5
71
330
1
100
AcDbSymbolTableRecord
100
AcDbBlockTableRecord
  2
SEANNOT_GROUP3
340
0
102
{BLKREFS
331
72
102
}
  0
BLOCK_RECORD
  5
77
330
1
100
AcDbSymbolTableRecord
100
AcDbBlockTableRecord
  2
SEANNOT_GROUP4
340
0
102
{BLKREFS
331
78
102
}
  0
BLOCK_RECORD
  5
7D
330
1
100
AcDbSymbolTableRecord
100
AcDbBlockTableRecord
  2
SE
340
0
102
{BLKREFS
331
7E
102
}
  0
BLOCK_RECORD
  5
BE
330
1
100
AcDbSymbolTableRecord
100
AcDbBlockTableRecord
  2
SE1
340
0
102
{BLKREFS
331
BF
102
}
  0
BLOCK_RECORD
  5
10D
330
1
100
AcDbSymbolTableRecord
100
AcDbBlockTableRecord
  2
SE2
340
0
102
{BLKREFS
331
10E
102
}
  0
ENDTAB
  0
ENDSEC
  0
SECTION
  2
BLOCKS
  0
BLOCK
  5
20
330
1F
100
AcDbEntity
  8
0
100
AcDbBlockBegin
  2
*Model_Space
 70
     0
 10
0.0
 20
0.0
 30
0.0
  3
*Model_Space
  1

  0
ENDBLK
  5
21
330
1F
100
AcDbEntity
  8
0
100
AcDbBlockEnd
  0
BLOCK
  5
1C
330
1B
100
AcDbEntity
 67
     1
  8
0
100
AcDbBlockBegin
  2
*Paper_Space
 70
     0
 10
0.0
 20
0.0
 30
0.0
  3
*Paper_Space
  1

  0
ENDBLK
  5
1D
330
1B
100
AcDbEntity
 67
     1
  8
0
100
AcDbBlockEnd
  0
BLOCK
  5
63
330
5E
100
AcDbEntity
  8
0
100
AcDbBlockBegin
  2
SEANNOT_GROUP
 70
     0
 10
0.0
 20
0.0
 30
0.0
  3
SEANNOT_GROUP
  1

  0
LINE
  5
61
330
5E
100
AcDbEntity
  8
Default
  6
CENTER2
 62
     7
100
AcDbLine
 10
48.349999553
 20
239.3305638511
 30
0.0
 11
8.350000447
 21
239.3305638511
 31
0.0
  0
LINE
  5
62
330
5E
100
AcDbEntity
  8
Default
  6
CENTER2
 62
     7
100
AcDbLine
 10
28.35
 20
259.330563404
 30
0.0
 11
28.35
 21
219.3305642981
 31
0.0
  0
ENDBLK
  5
64
330
5E
100
AcDbEntity
  8
0
100
AcDbBlockEnd
  0
BLOCK
  5
69
330
65
100
AcDbEntity
  8
0
100
AcDbBlockBegin
  2
SEANNOT_GROUP1
 70
     0
 10
0.0
 20
0.0
 30
0.0
  3
SEANNOT_GROUP1
  1

  0
LINE
  5
67
330
65
100
AcDbEntity
  8
Default
  6
CENTER2
 62
     7
100
AcDbLine
 10
48.349999553
 20
342.2381303826
 30
0.0
 11
8.350000447
 21
342.2381303826
 31
0.0
  0
LINE
  5
68
330
65
100
AcDbEntity
  8
Default
  6
CENTER2
 62
     7
100
AcDbLine
 10
28.35
 20
362.2381299355
 30
0.0
 11
28.35
 21
322.2381308296
 31
0.0
  0
ENDBLK
  5
6A
330
65
100
AcDbEntity
  8
0
100
AcDbBlockEnd
  0
BLOCK
  5
6F
330
6B
100
AcDbEntity
  8
0
100
AcDbBlockBegin
  2
SEANNOT_GROUP2
 70
     0
 10
0.0
 20
0.0
 30
0.0
  3
SEANNOT_GROUP2
  1

  0
LINE
  5
6D
330
6B
100
AcDbEntity
  8
Default
  6
CENTER2
 62
     7
100
AcDbLine
 10
630.349999553
 20
342.2381303826
 30
0.0
 11
590.350000447
 21
342.2381303826
 31
0.0
  0
LINE
  5
6E
330
6B
100
AcDbEntity
  8
Default
  6
CENTER2
 62
     7
100
AcDbLine
 10
610.35
 20
362.2381299355
 30
0.0
 11
610.35
 21
322.2381308296
 31
0.0
  0
ENDBLK
  5
70
330
6B
100
AcDbEntity
  8
0
100
AcDbBlockEnd
  0
BLOCK
  5
75
330
71
100
AcDbEntity
  8
0
100
AcDbBlockBegin
  2
SEANNOT_GROUP3
 70
     0
 10
0.0
 20
0.0
 30
0.0
  3
SEANNOT_GROUP3
  1

  0
LINE
  5
73
330
71
100
AcDbEntity
  8
Default
  6
CENTER2
 62
     7
100
AcDbLine
 10
715.049999553
 20
342.2381303826
 30
0.0
 11
675.050000447
 21
342.2381303826
 31
0.0
  0
LINE
  5
74
330
71
100
AcDbEntity
  8
Default
  6
CENTER2
 62
     7
100
AcDbLine
 10
695.05
 20
362.2381299355
 30
0.0
 11
695.05
 21
322.2381308296
 31
0.0
  0
ENDBLK
  5
76
330
71
100
AcDbEntity
  8
0
100
AcDbBlockEnd
  0
BLOCK
  5
7B
330
77
100
AcDbEntity
  8
0
100
AcDbBlockBegin
  2
SEANNOT_GROUP4
 70
     0
 10
0.0
 20
0.0
 30
0.0
  3
SEANNOT_GROUP4
  1

  0
LINE
  5
79
330
77
100
AcDbEntity
  8
Default
  6
CENTER2
 62
     7
100
AcDbLine
 10
630.349999553
 20
239.3305638511
 30
0.0
 11
590.350000447
 21
239.3305638511
 31
0.0
  0
LINE
  5
7A
330
77
100
AcDbEntity
  8
Default
  6
CENTER2
 62
     7
100
AcDbLine
 10
610.35
 20
259.330563404
 30
0.0
 11
610.35
 21
219.3305642981
 31
0.0
  0
ENDBLK
  5
7C
330
77
100
AcDbEntity
  8
0
100
AcDbBlockEnd
  0
BLOCK
  5
BC
330
7D
100
AcDbEntity
  8
0
100
AcDbBlockBegin
  2
SE
 70
     0
 10
0.0
 20
0.0
 30
0.0
  3
SE
  1

  0
ELLIPSE
  5
80
330
7D
100
AcDbEntity
  8
DV1_Default
  6
Continuous
 62
     7
100
AcDbEllipse
 10
610.35
 20
305.108745141
 30
0.0
 11
-9.000000000000007
 21
1.387778780781446E-14
 31
0.0
210
0.0
220
0.0
230
1.0
 40
0.3420201433
 41
0.0
 42
6.283185307179586
  0
ELLIPSE
  5
81
330
7D
100
AcDbEntity
  8
DV1_Default
  6
Continuous
 62
     7
100
AcDbEllipse
 10
610.35
 20
306.9881303826
 30
0.0
 11
-9.000000000000007
 21
1.387778780781446E-14
 31
0.0
210
0.0
220
0.0
230
1.0
 40
0.3420201433
 41
3.141587649771877
 42
6.283185307179586
  0
LINE
  5
82
330
7D
100
AcDbEntity
  8
DV1_Default
  6
Continuous
 62
     7
100
AcDbLine
 10
619.3499999998
 20
305.1087451409
 30
0.0
 11
619.3499999999
 21
306.9881303825
 31
0.0
  0
LINE
  5
83
330
7D
100
AcDbEntity
  8
DV1_Default
  6
Continuous
 62
     7
100
AcDbLine
 10
601.3500000002
 20
306.9881303826
 30
0.0
 11
601.3500000001
 21
305.108745141
 31
0.0
  0
ARC
  5
84
330
7D
100
AcDbEntity
  8
DV1_Default
  6
Continuous
 62
     7
100
AcDbCircle
 10
610.35
 20
342.2381303826
 30
0.0
 40
22.0
100
AcDbArc
 50
0.0
 51
164.8490091089
  0
ARC
  5
85
330
7D
100
AcDbEntity
  8
DV1_Default
  6
Continuous
 62
     7
100
AcDbCircle
 10
610.35
 20
342.2381303826
 30
0.0
 40
22.0
100
AcDbArc
 50
195.1509908911
 51
225.5887109037
  0
ARC
  5
86
330
7D
100
AcDbEntity
  8
DV1_Default
  6
Continuous
 62
     7
100
AcDbCircle
 10
610.35
 20
342.2381303826
 30
0.0
 40
22.0
100
AcDbArc
 50
294.136251754
 51
0.0
  0
ARC
  5
87
330
7D
100
AcDbEntity
  8
DV1_Default
  6
Continuous
 62
     7
100
AcDbCircle
 10
610.35
 20
342.2381303826
 30
0.0
 40
20.76093704644
100
AcDbArc
 50
0.0
 51
163.9210023962
  0
ARC
  5
88
330
7D
100
AcDbEntity
  8
DV1_Default
  6
Continuous
 62
     7
100
AcDbCircle
 10
610.35
 20
342.2381303826
 30
0.0
 40
20.76093704644
100
AcDbArc
 50
196.0789976038
 51
229.1976311237
  0
ARC
  5
89
330
7D
100
AcDbEntity
  8
DV1_Default
  6
Continuous
 62
     7
100
AcDbCircle
 10
610.35
 20
342.2381303826
 30
0.0
 40
20.76093704644
100
AcDbArc
 50
295.6779676724
 51
0.0
  0
ARC
  5
8A
330
7D
100
AcDbEntity
  8
DV1_Default
  6
Continuous
 62
     7
100
AcDbCircle
 10
610.35
 20
342.2381303826
 30
0.0
 40
19.58041538147
100
AcDbArc
 50
297.3508084279
 51
0.0
  0
ARC
  5
8B
330
7D
100
AcDbEntity
  8
DV1_Default
  6
Continuous
 62
     7
100
AcDbCircle
 10
610.35
 20
342.2381303826
 30
0.0
 40
19.58041538147
100
AcDbArc
 50
197.0772490811
 51
233.3797166715
  0
ARC
  5
8C
330
7D
100
AcDbEntity
  8
DV1_Default
  6
Continuous
 62
     7
100
AcDbCircle
 10
610.35
 20
342.2381303826
 30
0.0
 40
19.58041538147
100
AcDbArc
 50
0.0
 51
162.9227509189
  0
ARC
  5
8D
330
7D
100
AcDbEntity
  8
DV1_Default
  6
Continuous
 62
     7
100
AcDbCircle
 10
610.35
 20
342.2381303826
 30
0.0
 40
17.79420549659
100
AcDbArc
 50
0.0
 51
161.1471410951
  0
ARC
  5
8E
330
7D
100
AcDbEntity
  8
DV1_Default
  6
Continuous
 62
     7
100
AcDbCircle
 10
610.35
 20
342.2381303826
 30
0.0
 40
17.79420549659
100
AcDbArc
 50
198.8528589049
 51
239.6317048064
  0
ARC
  5
8F
330
7D
100
AcDbEntity
  8
DV1_Default
  6
Continuous
 62
     7
100
AcDbCircle
 10
610.35
 20
342.2381303826
 30
0.0
 40
17.79420549659
100
AcDbArc
 50
300.3682951936
 51
0.0
  0
ARC
  5
90
330
7D
100
AcDbEntity
  8
DV1_Default
  6
Continuous
 62
     7
100
AcDbCircle
 10
610.35
 20
342.2381303826
 30
0.0
 40
10.3156490566
100
AcDbArc
 50
0.0
 51
146.1234367898
  0
ARC
  5
91
330
7D
100
AcDbEntity
  8
DV1_Default
  6
Continuous
 62
     7
100
AcDbCircle
 10
610.35
 20
342.2381303826
 30
0.0
 40
10.3156490566
100
AcDbArc
 50
330.7001602145
 51
0.0
  0
ARC
  5
92
330
7D
100
AcDbEntity
  8
DV1_Default
  6
Continuous
 62
     7
100
AcDbCircle
 10
610.35
 20
342.2381303826
 30
0.0
 40
9.1
100
AcDbArc
 50
351.328363982
 51
0.0
  0
ARC
  5
93
330
7D
100
AcDbEntity
  8
DV1_Default
  6
Continuous
 62
     7
100
AcDbCircle
 10
610.35
 20
342.2381303826
 30
0.0
 40
9.1
100
AcDbArc
 50
0.0
 51
140.8119152063
  0
ARC
  5
94
330
7D
100
AcDbEntity
  8
DV1_Default
  6
Continuous
 62
     7
100
AcDbCircle
 10
28.35
 20
342.2381303826
 30
0.0
 40
22.0
100
AcDbArc
 50
15.1509908911
 51
245.8637482459
  0
ARC
  5
95
330
7D
100
AcDbEntity
  8
DV1_Default
  6
Continuous
 62
     7
100
AcDbCircle
 10
28.35
 20
342.2381303826
 30
0.0
 40
22.0
100
AcDbArc
 50
314.4112890963
 51
344.8490091089
  0
ARC
  5
96
330
7D
100
AcDbEntity
  8
DV1_Default
  6
Continuous
 62
     7
100
AcDbCircle
 10
28.35
 20
342.2381303826
 30
0.0
 40
20.76093704644
100
AcDbArc
 50
16.0789976038
 51
244.3220323274
  0
ARC
  5
97
330
7D
100
AcDbEntity
  8
DV1_Default
  6
Continuous
 62
     7
100
AcDbCircle
 10
28.35
 20
342.2381303826
 30
0.0
 40
20.76093704644
100
AcDbArc
 50
310.8023688763
 51
343.9210023962
  0
ARC
  5
98
330
7D
100
AcDbEntity
  8
DV1_Default
  6
Continuous
 62
     7
100
AcDbCircle
 10
28.35
 20
342.2381303826
 30
0.0
 40
19.58041538147
100
AcDbArc
 50
306.6202833285
 51
342.9227509189
  0
ARC
  5
99
330
7D
100
AcDbEntity
  8
DV1_Default
  6
Continuous
 62
     7
100
AcDbCircle
 10
28.35
 20
342.2381303826
 30
0.0
 40
19.58041538147
100
AcDbArc
 50
17.0772490811
 51
242.649191572
  0
ARC
  5
9A
330
7D
100
AcDbEntity
  8
DV1_Default
  6
Continuous
 62
     7
100
AcDbCircle
 10
28.35
 20
342.2381303826
 30
0.0
 40
17.79420549659
100
AcDbArc
 50
18.8528589049
 51
239.6317048063
  0
ARC
  5
9B
330
7D
100
AcDbEntity
  8
DV1_Default
  6
Continuous
 62
     7
100
AcDbCircle
 10
28.35
 20
342.2381303826
 30
0.0
 40
17.79420549659
100
AcDbArc
 50
300.3682951937
 51
341.1471410951
  0
ARC
  5
9C
330
7D
100
AcDbEntity
  8
DV1_Default
  6
Continuous
 62
     7
100
AcDbCircle
 10
28.35
 20
342.2381303826
 30
0.0
 40
10.3156490566
100
AcDbArc
 50
33.8765632102
 51
209.299839785
  0
ARC
  5
9D
330
7D
100
AcDbEntity
  8
DV1_Default
  6
Continuous
 62
     7
100
AcDbCircle
 10
28.35
 20
342.2381303826
 30
0.0
 40
9.1
100
AcDbArc
 50
39.1880847937
 51
188.6716360162
  0
ELLIPSE
  5
9E
330
7D
100
AcDbEntity
  8
DV1_Default
  6
Continuous
 62
     7
100
AcDbEllipse
 10
28.35
 20
305.108745141
 30
0.0
 11
-9.0
 21
0.0
 31
0.0
210
0.0
220
0.0
230
1.0
 40
0.3420201433
 41
0.0
 42
6.283185307179586
  0
ELLIPSE
  5
9F
330
7D
100
AcDbEntity
  8
DV1_Default
  6
Continuous
 62
     7
100
AcDbEllipse
 10
28.35
 20
306.9881303826
 30
0.0
 11
-9.0
 21
0.0
 31
0.0
210
0.0
220
0.0
230
1.0
 40
0.3420201433
 41
3.141587639797435
 42
6.283185307179586
  0
LINE
  5
A0
330
7D
100
AcDbEntity
  8
DV1_Default
  6
Continuous
 62
     7
100
AcDbLine
 10
37.3499999998
 20
305.1087451409
 30
0.0
 11
37.3499999999
 21
306.9881303825
 31
0.0
  0
LINE
  5
A1
330
7D
100
AcDbEntity
  8
DV1_Default
  6
Continuous
 62
     7
100
AcDbLine
 10
19.3500000002
 20
306.9881303826
 30
0.0
 11
19.3500000001
 21
305.108745141
 31
0.0
  0
LINE
  5
A2
330
7D
100
AcDbEntity
  8
DV1_Default
  6
Continuous
 62
     7
100
AcDbLine
 10
37.3459746839
 20
315.0227645678
 30
0.0
 11
601.3540253162
 21
315.0227645678
 31
0.0
  0
LINE
  5
A3
330
7D
100
AcDbEntity
  8
DV1_Default
  6
Continuous
 62
     7
100
AcDbLine
 10
601.9669745529
 20
326.5227645677
 30
0.0
 11
36.7316208207
 21
326.5227645677
 31
0.0
  0
LINE
  5
A4
330
7D
100
AcDbEntity
  8
DV1_Default
  6
Continuous
 62
     7
100
AcDbLine
 10
37.3459746839
 20
336.4881303826
 30
0.0
 11
601.3540253162
 21
336.4881303826
 31
0.0
  0
LINE
  5
A5
330
7D
100
AcDbEntity
  8
DV1_Default
  6
Continuous
 62
     7
100
AcDbLine
 10
603.4521809433
 20
347.9881303826
 30
0.0
 11
35.2478190567
 21
347.9881303826
 31
0.0
  0
SPLINE
  5
A6
330
7D
100
AcDbEntity
  8
DV1_Default
  6
Continuous
 62
     7
100
AcDbSpline
210
0.0
220
0.0
230
1.0
 70
     8
 71
     3
 72
    10
 73
     6
 74
     0
 42
0.0000000009881093
 43
0.0000000001
 40
0.0
 40
0.0
 40
0.0
 40
0.0
 40
0.1785444925111033
 40
0.5892722462555517
 40
1.0
 40
1.0
 40
1.0
 40
1.0
 10
601.3614692063207
 20
307.1144286244638
 30
0.0
 10
601.3945066435025
 20
307.3945369245768
 30
0.0
 10
601.8664914146135
 20
308.3137452421223
 30
0.0
 10
604.7002649347999
 20
309.6477450950944
 30
0.0
 10
608.4667549782998
 20
310.0663116725044
 30
0.0
 10
610.3499999999997
 20
310.0663116725044
 30
0.0
  0
SPLINE
  5
A7
330
7D
100
AcDbEntity
  8
DV1_Default
  6
Continuous
 62
     7
100
AcDbSpline
210
0.0
220
0.0
230
1.0
 70
     8
 71
     3
 72
    10
 73
     6
 74
     0
 42
0.0000000009811653
 43
0.0000000001
 40
0.0
 40
0.0
 40
0.0
 40
0.0
 40
0.4055785415003764
 40
0.8111570830007528
 40
1.0
 40
1.0
 40
1.0
 40
1.0
 10
610.3499999999997
 20
310.0663116725044
 30
0.0
 10
612.2332450216999
 20
310.0663116725044
 30
0.0
 10
615.9997350651997
 20
309.6477450950944
 30
0.0
 10
618.869486083735
 20
308.2968088224806
 30
0.0
 10
619.3252752880493
 20
307.3548661405071
 30
0.0
 10
619.3439103408122
 20
307.0546542879517
 30
0.0
  0
SPLINE
  5
A8
330
7D
100
AcDbEntity
  8
DV1_Default
  6
Continuous
 62
     7
100
AcDbSpline
210
0.0
220
0.0
230
1.0
 70
     8
 71
     3
 72
    10
 73
     6
 74
     0
 42
0.0000000006849914
 43
0.0000000001
 40
0.0
 40
0.0
 40
0.0
 40
0.0
 40
0.3999988670336455
 40
0.799997734067291
 40
1.0
 40
1.0
 40
1.0
 40
1.0
 10
610.3499999999997
 20
351.2381303825744
 30
0.0
 10
612.2332450217409
 20
351.2381303825846
 30
0.0
 10
615.9997350651904
 20
350.0143235817972
 30
0.0
 10
618.9095168883272
 20
346.0093524878778
 30
0.0
 10
619.3459788046556
 20
343.1809120404972
 30
0.0
 10
619.3459746837411
 20
342.2380903260802
 30
0.0
  0
SPLINE
  5
A9
330
7D
100
AcDbEntity
  8
DV1_Default
  6
Continuous
 62
     7
100
AcDbSpline
210
0.0
220
0.0
230
1.0
 70
     8
 71
     3
 72
    10
 73
     6
 74
     0
 42
0.0000000006849914
 43
0.0000000001
 40
0.0
 40
0.0
 40
0.0
 40
0.0
 40
0.2000022668465988
 40
0.6000011334232995
 40
1.0
 40
1.0
 40
1.0
 40
1.0
 10
601.354025316259
 20
342.2380903099247
 30
0.0
 10
601.3540211936826
 20
343.1809120297269
 30
0.0
 10
601.7904831083487
 20
346.0093524833027
 30
0.0
 10
604.7002649348094
 20
350.0143235817974
 30
0.0
 10
608.4667549782592
 20
351.2381303825839
 30
0.0
 10
610.3499999999997
 20
351.2381303825744
 30
0.0
  0
SPLINE
  5
AA
330
7D
100
AcDbEntity
  8
DV1_Default
  6
Continuous
 62
     7
100
AcDbSpline
210
0.0
220
0.0
230
1.0
 70
     8
 71
     3
 72
    14
 73
    10
 74
     0
 42
0.0000000018664856
 43
0.0000000001
 40
0.0
 40
0.0
 40
0.0
 40
0.0
 40
0.1206021176594366
 40
0.2434536459289408
 40
0.3691698364556046
 40
0.4935362497773003
 40
0.7323131631940506
 40
0.9539549411450644
 40
1.0
 40
1.0
 40
1.0
 40
1.0
 10
602.8804534355999
 20
320.7727645677344
 30
0.0
 10
602.799413664795
 20
320.524725743446
 30
0.0
 10
602.6357808222469
 20
320.0240350158897
 30
0.0
 10
602.3698990824602
 20
319.2835788434197
 30
0.0
 10
602.1077094183503
 20
318.5586013550113
 30
0.0
 10
601.7876134828161
 20
317.6534711600015
 30
0.0
 10
601.4815738520884
 20
316.6644883223569
 30
0.0
 10
601.3619217554493
 20
315.9872416274726
 30
0.0
 10
601.3538973230842
 20
315.704465245426
 30
0.0
 10
601.3541422414147
 20
315.6581151140173
 30
0.0
  0
SPLINE
  5
AB
330
7D
100
AcDbEntity
  8
DV1_Default
  6
Continuous
 62
     7
100
AcDbSpline
210
0.0
220
0.0
230
1.0
 70
     8
 71
     3
 72
    15
 73
    11
 74
     0
 42
0.0000000014960882
 43
0.0000000001
 40
0.0
 40
0.0
 40
0.0
 40
0.0
 40
0.1299190189483329
 40
0.2688915948039071
 40
0.397266358313745
 40
0.5111851243621534
 40
0.6913925669212332
 40
0.8452081962414103
 40
0.9212452514976524
 40
1.0
 40
1.0
 40
1.0
 40
1.0
 10
601.8127152298272
 20
326.524665532442
 30
0.0
 10
601.928621853682
 20
326.5615416972063
 30
0.0
 10
602.200827564839
 20
326.545835352929
 30
0.0
 10
602.6397929878708
 20
326.2571539278996
 30
0.0
 10
603.0319567470792
 20
325.734578304791
 30
0.0
 10
603.3701981863715
 20
324.9164524857536
 30
0.0
 10
603.5129105971448
 20
323.7414657408019
 30
0.0
 10
603.340918590262
 20
322.4788702041136
 30
0.0
 10
603.105192045226
 20
321.5076780947481
 30
0.0
 10
602.9562517584955
 20
321.0205820409336
 30
0.0
 10
602.8804534355999
 20
320.7727645677344
 30
0.0
  0
LINE
  5
AC
330
7D
100
AcDbEntity
  8
DV1_Default
  6
Continuous
 62
     7
100
AcDbLine
 10
601.3540253162
 20
312.6290368319
 30
0.0
 11
601.3540253162
 21
307.0801836844
 31
0.0
  0
LINE
  5
AD
330
7D
100
AcDbEntity
  8
DV1_Default
  6
Continuous
 62
     7
100
AcDbLine
 10
619.3459746838
 20
306.9881303826
 30
0.0
 11
619.3459746838
 21
312.6290368322
 31
0.0
  0
LINE
  5
AE
330
7D
100
AcDbEntity
  8
DV1_Default
  6
Continuous
 62
     7
100
AcDbLine
 10
619.3459746838
 20
312.628846893
 30
0.0
 11
619.3459746838
 21
342.2380902465
 31
0.0
  0
LINE
  5
AF
330
7D
100
AcDbEntity
  8
DV1_Default
  6
Continuous
 62
     7
100
AcDbLine
 10
601.3540253162
 20
315.6754609308
 30
0.0
 11
601.3540253162
 21
312.6288966498
 31
0.0
  0
LINE
  5
B0
330
7D
100
AcDbEntity
  8
DV1_Default
  6
Continuous
 62
     7
100
AcDbLine
 10
601.3540253162
 20
342.2380902465
 30
0.0
 11
601.3540253162
 21
326.5227645677
 31
0.0
  0
SPLINE
  5
B1
330
7D
100
AcDbEntity
  8
DV1_Default
  6
Continuous
 62
     7
100
AcDbSpline
210
0.0
220
0.0
230
1.0
 70
     8
 71
     3
 72
    10
 73
     6
 74
     0
 42
0.0000000009881093
 43
0.0000000001
 40
0.0
 40
0.0
 40
0.0
 40
0.0
 40
0.1785444924643957
 40
0.589272246232198
 40
1.0
 40
1.0
 40
1.0
 40
1.0
 10
19.3614692063086
 20
307.1144286247314
 30
0.0
 10
19.39450664355025
 20
307.3945369247542
 30
0.0
 10
19.86649141473573
 20
308.3137452421981
 30
0.0
 10
22.70026493478783
 20
309.6477450950944
 30
0.0
 10
26.46675497826284
 20
310.0663116725044
 30
0.0
 10
28.34999999999982
 20
310.0663116725044
 30
0.0
  0
SPLINE
  5
B2
330
7D
100
AcDbEntity
  8
DV1_Default
  6
Continuous
 62
     7
100
AcDbSpline
210
0.0
220
0.0
230
1.0
 70
     8
 71
     3
 72
    10
 73
     6
 74
     0
 42
0.0000000009811653
 43
0.0000000001
 40
0.0
 40
0.0
 40
0.0
 40
0.0
 40
0.4055785415142739
 40
0.8111570830285477
 40
1.0
 40
1.0
 40
1.0
 40
1.0
 10
28.34999999999982
 20
310.0663116725044
 30
0.0
 10
30.2332450217368
 20
310.0663116725044
 30
0.0
 10
33.99973506521181
 20
309.6477450950944
 30
0.0
 10
36.86948608367568
 20
308.2968088225269
 30
0.0
 10
37.32527528804014
 20
307.3548661406157
 30
0.0
 10
37.34391034084561
 20
307.0546542881151
 30
0.0
  0
SPLINE
  5
B3
330
7D
100
AcDbEntity
  8
DV1_Default
  6
Continuous
 62
     7
100
AcDbSpline
210
0.0
220
0.0
230
1.0
 70
     8
 71
     3
 72
    10
 73
     6
 74
     0
 42
0.0000000006849914
 43
0.0000000001
 40
0.0
 40
0.0
 40
0.0
 40
0.0
 40
0.3999988670336448
 40
0.7999977340672897
 40
1.0
 40
1.0
 40
1.0
 40
1.0
 10
28.34999999999982
 20
351.2381303825744
 30
0.0
 10
30.23324502173724
 20
351.238130382575
 30
0.0
 10
33.9997350652117
 20
350.0143235817845
 30
0.0
 10
36.90951688836824
 20
346.0093524878757
 30
0.0
 10
37.34597880469958
 20
343.1809120404967
 30
0.0
 10
37.34597468378509
 20
342.2380903260802
 30
0.0
  0
SPLINE
  5
B4
330
7D
100
AcDbEntity
  8
DV1_Default
  6
Continuous
 62
     7
100
AcDbSpline
210
0.0
220
0.0
230
1.0
 70
     8
 71
     3
 72
    13
 73
     9
 74
     0
 42
0.0000000018686644
 43
0.0000000001
 40
0.0
 40
0.0
 40
0.0
 40
0.0
 40
0.2283869115065017
 40
0.4777568959583045
 40
0.6090624800467287
 40
0.7422090354377487
 40
0.8723026796309461
 40
1.0
 40
1.0
 40
1.0
 40
1.0
 10
37.34597730704859
 20
315.6650913433165
 30
0.0
 10
37.34621794640597
 20
315.8957336162717
 30
0.0
 10
37.26167245188011
 20
316.497105727847
 30
0.0
 10
36.96349700729989
 20
317.5016665062043
 30
0.0
 10
36.63491243090827
 20
318.4404467149999
 30
0.0
 10
36.3598398873759
 20
319.2015455458295
 30
0.0
 10
36.07839480810959
 20
319.981999635555
 30
0.0
 10
35.90527910658664
 20
320.5108104312012
 30
0.0
 10
35.81954656435082
 20
320.7727645677344
 30
0.0
  0
SPLINE
  5
B5
330
7D
100
AcDbEntity
  8
DV1_Default
  6
Continuous
 62
     7
100
AcDbSpline
210
0.0
220
0.0
230
1.0
 70
     8
 71
     3
 72
    15
 73
    11
 74
     0
 42
0.0000000014955258
 43
0.0000000001
 40
0.0
 40
0.0
 40
0.0
 40
0.0
 40
0.0786190548230662
 40
0.1545324990553492
 40
0.3080695305727635
 40
0.4878283499484222
 40
0.6014364738771945
 40
0.7294871436246302
 40
0.8681395460502906
 40
1.0
 40
1.0
 40
1.0
 40
1.0
 10
35.81954656435082
 20
320.7727645677344
 30
0.0
 10
35.7438163330086
 20
321.0203544093652
 30
0.0
 10
35.59500275332028
 20
321.5070263604434
 30
0.0
 10
35.359412449746
 20
322.4773201912994
 30
0.0
 10
35.1873216373283
 20
323.7384050259112
 30
0.0
 10
35.32892988388581
 20
324.9123237538457
 30
0.0
 10
35.66578157145955
 20
325.7304008035848
 30
0.0
 10
36.05682805228621
 20
326.2537674257982
 30
0.0
 10
36.49758608947079
 20
326.5458346274978
 30
0.0
 10
36.77189701191607
 20
326.561993862812
 30
0.0
 10
36.88942996622458
 20
326.5239757656723
 30
0.0
  0
SPLINE
  5
B6
330
7D
100
AcDbEntity
  8
DV1_Default
  6
Continuous
 62
     7
100
AcDbSpline
210
0.0
220
0.0
230
1.0
 70
     8
 71
     3
 72
    10
 73
     6
 74
     0
 42
0.0000000006849914
 43
0.0000000001
 40
0.0
 40
0.0
 40
0.0
 40
0.0
 40
0.2000022668466004
 40
0.6000011334233003
 40
1.0
 40
1.0
 40
1.0
 40
1.0
 10
19.35402531621461
 20
342.2380903099246
 30
0.0
 10
19.35402119363805
 20
343.1809120297264
 30
0.0
 10
19.79048310830733
 20
346.0093524833005
 30
0.0
 10
22.70026493478789
 20
350.0143235817845
 30
0.0
 10
26.4667549782624
 20
351.238130382574
 30
0.0
 10
28.34999999999982
 20
351.2381303825744
 30
0.0
  0
LINE
  5
B7
330
7D
100
AcDbEntity
  8
DV1_Default
  6
Continuous
 62
     7
100
AcDbLine
 10
19.3540253161
 20
312.6290368322
 30
0.0
 11
19.3540253161
 21
306.9881303826
 31
0.0
  0
LINE
  5
B8
330
7D
100
AcDbEntity
  8
DV1_Default
  6
Continuous
 62
     7
100
AcDbLine
 10
37.3459746839
 20
306.9881303826
 30
0.0
 11
37.3459746839
 21
312.6290368322
 31
0.0
  0
LINE
  5
B9
330
7D
100
AcDbEntity
  8
DV1_Default
  6
Continuous
 62
     7
100
AcDbLine
 10
37.3459746839
 20
326.5227645677
 30
0.0
 11
37.3459746839
 21
342.2380902465
 31
0.0
  0
LINE
  5
BA
330
7D
100
AcDbEntity
  8
DV1_Default
  6
Continuous
 62
     7
100
AcDbLine
 10
37.3459746839
 20
312.628846893
 30
0.0
 11
37.3459746839
 21
315.6682112778
 31
0.0
  0
LINE
  5
BB
330
7D
100
AcDbEntity
  8
DV1_Default
  6
Continuous
 62
     7
100
AcDbLine
 10
19.3540253161
 20
342.2380902465
 30
0.0
 11
19.3540253161
 21
312.6288966737
 31
0.0
  0
ENDBLK
  5
BD
330
7D
100
AcDbEntity
  8
0
100
AcDbBlockEnd
  0
BLOCK
  5
10B
330
BE
100
AcDbEntity
  8
0
100
AcDbBlockBegin
  2
SE1
 70
     0
 10
0.0
 20
0.0
 30
0.0
  3
SE1
  1

  0
ELLIPSE
  5
C1
330
BE
100
AcDbEntity
  8
DV2_Default
  6
Continuous
 62
     7
100
AcDbEllipse
 10
610.35
 20
114.8072335871
 30
0.0
 11
-9.000000000000007
 21
-3.053113317719180E-13
 31
0.0
210
0.0
220
0.0
230
1.0
 40
0.9396926208
 41
0.0
 42
3.141586682926745
  0
ELLIPSE
  5
C2
330
BE
100
AcDbEntity
  8
DV2_Default
  6
Continuous
 62
     7
100
AcDbEllipse
 10
610.35
 20
115.4912738738
 30
0.0
 11
-9.000000000000007
 21
-4.024558464266193E-13
 31
0.0
210
0.0
220
0.0
230
1.0
 40
0.9396926208
 41
6.253275753630131
 42
6.283185307179586
  0
ELLIPSE
  5
C3
330
BE
100
AcDbEntity
  8
DV2_Default
  6
Continuous
 62
     7
100
AcDbEllipse
 10
610.35
 20
115.4912738738
 30
0.0
 11
-9.000000000000007
 21
-4.024558464266193E-13
 31
0.0
210
0.0
220
0.0
230
1.0
 40
0.9396926208
 41
0.0
 42
3.15688282249226
  0
LINE
  5
C4
330
BE
100
AcDbEntity
  8
DV2_Default
  6
Continuous
 62
     7
100
AcDbLine
 10
619.3499999998
 20
114.8072335867
 30
0.0
 11
619.3499999999
 21
115.4912738733
 31
0.0
  0
LINE
  5
C5
330
BE
100
AcDbEntity
  8
DV2_Default
  6
Continuous
 62
     7
100
AcDbLine
 10
601.3500000002
 20
115.4912738744
 30
0.0
 11
601.3500000001
 21
114.8072335878
 31
0.0
  0
LINE
  5
C6
330
BE
100
AcDbEntity
  8
DV2_Default
  6
Continuous
 62
     7
100
AcDbLine
 10
588.35
 20
239.3305638511
 30
0.0
 11
632.35
 21
239.3305638511
 31
0.0
  0
LINE
  5
C7
330
BE
100
AcDbEntity
  8
DV2_Default
  6
Continuous
 62
     7
100
AcDbLine
 10
588.35
 20
236.8305638511
 30
0.0
 11
632.35
 21
236.8305638511
 31
0.0
  0
LINE
  5
C8
330
BE
100
AcDbEntity
  8
DV2_Default
  6
Continuous
 62
     7
100
AcDbLine
 10
589.5890629536
 20
234.9809761102
 30
0.0
 11
631.1109370464
 21
234.9809761102
 31
0.0
  0
LINE
  5
C9
330
BE
100
AcDbEntity
  8
DV2_Default
  6
Continuous
 62
     7
100
AcDbLine
 10
590.7695846185
 20
233.6117403983
 30
0.0
 11
629.9304153815
 21
233.6117403983
 31
0.0
  0
LINE
  5
CA
330
BE
100
AcDbEntity
  8
DV2_Default
  6
Continuous
 62
     7
100
AcDbLine
 10
592.5557945034
 20
231.5515899037
 30
0.0
 11
628.1442054966
 21
231.5515899037
 31
0.0
  0
LINE
  5
CB
330
BE
100
AcDbEntity
  8
DV2_Default
  6
Continuous
 62
     7
100
AcDbLine
 10
600.3195310098
 20
223.3305638511
 30
0.0
 11
620.3804689902
 21
223.3305638511
 31
0.0
  0
LINE
  5
CC
330
BE
100
AcDbEntity
  8
DV2_Default
  6
Continuous
 62
     7
100
AcDbLine
 10
588.35
 20
239.3305638511
 30
0.0
 11
588.35
 21
236.8305638511
 31
0.0
  0
LINE
  5
CD
330
BE
100
AcDbEntity
  8
DV2_Default
  6
Continuous
 62
     7
100
AcDbLine
 10
632.35
 20
236.8305638511
 30
0.0
 11
632.35
 21
239.3305638511
 31
0.0
  0
ARC
  5
CE
330
BE
100
AcDbEntity
  8
DV2_Default
  6
Continuous
 62
     7
100
AcDbCircle
 10
590.35
 20
236.8305638511
 30
0.0
 40
2.000000000000002
100
AcDbArc
 50
180.0
 51
247.6372929206
  0
ARC
  5
CF
330
BE
100
AcDbEntity
  8
DV2_Default
  6
Continuous
 62
     7
100
AcDbCircle
 10
630.35
 20
236.8305638511
 30
0.0
 40
2.000000000000754
100
AcDbArc
 50
292.3627070794
 51
0.0
  0
ARC
  5
D0
330
BE
100
AcDbEntity
  8
DV2_Default
  6
Continuous
 62
     7
100
AcDbCircle
 10
588.8281259071
 20
233.1313883692
 30
0.0
 40
2.000000000001363
100
AcDbArc
 50
13.8969291123
 51
67.63729292
  0
ARC
  5
D1
330
BE
100
AcDbEntity
  8
DV2_Default
  6
Continuous
 62
     7
100
AcDbCircle
 10
631.8718740929
 20
233.1313883692
 30
0.0
 40
2.000000000004477
100
AcDbArc
 50
112.36270708
 51
166.1030708877
  0
ARC
  5
D2
330
BE
100
AcDbEntity
  8
DV2_Default
  6
Continuous
 62
     7
100
AcDbCircle
 10
593.6817726857
 20
234.332268442
 30
0.0
 40
3.00000000001866
100
AcDbArc
 50
193.8969291123
 51
247.9555331879
  0
ARC
  5
D3
330
BE
100
AcDbEntity
  8
DV2_Default
  6
Continuous
 62
     7
100
AcDbCircle
 10
627.0182273143
 20
234.332268442
 30
0.0
 40
3.00000000000592
100
AcDbArc
 50
292.044466812
 51
346.1030708877
  0
ARC
  5
D4
330
BE
100
AcDbEntity
  8
DV2_Default
  6
Continuous
 62
     7
100
AcDbCircle
 10
587.6765557136
 20
219.5019829046
 30
0.0
 40
13.00000000000656
100
AcDbArc
 50
18.0845202754
 51
67.9555331882
  0
ARC
  5
D5
330
BE
100
AcDbEntity
  8
DV2_Default
  6
Continuous
 62
     7
100
AcDbCircle
 10
633.0234442864
 20
219.5019829046
 30
0.0
 40
13.00000000001676
100
AcDbArc
 50
112.0444668118
 51
161.9154797246
  0
ARC
  5
D6
330
BE
100
AcDbEntity
  8
DV2_Default
  6
Continuous
 62
     7
100
AcDbCircle
 10
600.3195308133
 20
223.6305638511
 30
0.0
 40
0.3000000000189191
100
AcDbArc
 50
198.0845326418
 51
270.0000187724
  0
ARC
  5
D7
330
BE
100
AcDbEntity
  8
DV2_Default
  6
Continuous
 62
     7
100
AcDbCircle
 10
620.3804691867
 20
223.6305638511
 30
0.0
 40
0.3000000000000143
100
AcDbArc
 50
269.9999812276
 51
341.9154673582
  0
LINE
  5
D8
330
BE
100
AcDbEntity
  8
DV2_Default
  6
Continuous
 62
     7
100
AcDbLine
 10
50.35
 20
239.3305638511
 30
0.0
 11
6.35
 21
239.3305638511
 31
0.0
  0
LINE
  5
D9
330
BE
100
AcDbEntity
  8
DV2_Default
  6
Continuous
 62
     7
100
AcDbLine
 10
50.35
 20
236.8305638511
 30
0.0
 11
6.35
 21
236.8305638511
 31
0.0
  0
LINE
  5
DA
330
BE
100
AcDbEntity
  8
DV2_Default
  6
Continuous
 62
     7
100
AcDbLine
 10
49.1109370464
 20
234.9809761102
 30
0.0
 11
7.5890629536
 21
234.9809761102
 31
0.0
  0
LINE
  5
DB
330
BE
100
AcDbEntity
  8
DV2_Default
  6
Continuous
 62
     7
100
AcDbLine
 10
47.9304153815
 20
233.6117403983
 30
0.0
 11
8.7695846185
 21
233.6117403983
 31
0.0
  0
LINE
  5
DC
330
BE
100
AcDbEntity
  8
DV2_Default
  6
Continuous
 62
     7
100
AcDbLine
 10
46.1442054966
 20
231.5515899037
 30
0.0
 11
10.5557945034
 21
231.5515899037
 31
0.0
  0
LINE
  5
DD
330
BE
100
AcDbEntity
  8
DV2_Default
  6
Continuous
 62
     7
100
AcDbLine
 10
38.3804689902
 20
223.3305638511
 30
0.0
 11
18.3195310098
 21
223.3305638511
 31
0.0
  0
LINE
  5
DE
330
BE
100
AcDbEntity
  8
DV2_Default
  6
Continuous
 62
     7
100
AcDbLine
 10
6.35
 20
239.3305638511
 30
0.0
 11
6.35
 21
236.8305638511
 31
0.0
  0
LINE
  5
DF
330
BE
100
AcDbEntity
  8
DV2_Default
  6
Continuous
 62
     7
100
AcDbLine
 10
50.35
 20
236.8305638511
 30
0.0
 11
50.35
 21
239.3305638511
 31
0.0
  0
ARC
  5
E0
330
BE
100
AcDbEntity
  8
DV2_Default
  6
Continuous
 62
     7
100
AcDbCircle
 10
8.35
 20
236.8305638511
 30
0.0
 40
2.000000000000165
100
AcDbArc
 50
180.0
 51
247.6372929206
  0
ARC
  5
E1
330
BE
100
AcDbEntity
  8
DV2_Default
  6
Continuous
 62
     7
100
AcDbCircle
 10
48.35
 20
236.8305638511
 30
0.0
 40
2.000000000000905
100
AcDbArc
 50
292.3627070794
 51
0.0
  0
ARC
  5
E2
330
BE
100
AcDbEntity
  8
DV2_Default
  6
Continuous
 62
     7
100
AcDbCircle
 10
6.8281259071
 20
233.1313883692
 30
0.0
 40
1.999999999999471
100
AcDbArc
 50
13.8969291124
 51
67.6372929202
  0
ARC
  5
E3
330
BE
100
AcDbEntity
  8
DV2_Default
  6
Continuous
 62
     7
100
AcDbCircle
 10
49.8718740929
 20
233.1313883692
 30
0.0
 40
1.999999999999499
100
AcDbArc
 50
112.3627070798
 51
166.1030708876
  0
ARC
  5
E4
330
BE
100
AcDbEntity
  8
DV2_Default
  6
Continuous
 62
     7
100
AcDbCircle
 10
11.6817726857
 20
234.332268442
 30
0.0
 40
2.999999999999458
100
AcDbArc
 50
193.8969291123
 51
247.9555331883
  0
ARC
  5
E5
330
BE
100
AcDbEntity
  8
DV2_Default
  6
Continuous
 62
     7
100
AcDbCircle
 10
45.0182273143
 20
234.332268442
 30
0.0
 40
2.999999999999013
100
AcDbArc
 50
292.0444668117
 51
346.1030708877
  0
ARC
  5
E6
330
BE
100
AcDbEntity
  8
DV2_Default
  6
Continuous
 62
     7
100
AcDbCircle
 10
5.6765557136
 20
219.5019829046
 30
0.0
 40
13.00000000000097
100
AcDbArc
 50
18.0845202754
 51
67.9555331883
  0
ARC
  5
E7
330
BE
100
AcDbEntity
  8
DV2_Default
  6
Continuous
 62
     7
100
AcDbCircle
 10
51.0234442864
 20
219.5019829046
 30
0.0
 40
13.00000000000234
100
AcDbArc
 50
112.0444668117
 51
161.9154797246
  0
ARC
  5
E8
330
BE
100
AcDbEntity
  8
DV2_Default
  6
Continuous
 62
     7
100
AcDbCircle
 10
18.3195308132
 20
223.6305638511
 30
0.0
 40
0.3000000000002127
100
AcDbArc
 50
198.0845326431
 51
270.0000187762
  0
ARC
  5
E9
330
BE
100
AcDbEntity
  8
DV2_Default
  6
Continuous
 62
     7
100
AcDbCircle
 10
38.3804691868
 20
223.6305638511
 30
0.0
 40
0.3000000000000247
100
AcDbArc
 50
269.9999812238
 51
341.9154673569
  0
ELLIPSE
  5
EA
330
BE
100
AcDbEntity
  8
DV2_Default
  6
Continuous
 62
     7
100
AcDbEllipse
 10
28.35
 20
114.8072335871
 30
0.0
 11
-9.000000000000007
 21
-5.551115123125783E-14
 31
0.0
210
0.0
220
0.0
230
1.0
 40
0.9396926208
 41
0.0000000000000002
 42
3.141586675604948
  0
ELLIPSE
  5
EB
330
BE
100
AcDbEntity
  8
DV2_Default
  6
Continuous
 62
     7
100
AcDbEllipse
 10
28.35
 20
115.4912738738
 30
0.0
 11
8.999999999999998
 21
-2.775557561562891E-14
 31
0.0
210
0.0
220
0.0
230
1.0
 40
0.9396926208
 41
3.122530430826887
 42
6.283185307179586
  0
ELLIPSE
  5
EC
330
BE
100
AcDbEntity
  8
DV2_Default
  6
Continuous
 62
     7
100
AcDbEllipse
 10
28.35
 20
115.4912738738
 30
0.0
 11
8.999999999999998
 21
-2.775557561562891E-14
 31
0.0
210
0.0
220
0.0
230
1.0
 40
0.9396926208
 41
0.0
 42
0.0276833723608488
  0
LINE
  5
ED
330
BE
100
AcDbEntity
  8
DV2_Default
  6
Continuous
 62
     7
100
AcDbLine
 10
37.3499999998
 20
114.8072335867
 30
0.0
 11
37.3499999999
 21
115.4912738733
 31
0.0
  0
LINE
  5
EE
330
BE
100
AcDbEntity
  8
DV2_Default
  6
Continuous
 62
     7
100
AcDbLine
 10
19.3500000002
 20
115.4912738744
 30
0.0
 11
19.3500000001
 21
114.8072335878
 31
0.0
  0
LINE
  5
EF
330
BE
100
AcDbEntity
  8
DV2_Default
  6
Continuous
 62
     7
100
AcDbLine
 10
35.7109077519
 20
115.7253687171
 30
0.0
 11
602.9889828748
 21
115.7253687171
 31
0.0
  0
LINE
  5
F0
330
BE
100
AcDbEntity
  8
DV2_Default
  6
Continuous
 62
     7
100
AcDbLine
 10
601.3540253162
 20
127.225368717
 30
0.0
 11
37.3459746839
 21
127.225368717
 31
0.0
  0
LINE
  5
F1
330
BE
100
AcDbEntity
  8
DV2_Default
  6
Continuous
 62
     7
100
AcDbLine
 10
37.3301412825
 20
176.5805638511
 30
0.0
 11
601.369859665
 21
176.5805638511
 31
0.0
  0
LINE
  5
F2
330
BE
100
AcDbEntity
  8
DV2_Default
  6
Continuous
 62
     7
100
AcDbLine
 10
601.3698562868
 20
188.0805638511
 30
0.0
 11
37.3301430486
 21
188.0805638511
 31
0.0
  0
SPLINE
  5
F3
330
BE
100
AcDbEntity
  8
DV2_Default
  6
Continuous
 62
     7
100
AcDbSpline
210
0.0
220
0.0
230
1.0
 70
     8
 71
     3
 72
    10
 73
     6
 74
     0
 42
0.0000000007063191
 43
0.0000000001
 40
0.0
 40
0.0
 40
0.0
 40
0.0
 40
0.1999999999964378
 40
0.5999999999982191
 40
1.0
 40
1.0
 40
1.0
 40
1.0
 10
601.3540253161707
 20
115.4912738737139
 30
0.0
 10
601.3540253161772
 20
114.6053238128961
 30
0.0
 10
601.7904913533962
 20
111.9474736304063
 30
0.0
 10
604.7002649347999
 20
108.1840425066731
 30
0.0
 10
608.4667549782998
 20
107.0340402866731
 30
0.0
 10
610.3499999999997
 20
107.0340402866731
 30
0.0
  0
SPLINE
  5
F4
330
BE
100
AcDbEntity
  8
DV2_Default
  6
Continuous
 62
     7
100
AcDbSpline
210
0.0
220
0.0
230
1.0
 70
     8
 71
     3
 72
    10
 73
     6
 74
     0
 42
0.0000000007063191
 43
0.0000000001
 40
0.0
 40
0.0
 40
0.0
 40
0.0
 40
0.3999999999999992
 40
0.7999999999999985
 40
1.0
 40
1.0
 40
1.0
 40
1.0
 10
610.3499999999997
 20
107.0340402866731
 30
0.0
 10
612.2332450216999
 20
107.0340402866731
 30
0.0
 10
615.9997350651997
 20
108.1840425066731
 30
0.0
 10
618.9095086466166
 20
111.9474736304231
 30
0.0
 10
619.345974683829
 20
114.6053238129356
 30
0.0
 10
619.345974683829
 20
115.4912738737731
 30
0.0
  0
SPLINE
  5
F5
330
BE
100
AcDbEntity
  8
DV2_Default
  6
Continuous
 62
     7
100
AcDbSpline
210
0.0
220
0.0
230
1.0
 70
     8
 71
     3
 72
     8
 73
     4
 74
     0
 42
0.0000000598884109
 43
0.0000000001
 40
0.0
 40
0.0
 40
0.0
 40
0.0
 40
1.0
 40
1.0
 40
1.0
 40
1.0
 10
602.8804534355999
 20
115.7003687170731
 30
0.0
 10
602.82577944331
 20
115.7065634252809
 30
0.0
 10
602.7710960288637
 20
115.7127525451049
 30
0.0
 10
602.7155274032916
 20
115.7250859076507
 30
0.0
  0
SPLINE
  5
F6
330
BE
100
AcDbEntity
  8
DV2_Default
  6
Continuous
 62
     7
100
AcDbSpline
210
0.0
220
0.0
230
1.0
 70
     8
 71
     3
 72
    18
 73
    14
 74
     0
 42
0.0000000010205254
 43
0.0000000001
 40
0.0
 40
0.0
 40
0.0
 40
0.0
 40
0.0120981972944331
 40
0.1203106118487978
 40
0.2301719174903299
 40
0.3386498542932627
 40
0.4442831634827516
 40
0.5418610561171588
 40
0.6284509186306261
 40
0.7654269254499371
 40
0.8823424667365842
 40
0.9401383715637933
 40
1.0
 40
1.0
 40
1.0
 40
1.0
 10
601.354164723886
 20
124.8422022212059
 30
0.0
 10
601.3538918885719
 20
124.799568317965
 30
0.0
 10
601.3556833666912
 20
124.3714175936829
 30
0.0
 10
601.4452869881957
 20
123.4763895946117
 30
0.0
 10
601.7570916643242
 20
122.1185125268434
 30
0.0
 10
602.1866884475234
 20
120.7720754087824
 30
0.0
 10
602.6397929878708
 20
119.5272702425275
 30
0.0
 10
603.0319567470792
 20
118.4470280372772
 30
0.0
 10
603.3701981863715
 20
117.3667320769778
 30
0.0
 10
603.5129105971448
 20
116.4265793254166
 30
0.0
 10
603.340918590262
 20
115.9217557699737
 30
0.0
 10
603.105192045226
 20
115.7274006882919
 30
0.0
 10
602.9562517584955
 20
115.7094923653532
 30
0.0
 10
602.8804534355999
 20
115.7003687170731
 30
0.0
  0
SPLINE
  5
F7
330
BE
100
AcDbEntity
  8
DV2_Default
  6
Continuous
 62
     7
100
AcDbSpline
210
0.0
220
0.0
230
1.0
 70
     8
 71
     3
 72
    25
 73
    21
 74
     0
 42
0.0000000008014371
 43
0.0000000001
 40
0.0
 40
0.0
 40
0.0
 40
0.0
 40
0.025970095507006
 40
0.0518097497179254
 40
0.1232461901771706
 40
0.1848601260652973
 40
0.2465500411215549
 40
0.3090425674691105
 40
0.3721875032965458
 40
0.4354101447446166
 40
0.4983125018168709
 40
0.5609862273089228
 40
0.6239426750992321
 40
0.6872846539145239
 40
0.750363393410816
 40
0.8127783306090722
 40
0.8751557752398642
 40
0.9510908248943019
 40
0.9754765251851332
 40
1.0
 40
1.0
 40
1.0
 40
1.0
 10
601.3540253160999
 20
188.1055638510731
 30
0.0
 10
601.3565250187927
 20
188.1017054121165
 30
0.0
 10
601.3615118686555
 20
188.0940079141773
 30
0.0
 10
601.4239461321056
 20
187.9943253592618
 30
0.0
 10
601.5954729241166
 20
187.7198820462625
 30
0.0
 10
601.9293742480103
 20
187.1610773146655
 30
0.0
 10
602.3142094832483
 20
186.4674509590324
 30
0.0
 10
602.7205208931219
 20
185.6237154357677
 30
0.0
 10
603.098213942159
 20
184.6436964680077
 30
0.0
 10
603.376117264745
 20
183.5422391422951
 30
0.0
 10
603.487122387735
 20
182.3643944834381
 30
0.0
 10
603.3875756912695
 20
181.1857294496046
 30
0.0
 10
603.1183068289148
 20
180.0799101182059
 30
0.0
 10
602.7434781647983
 20
179.0895780096135
 30
0.0
 10
602.334166806112
 20
178.2315409845412
 30
0.0
 10
601.9430022839651
 20
177.5233019602783
 30
0.0
 10
601.5955629436498
 20
176.941041851023
 30
0.0
 10
601.4204002094652
 20
176.6609839008936
 30
0.0
 10
601.3607030227406
 20
176.5658615680916
 30
0.0
 10
601.3562553946041
 20
176.5590028636135
 30
0.0
 10
601.3540253160999
 20
176.5555638510731
 30
0.0
  0
LINE
  5
F8
330
BE
100
AcDbEntity
  8
DV2_Default
  6
Continuous
 62
     7
100
AcDbLine
 10
601.3540253162
 20
115.7253687171
 30
0.0
 11
601.3540253162
 21
115.4912738737
 31
0.0
  0
LINE
  5
F9
330
BE
100
AcDbEntity
  8
DV2_Default
  6
Continuous
 62
     7
100
AcDbLine
 10
619.3459746838
 20
115.4912738738
 30
0.0
 11
619.3459746838
 21
117.5443959157
 31
0.0
  0
LINE
  5
FA
330
BE
100
AcDbEntity
  8
DV2_Default
  6
Continuous
 62
     7
100
AcDbLine
 10
619.3459746838
 20
117.5443331289
 30
0.0
 11
619.3459746838
 21
159.8311737413
 31
0.0
  0
LINE
  5
FB
330
BE
100
AcDbEntity
  8
DV2_Default
  6
Continuous
 62
     7
100
AcDbLine
 10
601.3540253162
 20
159.8299539596
 30
0.0
 11
601.3540253162
 21
124.7960828779
 31
0.0
  0
LINE
  5
FC
330
BE
100
AcDbEntity
  8
DV2_Default
  6
Continuous
 62
     7
100
AcDbLine
 10
601.3540253162
 20
176.5555638511
 30
0.0
 11
601.3540253162
 21
159.8305638511
 31
0.0
  0
LINE
  5
FD
330
BE
100
AcDbEntity
  8
DV2_Default
  6
Continuous
 62
     7
100
AcDbLine
 10
601.3540253162
 20
223.3305638511
 30
0.0
 11
601.3540253162
 21
188.1055638511
 31
0.0
  0
LINE
  5
FE
330
BE
100
AcDbEntity
  8
DV2_Default
  6
Continuous
 62
     7
100
AcDbLine
 10
619.3459746838
 20
159.8305638511
 30
0.0
 11
619.3459746838
 21
223.3305638511
 31
0.0
  0
SPLINE
  5
FF
330
BE
100
AcDbEntity
  8
DV2_Default
  6
Continuous
 62
     7
100
AcDbSpline
210
0.0
220
0.0
230
1.0
 70
     8
 71
     3
 72
    10
 73
     6
 74
     0
 42
0.0000000007063191
 43
0.0000000001
 40
0.0
 40
0.0
 40
0.0
 40
0.0
 40
0.2000000000000023
 40
0.6000000000000012
 40
1.0
 40
1.0
 40
1.0
 40
1.0
 10
19.35402531612701
 20
115.4912738737731
 30
0.0
 10
19.35402531612701
 20
114.6053238129356
 30
0.0
 10
19.79049135334365
 20
111.9474736304231
 30
0.0
 10
22.70026493478783
 20
108.1840425066731
 30
0.0
 10
26.46675497826284
 20
107.0340402866731
 30
0.0
 10
28.34999999999982
 20
107.0340402866731
 30
0.0
  0
SPLINE
  5
100
330
BE
100
AcDbEntity
  8
DV2_Default
  6
Continuous
 62
     7
100
AcDbSpline
210
0.0
220
0.0
230
1.0
 70
     8
 71
     3
 72
    10
 73
     6
 74
     0
 42
0.0000000007063191
 43
0.0000000001
 40
0.0
 40
0.0
 40
0.0
 40
0.0
 40
0.3999999999999992
 40
0.7999999999999985
 40
1.0
 40
1.0
 40
1.0
 40
1.0
 10
28.34999999999982
 20
107.0340402866731
 30
0.0
 10
30.2332450217368
 20
107.0340402866731
 30
0.0
 10
33.99973506521181
 20
108.1840425066731
 30
0.0
 10
36.90950864665599
 20
111.9474736304231
 30
0.0
 10
37.34597468387263
 20
114.6053238129356
 30
0.0
 10
37.34597468387263
 20
115.4912738737731
 30
0.0
  0
SPLINE
  5
101
330
BE
100
AcDbEntity
  8
DV2_Default
  6
Continuous
 62
     7
100
AcDbSpline
210
0.0
220
0.0
230
1.0
 70
     8
 71
     3
 72
     8
 73
     4
 74
     0
 42
0.0000000571117245
 43
0.0000000001
 40
0.0
 40
0.0
 40
0.0
 40
0.0
 40
1.0
 40
1.0
 40
1.0
 40
1.0
 10
35.99229077217475
 20
115.7275005442549
 30
0.0
 10
35.93409598347736
 20
115.7140230923451
 30
0.0
 10
35.87681665522891
 20
115.7071986441017
 30
0.0
 10
35.81954656435082
 20
115.7003687170731
 30
0.0
  0
SPLINE
  5
102
330
BE
100
AcDbEntity
  8
DV2_Default
  6
Continuous
 62
     7
100
AcDbSpline
210
0.0
220
0.0
230
1.0
 70
     8
 71
     3
 72
    18
 73
    14
 74
     0
 42
0.000000001024055
 43
0.0000000001
 40
0.0
 40
0.0
 40
0.0
 40
0.0
 40
0.0599965255270941
 40
0.117928319606556
 40
0.2350969684986075
 40
0.3722762390922778
 40
0.4589739578923525
 40
0.5566932104775351
 40
0.6625029587662339
 40
0.7712179181365594
 40
0.8813082984711325
 40
0.9897203625694474
 40
1.0
 40
1.0
 40
1.0
 40
1.0
 10
35.81954656435082
 20
115.7003687170731
 30
0.0
 10
35.7438163330086
 20
115.7094770992438
 30
0.0
 10
35.59500275332028
 20
115.7273562730136
 30
0.0
 10
35.359412449746
 20
115.9213494104543
 30
0.0
 10
35.1873216373283
 20
116.425052471236
 30
0.0
 10
35.32892988388581
 20
117.3628550675576
 30
0.0
 10
35.66578157145955
 20
118.4404341815459
 30
0.0
 10
36.05682805228621
 20
119.5181734179125
 30
0.0
 10
36.50930707753169
 20
120.7606740751315
 30
0.0
 10
36.93912249311126
 20
122.1052091671742
 30
0.0
 10
37.252145352559
 20
123.4619026014028
 30
0.0
 10
37.34258491131276
 20
124.3498013284078
 30
0.0
 10
37.34598289489305
 20
124.7723159717155
 30
0.0
 10
37.34595215536052
 20
124.8086115622345
 30
0.0
  0
SPLINE
  5
103
330
BE
100
AcDbEntity
  8
DV2_Default
  6
Continuous
 62
     7
100
AcDbSpline
210
0.0
220
0.0
230
1.0
 70
     8
 71
     3
 72
    25
 73
    21
 74
     0
 42
0.0000000008014347
 43
0.0000000001
 40
0.0
 40
0.0
 40
0.0
 40
0.0
 40
0.0262697076176029
 40
0.0523980551779374
 40
0.1247848823822786
 40
0.1871613581505601
 40
0.2495506218693694
 40
0.312584319466882
 40
0.3759154475180664
 40
0.4389367457824795
 40
0.5017257665627435
 40
0.5647447451992857
 40
0.6280321604817534
 40
0.6911624666134215
 40
0.7536048846023765
 40
0.8152634568872142
 40
0.876873407550719
 40
0.9517650050331364
 40
0.9758169344583865
 40
1.0
 40
1.0
 40
1.0
 40
1.0
 10
37.3459746838728
 20
176.5555638510731
 30
0.0
 10
37.34341668458335
 20
176.5595069790457
 30
0.0
 10
37.33831445086777
 20
176.5673720166047
 30
0.0
 10
37.27439150995559
 20
176.6694538433484
 30
0.0
 10
37.09869071070987
 20
176.9506221907885
 30
0.0
 10
36.75755475886749
 20
177.5223625159173
 30
0.0
 10
36.36661618467618
 20
178.2300490978172
 30
0.0
 10
35.95747114509756
 20
179.0874201829895
 30
0.0
 10
35.58245289127937
 20
180.0774669895653
 30
0.0
 10
35.31262340956598
 20
181.1840689585902
 30
0.0
 10
35.21274381312983
 20
182.3646065396262
 30
0.0
 10
35.32417058990056
 20
183.5442985751977
 30
0.0
 10
35.60267564494674
 20
184.6464748042534
 30
0.0
 10
35.98055078810403
 20
185.6261232125454
 30
0.0
 10
36.38665632065597
 20
186.4690791863109
 30
0.0
 10
36.77123542505029
 20
187.1621383401171
 30
0.0
 10
37.11083467103504
 20
187.7303523839676
 30
0.0
 10
37.28140756407539
 20
188.0030166990482
 30
0.0
 10
37.33948146331429
 20
188.0955412200587
 30
0.0
 10
37.34380635766732
 20
188.1022169243394
 30
0.0
 10
37.3459746838728
 20
188.1055638510731
 30
0.0
  0
LINE
  5
104
330
BE
100
AcDbEntity
  8
DV2_Default
  6
Continuous
 62
     7
100
AcDbLine
 10
19.3540253161
 20
117.5443959157
 30
0.0
 11
19.3540253161
 21
115.4912738738
 31
0.0
  0
LINE
  5
105
330
BE
100
AcDbEntity
  8
DV2_Default
  6
Continuous
 62
     7
100
AcDbLine
 10
37.3459746839
 20
115.4912738738
 30
0.0
 11
37.3459746839
 21
115.7253687171
 31
0.0
  0
LINE
  5
106
330
BE
100
AcDbEntity
  8
DV2_Default
  6
Continuous
 62
     7
100
AcDbLine
 10
37.3459746839
 20
124.8013022499
 30
0.0
 11
37.3459746839
 21
159.8311737413
 31
0.0
  0
LINE
  5
107
330
BE
100
AcDbEntity
  8
DV2_Default
  6
Continuous
 62
     7
100
AcDbLine
 10
19.3540253161
 20
159.8299539596
 30
0.0
 11
19.3540253161
 21
117.5446369702
 31
0.0
  0
LINE
  5
108
330
BE
100
AcDbEntity
  8
DV2_Default
  6
Continuous
 62
     7
100
AcDbLine
 10
19.3540253161
 20
223.3305638511
 30
0.0
 11
19.3540253161
 21
159.8305638511
 31
0.0
  0
LINE
  5
109
330
BE
100
AcDbEntity
  8
DV2_Default
  6
Continuous
 62
     7
100
AcDbLine
 10
37.3459746839
 20
188.1055638511
 30
0.0
 11
37.3459746839
 21
223.3305638511
 31
0.0
  0
LINE
  5
10A
330
BE
100
AcDbEntity
  8
DV2_Default
  6
Continuous
 62
     7
100
AcDbLine
 10
37.3459746839
 20
159.8305638511
 30
0.0
 11
37.3459746839
 21
176.5555638511
 31
0.0
  0
ENDBLK
  5
10C
330
BE
100
AcDbEntity
  8
0
100
AcDbBlockEnd
  0
BLOCK
  5
132
330
10D
100
AcDbEntity
  8
0
100
AcDbBlockBegin
  2
SE2
 70
     0
 10
0.0
 20
0.0
 30
0.0
  3
SE2
  1

  0
LINE
  5
110
330
10D
100
AcDbEntity
  8
DV3_Default
  6
Continuous
 62
     7
100
AcDbLine
 10
695.05
 20
364.2381303826
 30
0.0
 11
695.05
 21
320.2381303826
 31
0.0
  0
LINE
  5
111
330
10D
100
AcDbEntity
  8
DV3_Default
  6
Continuous
 62
     7
100
AcDbLine
 10
697.55
 20
364.2381303826
 30
0.0
 11
697.55
 21
320.2381303826
 31
0.0
  0
LINE
  5
112
330
10D
100
AcDbEntity
  8
DV3_Default
  6
Continuous
 62
     7
100
AcDbLine
 10
699.3995877409
 20
321.4771933361
 30
0.0
 11
699.3995877409
 21
362.999067429
 31
0.0
  0
LINE
  5
113
330
10D
100
AcDbEntity
  8
DV3_Default
  6
Continuous
 62
     7
100
AcDbLine
 10
700.7688234527
 20
361.818545764
 30
0.0
 11
700.7688234527
 21
322.6577150011
 31
0.0
  0
LINE
  5
114
330
10D
100
AcDbEntity
  8
DV3_Default
  6
Continuous
 62
     7
100
AcDbLine
 10
702.8289739474
 20
324.443924886
 30
0.0
 11
702.8289739474
 21
360.0323358792
 31
0.0
  0
LINE
  5
115
330
10D
100
AcDbEntity
  8
DV3_Default
  6
Continuous
 62
     7
100
AcDbLine
 10
711.05
 20
332.2076613924
 30
0.0
 11
711.05
 21
352.2685993727
 31
0.0
  0
LINE
  5
116
330
10D
100
AcDbEntity
  8
DV3_Default
  6
Continuous
 62
     7
100
AcDbLine
 10
695.05
 20
320.2381303826
 30
0.0
 11
697.55
 21
320.2381303826
 31
0.0
  0
LINE
  5
117
330
10D
100
AcDbEntity
  8
DV3_Default
  6
Continuous
 62
     7
100
AcDbLine
 10
697.55
 20
364.2381303826
 30
0.0
 11
695.05
 21
364.2381303826
 31
0.0
  0
ARC
  5
118
330
10D
100
AcDbEntity
  8
DV3_Default
  6
Continuous
 62
     7
100
AcDbCircle
 10
697.55
 20
322.2381303826
 30
0.0
 40
2.000000000000175
100
AcDbArc
 50
270.0
 51
337.6372929206
  0
ARC
  5
119
330
10D
100
AcDbEntity
  8
DV3_Default
  6
Continuous
 62
     7
100
AcDbCircle
 10
697.55
 20
362.2381303826
 30
0.0
 40
2.000000000000894
100
AcDbArc
 50
22.3627070794
 51
90.0
  0
ARC
  5
11A
330
10D
100
AcDbEntity
  8
DV3_Default
  6
Continuous
 62
     7
100
AcDbCircle
 10
701.2491754818
 20
320.7162562897
 30
0.0
 40
1.999999999999463
100
AcDbArc
 50
103.8969291124
 51
157.6372929202
  0
ARC
  5
11B
330
10D
100
AcDbEntity
  8
DV3_Default
  6
Continuous
 62
     7
100
AcDbCircle
 10
701.2491754818
 20
363.7600044755
 30
0.0
 40
1.999999999999512
100
AcDbArc
 50
202.3627070798
 51
256.1030708876
  0
ARC
  5
11C
330
10D
100
AcDbEntity
  8
DV3_Default
  6
Continuous
 62
     7
100
AcDbCircle
 10
700.0482954091
 20
325.5699030682
 30
0.0
 40
2.999999999999465
100
AcDbArc
 50
283.8969291123
 51
337.9555331883
  0
ARC
  5
11D
330
10D
100
AcDbEntity
  8
DV3_Default
  6
Continuous
 62
     7
100
AcDbCircle
 10
700.0482954091
 20
358.9063576969
 30
0.0
 40
2.999999999999011
100
AcDbArc
 50
22.0444668117
 51
76.1030708877
  0
ARC
  5
11E
330
10D
100
AcDbEntity
  8
DV3_Default
  6
Continuous
 62
     7
100
AcDbCircle
 10
714.8785809464
 20
319.5646860962
 30
0.0
 40
13.00000000000092
100
AcDbArc
 50
108.0845202754
 51
157.9555331883
  0
ARC
  5
11F
330
10D
100
AcDbEntity
  8
DV3_Default
  6
Continuous
 62
     7
100
AcDbCircle
 10
714.8785809464
 20
364.9115746689
 30
0.0
 40
13.00000000000239
100
AcDbArc
 50
202.0444668117
 51
251.9154797246
  0
ARC
  5
120
330
10D
100
AcDbEntity
  8
DV3_Default
  6
Continuous
 62
     7
100
AcDbCircle
 10
710.75
 20
332.2076611958
 30
0.0
 40
0.300000000000211
100
AcDbArc
 50
288.0845326432
 51
0.0
  0
ARC
  5
121
330
10D
100
AcDbEntity
  8
DV3_Default
  6
Continuous
 62
     7
100
AcDbCircle
 10
710.75
 20
352.2685995694
 30
0.0
 40
0.3000000000000212
100
AcDbArc
 50
0.0
 51
71.9154673569
  0
LINE
  5
122
330
10D
100
AcDbEntity
  8
DV3_Default
  6
Continuous
 62
     7
100
AcDbLine
 10
811.1160966769
 20
302.0305638511
 30
0.0
 11
828.0305638511
 21
308.1869264309
 31
0.0
  0
LINE
  5
123
330
10D
100
AcDbEntity
  8
DV3_Default
  6
Continuous
 62
     7
100
AcDbLine
 10
810.4320563902
 20
303.9099490926
 30
0.0
 11
827.3465235644
 21
310.0663116725
 31
0.0
  0
LINE
  5
124
330
10D
100
AcDbEntity
  8
DV3_Default
  6
Continuous
 62
     7
100
AcDbLine
 10
828.0305638507
 20
308.1869264308
 30
0.0
 11
827.3465235641
 21
310.0663116724
 31
0.0
  0
LINE
  5
125
330
10D
100
AcDbEntity
  8
DV3_Default
  6
Continuous
 62
     7
100
AcDbLine
 10
810.4320563903
 20
303.9099490927
 30
0.0
 11
811.1160966768
 21
302.030563851
 31
0.0
  0
ARC
  5
126
330
10D
100
AcDbEntity
  8
DV3_Default
  6
Continuous
 62
     7
100
AcDbCircle
 10
717.55
 20
322.369934074
 30
0.0
 40
11.11936108782121
100
AcDbArc
 50
99.9562059441
 51
101.1392245152
  0
ARC
  5
127
330
10D
100
AcDbEntity
  8
DV3_Default
  6
Continuous
 62
     7
100
AcDbCircle
 10
717.55
 20
322.369934074
 30
0.0
 40
11.11936108782121
100
AcDbArc
 50
77.7989283279
 51
78.037091355
  0
LINE
  5
128
330
10D
100
AcDbEntity
  8
DV3_Default
  6
Continuous
 62
     7
100
AcDbLine
 10
810.4320563902
 20
303.9099490926
 30
0.0
 11
827.3465235644
 21
310.0663116725
 31
0.0
  0
LINE
  5
129
330
10D
100
AcDbEntity
  8
DV3_Default
  6
Continuous
 62
     7
100
AcDbLine
 10
810.4320563902
 20
303.9099490926
 30
0.0
 11
808.3789343483
 21
309.5508555423
 31
0.0
  0
LINE
  5
12A
330
10D
100
AcDbEntity
  8
DV3_Default
  6
Continuous
 62
     7
100
AcDbLine
 10
827.3465235644
 20
310.0663116725
 30
0.0
 11
825.2934015224
 21
315.7072181222
 31
0.0
  0
SPLINE
  5
12B
330
10D
100
AcDbEntity
  8
DV3_Default
  6
Continuous
 62
     7
100
AcDbSpline
210
0.0
220
0.0
230
1.0
 70
    12
 71
     3
 72
     8
 73
     4
 74
     0
 42
0.0000000001419675
 43
0.0000000001
 40
0.0
 40
0.0
 40
0.0
 40
0.0
 40
1.0
 40
1.0
 40
1.0
 40
1.0
 10
825.2934015223998
 20
315.7072181221644
 30
0.0
 41
1.0
 10
817.2628760332425
 20
337.7707638175395
 30
0.0
 41
0.8794347007291862
 10
798.0295525570987
 20
351.2380819003501
 30
0.0
 41
0.8794347007291862
 10
774.5499999999998
 20
351.2381303825744
 30
0.0
 41
1.0
  0
SPLINE
  5
12C
330
10D
100
AcDbEntity
  8
DV3_Default
  6
Continuous
 62
     7
100
AcDbSpline
210
0.0
220
0.0
230
1.0
 70
    12
 71
     3
 72
     8
 73
     4
 74
     0
 42
0.0000000002129512
 43
0.0000000001
 40
0.0
 40
0.0
 40
0.0
 40
0.0
 40
1.0
 40
1.0
 40
1.0
 40
1.0
 10
808.3789343482898
 20
309.5508555422944
 30
0.0
 41
1.0
 10
803.0252506689358
 20
324.2598859867051
 30
0.0
 41
0.8794347029909778
 10
790.2030350268608
 20
333.2380980358307
 30
0.0
 41
0.8794347029909778
 10
774.5499999999998
 20
333.2381303825744
 30
0.0
 41
1.0
  0
ARC
  5
12D
330
10D
100
AcDbEntity
  8
DV3_Default
  6
Continuous
 62
     7
100
AcDbCircle
 10
717.55
 20
322.3699340744
 30
0.0
 40
11.11936108742444
100
AcDbArc
 50
77.7989283275
 51
102.2010716726
  0
LINE
  5
12E
330
10D
100
AcDbEntity
  8
DV3_Default
  6
Continuous
 62
     7
100
AcDbLine
 10
715.2
 20
333.2381303826
 30
0.0
 11
711.05
 21
333.2381303826
 31
0.0
  0
LINE
  5
12F
330
10D
100
AcDbEntity
  8
DV3_Default
  6
Continuous
 62
     7
100
AcDbLine
 10
774.55
 20
351.2381303826
 30
0.0
 11
711.05
 21
351.2381303826
 31
0.0
  0
LINE
  5
130
330
10D
100
AcDbEntity
  8
DV3_Default
  6
Continuous
 62
     7
100
AcDbLine
 10
774.55
 20
333.2381303826
 30
0.0
 11
719.9
 21
333.2381303826
 31
0.0
  0
ARC
  5
131
330
10D
100
AcDbEntity
  8
DV3_Default
  6
Continuous
 62
     7
100
AcDbCircle
 10
717.55
 20
322.3699295747
 30
0.0
 40
11.11936548554764
100
AcDbArc
 50
101.13727675
 51
102.2010667723
  0
ENDBLK
  5
133
330
10D
100
AcDbEntity
  8
0
100
AcDbBlockEnd
  0
ENDSEC
  0
SECTION
  2
ENTITIES
  0
INSERT
  5
5F
330
1F
100
AcDbEntity
  8
Default
100
AcDbBlockReference
  2
SEANNOT_GROUP
 10
0.0
 20
0.0
 30
0.0
  0
INSERT
  5
66
330
1F
100
AcDbEntity
  8
Default
100
AcDbBlockReference
  2
SEANNOT_GROUP1
 10
0.0
 20
0.0
 30
0.0
  0
INSERT
  5
6C
330
1F
100
AcDbEntity
  8
Default
100
AcDbBlockReference
  2
SEANNOT_GROUP2
 10
0.0
 20
0.0
 30
0.0
  0
INSERT
  5
72
330
1F
100
AcDbEntity
  8
Default
100
AcDbBlockReference
  2
SEANNOT_GROUP3
 10
0.0
 20
0.0
 30
0.0
  0
INSERT
  5
78
330
1F
100
AcDbEntity
  8
Default
100
AcDbBlockReference
  2
SEANNOT_GROUP4
 10
0.0
 20
0.0
 30
0.0
  0
INSERT
  5
7E
330
1F
100
AcDbEntity
  8
Default
100
AcDbBlockReference
  2
SE
 10
0.0
 20
0.0
 30
0.0
  0
INSERT
  5
BF
330
1F
100
AcDbEntity
  8
Default
100
AcDbBlockReference
  2
SE1
 10
0.0
 20
0.0
 30
0.0
  0
INSERT
  5
10E
330
1F
100
AcDbEntity
  8
Default
100
AcDbBlockReference
  2
SE2
 10
0.0
 20
0.0
 30
0.0
  0
TEXT
  5
135
330
1F
100
AcDbEntity
  8
Default
  6
Continuous
 62
     7
100
AcDbText
 10
5.9362635081
 20
53.4225120485
 30
0.0
 40
10.0
  1
Grohe AG^J
  7
SEACAD_seiso_ttf
 11
5.9362635081
 21
63.4225120485
 31
0.0
100
AcDbText
 73
     3
  0
TEXT
  5
136
330
1F
100
AcDbEntity
  8
Default
  6
Continuous
 62
     7
100
AcDbText
 10
5.9362635081
 20
37.0588756849
 30
0.0
 40
10.0
  1
 
  7
SEACAD_seiso_ttf
 11
5.9362635081
 21
47.0588756849
 31
0.0
100
AcDbText
 73
     3
  0
TEXT
  5
137
330
1F
100
AcDbEntity
  8
Default
  6
Continuous
 62
     7
100
AcDbText
 10
5.9362635081
 20
20.6952393213
 30
0.0
 40
10.0
  1
ecn:
  7
SEACAD_seiso_ttf
 11
5.9362635081
 21
30.6952393213
 31
0.0
100
AcDbText
 73
     3
  0
TEXT
  5
138
330
1F
100
AcDbEntity
  8
Default
  6
Continuous
 62
     7
100
AcDbText
 10
5.9362635081
 20
4.3316029576
 30
0.0
 40
10.0
  1
unit: mm
  7
SEACAD_seiso_ttf
 11
5.9362635081
 21
14.3316029576
 31
0.0
100
AcDbText
 73
     3
  0
LINE
  5
139
330
1F
100
AcDbEntity
  8
Default
  6
Continuous
 62
     7
100
AcDbLine
 10
0.0
 20
0.0
 30
0.0
 11
100.0
 21
0.0
 31
0.0
  0
LINE
  5
13A
330
1F
100
AcDbEntity
  8
Default
  6
Continuous
 62
     7
100
AcDbLine
 10
0.0
 20
0.0
 30
0.0
 11
0.0
 21
100.0
 31
0.0
  0
TEXT
  5
13B
330
1F
100
AcDbEntity
  8
Default
  6
Continuous
 62
     7
100
AcDbText
 10
24.3923665681
 20
-18.2375342018
 30
0.0
 40
10.0
  1
100 mm
  7
SEACAD_seiso_ttf
 11
24.3923665681
 21
-8.2375342018
 31
0.0
100
AcDbText
 73
     3
  0
TEXT
  5
13C
330
1F
100
AcDbEntity
  8
Default
  6
Continuous
 62
     7
100
AcDbText
 10
-7.6150308803
 20
24.6231930421
 30
0.0
 40
10.0
  1
100 mm
 50
90.0
  7
SEACAD_seiso_ttf
 11
-17.6150308803
 21
24.6231930421
 31
0.0
100
AcDbText
 73
     3
  0
TEXT
  5
13D
330
1F
100
AcDbEntity
  8
Default
  6
Continuous
 62
     7
100
AcDbText
 10
28.4878128572
 20
20.0907663715
 30
0.0
 40
10.0
  1
224990
  7
SEACAD_seiso_ttf
 11
28.4878128572
 21
30.0907663715
 31
0.0
100
AcDbText
 73
     3
  0
TEXT
  5
13E
330
1F
100
AcDbEntity
  8
Default
  6
Continuous
 62
     7
100
AcDbText
 10
5.9012241913
 20
36.7242780188
 30
0.0
 40
10.0
  1
40654000
  7
SEACAD_seiso_ttf
 11
5.9012241913
 21
46.7242780188
 31
0.0
100
AcDbText
 73
     3
  0
ENDSEC
  0
SECTION
  2
OBJECTS
  0
DICTIONARY
  5
C
330
0
100
AcDbDictionary
281
     1
  3
ACAD_GROUP
350
D
  3
ACAD_LAYOUT
350
1A
  3
ACAD_MLEADERSTYLE
350
142
  3
ACAD_MLINESTYLE
350
17
  3
ACAD_PLOTSETTINGS
350
19
  3
ACAD_PLOTSTYLENAME
350
E
  3
ACAD_SCALELIST
350
3B
  3
ACAD_TABLESTYLE
350
141
  3
ACAD_VISUALSTYLE
350
2A
  3
AcDbVariableDictionary
350
13F
  0
DICTIONARY
  5
D
102
{ACAD_REACTORS
330
C
102
}
330
C
100
AcDbDictionary
281
     1
  0
DICTIONARY
  5
1A
102
{ACAD_REACTORS
330
C
102
}
330
C
100
AcDbDictionary
281
     1
  3
Layout1
350
1E
  3
Model
350
22
  0
DICTIONARY
  5
142
102
{ACAD_REACTORS
330
C
102
}
330
C
100
AcDbDictionary
281
     1
  0
DICTIONARY
  5
17
102
{ACAD_REACTORS
330
C
102
}
330
C
100
AcDbDictionary
281
     1
  3
Standard
350
18
  0
DICTIONARY
  5
19
102
{ACAD_REACTORS
330
C
102
}
330
C
100
AcDbDictionary
281
     1
  0
ACDBDICTIONARYWDFLT
  5
E
102
{ACAD_REACTORS
330
C
102
}
330
C
100
AcDbDictionary
281
     1
  3
Normal
350
F
100
AcDbDictionaryWithDefault
340
F
  0
DICTIONARY
  5
3B
102
{ACAD_REACTORS
330
C
102
}
330
C
100
AcDbDictionary
281
     1
  3
A0
350
3C
  3
A1
350
3D
  3
A2
350
3E
  3
A3
350
3F
  3
A4
350
40
  3
A5
350
41
  3
A6
350
42
  3
A7
350
43
  3
A8
350
44
  3
A9
350
45
  3
B0
350
46
  3
B1
350
47
  3
B2
350
48
  3
B3
350
49
  3
B4
350
4A
  3
B5
350
4B
  3
B6
350
4C
  3
B7
350
4D
  3
B8
350
4E
  3
B9
350
4F
  3
C0
350
50
  3
C1
350
51
  3
C2
350
52
  3
C3
350
53
  3
C4
350
54
  3
C5
350
55
  3
C6
350
56
  3
C7
350
57
  3
C8
350
58
  3
C9
350
59
  3
D0
350
5A
  3
D1
350
5B
  3
D2
350
5C
  0
DICTIONARY
  5
141
102
{ACAD_REACTORS
330
C
102
}
330
C
100
AcDbDictionary
281
     1
  0
DICTIONARY
  5
2A
102
{ACAD_REACTORS
330
C
102
}
330
C
100
AcDbDictionary
281
     1
  3
2dWireframe
350
2F
  3
3D Hidden
350
31
  3
3dWireframe
350
30
  3
Basic
350
32
  3
Brighten
350
36
  3
ColorChange
350
3A
  3
Conceptual
350
34
  3
Dim
350
35
  3
Facepattern
350
39
  3
Flat
350
2B
  3
FlatWithEdges
350
2C
  3
Gouraud
350
2D
  3
GouraudWithEdges
350
2E
  3
Linepattern
350
38
  3
Realistic
350
33
  3
Thicken
350
37
  0
DICTIONARY
  5
13F
102
{ACAD_REACTORS
330
C
102
}
330
C
100
AcDbDictionary
281
     1
  3
CANNOSCALE
350
140
  3
PSOLHEIGHT
350
144
  3
PSOLWIDTH
350
143
  0
LAYOUT
  5
1E
102
{ACAD_REACTORS
330
1A
102
}
330
1A
100
AcDbPlotSettings
  1

  2
none_device
  4

  6

 40
0.0
 41
0.0
 42
0.0
 43
0.0
 44
0.0
 45
0.0
 46
0.0
 47
0.0
 48
0.0
 49
0.0
140
0.0
141
0.0
142
1.0
143
1.0
 70
   688
 72
     0
 73
     0
 74
     5
  7

 75
    16
147
1.0
148
0.0
149
0.0
100
AcDbLayout
  1
Layout1
 70
     1
 71
     1
 10
0.0
 20
0.0
 11
3000.0
 21
4500.0
 12
0.0
 22
0.0
 32
0.0
 14
0.0
 24
0.0
 34
0.0
 15
3000.0
 25
4500.0
 35
0.0
146
0.0
 13
0.0
 23
0.0
 33
0.0
 16
1.0
 26
0.0
 36
0.0
 17
0.0
 27
1.0
 37
0.0
 76
     0
330
1B
  0
LAYOUT
  5
22
102
{ACAD_REACTORS
330
1A
102
}
330
1A
100
AcDbPlotSettings
  1

  2
none_device
  4

  6

 40
0.0
 41
0.0
 42
0.0
 43
0.0
 44
0.0
 45
0.0
 46
0.0
 47
0.0
 48
0.0
 49
0.0
140
0.0
141
0.0
142
1.0
143
1.0
 70
  1712
 72
     0
 73
     0
 74
     0
  7

 75
     0
147
1.0
148
0.0
149
0.0
100
AcDbLayout
  1
Model
 70
     1
 71
     0
 10
0.0
 20
0.0
 11
3000.0
 21
4500.0
 12
0.0
 22
0.0
 32
0.0
 14
0.0
 24
0.0
 34
0.0
 15
3000.0
 25
4500.0
 35
0.0
146
0.0
 13
0.0
 23
0.0
 33
0.0
 16
1.0
 26
0.0
 36
0.0
 17
0.0
 27
1.0
 37
0.0
 76
     0
330
1F
331
29
  0
MLINESTYLE
  5
18
102
{ACAD_REACTORS
330
17
102
}
330
17
100
AcDbMlineStyle
  2
Standard
 70
     0
  3

 62
   256
 51
90.0
 52
90.0
 71
     2
 49
0.5
 62
   256
  6
BYLAYER
 49
-0.5
 62
   256
  6
BYLAYER
  0
ACDBPLACEHOLDER
  5
F
102
{ACAD_REACTORS
330
E
102
}
330
E
  0
SCALE
  5
3C
102
{ACAD_REACTORS
330
3B
102
}
330
3B
100
AcDbScale
 70
     0
300
1:1
140
1.0
141
1.0
290
     1
  0
SCALE
  5
3D
102
{ACAD_REACTORS
330
3B
102
}
330
3B
100
AcDbScale
 70
     0
300
1:2
140
1.0
141
2.0
290
     0
  0
SCALE
  5
3E
102
{ACAD_REACTORS
330
3B
102
}
330
3B
100
AcDbScale
 70
     0
300
1:4
140
1.0
141
4.0
290
     0
  0
SCALE
  5
3F
102
{ACAD_REACTORS
330
3B
102
}
330
3B
100
AcDbScale
 70
     0
300
1:5
140
1.0
141
5.0
290
     0
  0
SCALE
  5
40
102
{ACAD_REACTORS
330
3B
102
}
330
3B
100
AcDbScale
 70
     0
300
1:8
140
1.0
141
8.0
290
     0
  0
SCALE
  5
41
102
{ACAD_REACTORS
330
3B
102
}
330
3B
100
AcDbScale
 70
     0
300
1:10
140
1.0
141
10.0
290
     0
  0
SCALE
  5
42
102
{ACAD_REACTORS
330
3B
102
}
330
3B
100
AcDbScale
 70
     0
300
1:16
140
1.0
141
16.0
290
     0
  0
SCALE
  5
43
102
{ACAD_REACTORS
330
3B
102
}
330
3B
100
AcDbScale
 70
     0
300
1:20
140
1.0
141
20.0
290
     0
  0
SCALE
  5
44
102
{ACAD_REACTORS
330
3B
102
}
330
3B
100
AcDbScale
 70
     0
300
1:30
140
1.0
141
30.0
290
     0
  0
SCALE
  5
45
102
{ACAD_REACTORS
330
3B
102
}
330
3B
100
AcDbScale
 70
     0
300
1:40
140
1.0
141
40.0
290
     0
  0
SCALE
  5
46
102
{ACAD_REACTORS
330
3B
102
}
330
3B
100
AcDbScale
 70
     0
300
1:50
140
1.0
141
50.0
290
     0
  0
SCALE
  5
47
102
{ACAD_REACTORS
330
3B
102
}
330
3B
100
AcDbScale
 70
     0
300
1:100
140
1.0
141
100.0
290
     0
  0
SCALE
  5
48
102
{ACAD_REACTORS
330
3B
102
}
330
3B
100
AcDbScale
 70
     0
300
2:1
140
2.0
141
1.0
290
     0
  0
SCALE
  5
49
102
{ACAD_REACTORS
330
3B
102
}
330
3B
100
AcDbScale
 70
     0
300
4:1
140
4.0
141
1.0
290
     0
  0
SCALE
  5
4A
102
{ACAD_REACTORS
330
3B
102
}
330
3B
100
AcDbScale
 70
     0
300
8:1
140
8.0
141
1.0
290
     0
  0
SCALE
  5
4B
102
{ACAD_REACTORS
330
3B
102
}
330
3B
100
AcDbScale
 70
     0
300
10:1
140
10.0
141
1.0
290
     0
  0
SCALE
  5
4C
102
{ACAD_REACTORS
330
3B
102
}
330
3B
100
AcDbScale
 70
     0
300
100:1
140
100.0
141
1.0
290
     0
  0
SCALE
  5
4D
102
{ACAD_REACTORS
330
3B
102
}
330
3B
100
AcDbScale
 70
     0
300
1/128" = 1'-0"
140
0.0078125
141
12.0
290
     0
  0
SCALE
  5
4E
102
{ACAD_REACTORS
330
3B
102
}
330
3B
100
AcDbScale
 70
     0
300
1/64" = 1'-0"
140
0.015625
141
12.0
290
     0
  0
SCALE
  5
4F
102
{ACAD_REACTORS
330
3B
102
}
330
3B
100
AcDbScale
 70
     0
300
1/32" = 1'-0"
140
0.03125
141
12.0
290
     0
  0
SCALE
  5
50
102
{ACAD_REACTORS
330
3B
102
}
330
3B
100
AcDbScale
 70
     0
300
1/16" = 1'-0"
140
0.0625
141
12.0
290
     0
  0
SCALE
  5
51
102
{ACAD_REACTORS
330
3B
102
}
330
3B
100
AcDbScale
 70
     0
300
3/32" = 1'-0"
140
0.09375
141
12.0
290
     0
  0
SCALE
  5
52
102
{ACAD_REACTORS
330
3B
102
}
330
3B
100
AcDbScale
 70
     0
300
1/8" = 1'-0"
140
0.125
141
12.0
290
     0
  0
SCALE
  5
53
102
{ACAD_REACTORS
330
3B
102
}
330
3B
100
AcDbScale
 70
     0
300
3/16" = 1'-0"
140
0.1875
141
12.0
290
     0
  0
SCALE
  5
54
102
{ACAD_REACTORS
330
3B
102
}
330
3B
100
AcDbScale
 70
     0
300
1/4" = 1'-0"
140
0.25
141
12.0
290
     0
  0
SCALE
  5
55
102
{ACAD_REACTORS
330
3B
102
}
330
3B
100
AcDbScale
 70
     0
300
3/8" = 1'-0"
140
0.375
141
12.0
290
     0
  0
SCALE
  5
56
102
{ACAD_REACTORS
330
3B
102
}
330
3B
100
AcDbScale
 70
     0
300
1/2" = 1'-0"
140
0.5
141
12.0
290
     0
  0
SCALE
  5
57
102
{ACAD_REACTORS
330
3B
102
}
330
3B
100
AcDbScale
 70
     0
300
3/4" = 1'-0"
140
0.75
141
12.0
290
     0
  0
SCALE
  5
58
102
{ACAD_REACTORS
330
3B
102
}
330
3B
100
AcDbScale
 70
     0
300
1" = 1'-0"
140
1.0
141
12.0
290
     0
  0
SCALE
  5
59
102
{ACAD_REACTORS
330
3B
102
}
330
3B
100
AcDbScale
 70
     0
300
1-1/2" = 1'-0"
140
1.5
141
12.0
290
     0
  0
SCALE
  5
5A
102
{ACAD_REACTORS
330
3B
102
}
330
3B
100
AcDbScale
 70
     0
300
3" = 1'-0"
140
3.0
141
12.0
290
     0
  0
SCALE
  5
5B
102
{ACAD_REACTORS
330
3B
102
}
330
3B
100
AcDbScale
 70
     0
300
6" = 1'-0"
140
6.0
141
12.0
290
     0
  0
SCALE
  5
5C
102
{ACAD_REACTORS
330
3B
102
}
330
3B
100
AcDbScale
 70
     0
300
1'-0" = 1'-0"
140
12.0
141
12.0
290
     0
  0
VISUALSTYLE
  5
2F
102
{ACAD_REACTORS
330
2A
102
}
330
2A
100
AcDbVisualStyle
  2
2dWireframe
 70
     4
 71
     0
 72
     2
 73
     0
 90
        0
 40
-0.6
 41
-30.0
 62
     5
 63
     7
 74
     1
 91
        4
 64
     7
 65
   257
 75
     1
175
     1
 42
1.0
 92
        0
 66
   257
 43
1.0
 76
     1
 77
     6
 78
     2
 67
     7
 79
     5
170
     0
171
     0
290
     0
174
     0
 93
        1
 44
0.0
173
     0
291
     0
 45
0.0
1001
ACAD
1000
AcDbSavedByObjectVersion
1070
     0
  0
VISUALSTYLE
  5
31
102
{ACAD_REACTORS
330
2A
102
}
330
2A
100
AcDbVisualStyle
  2
3D Hidden
 70
     6
 71
     1
 72
     2
 73
     2
 90
        0
 40
-0.6
 41
-30.0
 62
     5
 63
     7
 74
     2
 91
        2
 64
     7
 65
   257
 75
     2
175
     1
 42
40.0
 92
        0
 66
   257
 43
1.0
 76
     1
 77
     6
 78
     2
 67
     7
 79
     3
170
     0
171
     0
290
     0
174
     0
 93
        1
 44
0.0
173
     0
291
     0
 45
0.0
1001
ACAD
1000
AcDbSavedByObjectVersion
1070
     0
  0
VISUALSTYLE
  5
30
102
{ACAD_REACTORS
330
2A
102
}
330
2A
100
AcDbVisualStyle
  2
3dWireframe
 70
     5
 71
     0
 72
     2
 73
     0
 90
        0
 40
-0.6
 41
-30.0
 62
     5
 63
     7
 74
     1
 91
        4
 64
     7
 65
   257
 75
     1
175
     1
 42
1.0
 92
        0
 66
   257
 43
1.0
 76
     1
 77
     6
 78
     2
 67
     7
 79
     5
170
     0
171
     0
290
     0
174
     0
 93
        1
 44
0.0
173
     0
291
     0
 45
0.0
1001
ACAD
1000
AcDbSavedByObjectVersion
1070
     0
  0
VISUALSTYLE
  5
32
102
{ACAD_REACTORS
330
2A
102
}
330
2A
100
AcDbVisualStyle
  2
Basic
 70
     7
 71
     1
 72
     0
 73
     1
 90
        0
 40
-0.6
 41
-30.0
 62
     5
 63
     7
 74
     0
 91
        4
 64
     7
 65
   257
 75
     1
175
     1
 42
1.0
 92
        8
 66
     7
 43
1.0
 76
     1
 77
     6
 78
     2
 67
     7
 79
     5
170
     0
171
     0
290
     0
174
     0
 93
        1
 44
0.0
173
     0
291
     1
 45
0.0
1001
ACAD
1000
AcDbSavedByObjectVersion
1070
     0
  0
VISUALSTYLE
  5
36
102
{ACAD_REACTORS
330
2A
102
}
330
2A
100
AcDbVisualStyle
  2
Brighten
 70
    12
 71
     2
 72
     2
 73
     0
 90
        0
 40
-0.6
 41
-30.0
 62
     5
 63
     7
 74
     1
 91
        4
 64
     7
 65
   257
 75
     1
175
     1
 42
1.0
 92
        8
 66
     7
 43
1.0
 76
     1
 77
     6
 78
     2
 67
     7
 79
     5
170
     0
171
     0
290
     0
174
     0
 93
        1
 44
50.0
173
     0
291
     1
 45
0.0
1001
ACAD
1000
AcDbSavedByObjectVersion
1070
     0
  0
VISUALSTYLE
  5
3A
102
{ACAD_REACTORS
330
2A
102
}
330
2A
100
AcDbVisualStyle
  2
ColorChange
 70
    16
 71
     2
 72
     2
 73
     3
 90
        0
 40
-0.6
 41
-30.0
 62
     5
 63
     8
 74
     1
 91
        4
 64
     7
 65
   257
 75
     1
175
     1
 42
1.0
 92
        8
 66
     8
 43
1.0
 76
     1
 77
     6
 78
     2
 67
     7
 79
     5
170
     0
171
     0
290
     0
174
     0
 93
        1
 44
0.0
173
     0
291
     1
 45
0.0
1001
ACAD
1000
AcDbSavedByObjectVersion
1070
     0
  0
VISUALSTYLE
  5
34
102
{ACAD_REACTORS
330
2A
102
}
330
2A
100
AcDbVisualStyle
  2
Conceptual
 70
     9
 71
     3
 72
     2
 73
     0
 90
        0
 40
-0.6
 41
-30.0
 62
     5
 63
     7
 74
     2
 91
        2
 64
     7
 65
   257
 75
     1
175
     1
 42
40.0
 92
        8
 66
     7
 43
1.0
 76
     1
 77
     6
 78
     2
 67
     7
 79
     3
170
     0
171
     0
290
     0
174
     0
 93
        1
 44
0.0
173
     0
291
     0
 45
0.0
1001
ACAD
1000
AcDbSavedByObjectVersion
1070
     0
  0
VISUALSTYLE
  5
35
102
{ACAD_REACTORS
330
2A
102
}
330
2A
100
AcDbVisualStyle
  2
Dim
 70
    11
 71
     2
 72
     2
 73
     0
 90
        0
 40
-0.6
 41
-30.0
 62
     5
 63
     7
 74
     1
 91
        4
 64
     7
 65
   257
 75
     1
175
     1
 42
1.0
 92
        8
 66
     7
 43
1.0
 76
     1
 77
     6
 78
     2
 67
     7
 79
     5
170
     0
171
     0
290
     0
174
     0
 93
        1
 44
-50.0
173
     0
291
     1
 45
0.0
1001
ACAD
1000
AcDbSavedByObjectVersion
1070
     0
  0
VISUALSTYLE
  5
39
102
{ACAD_REACTORS
330
2A
102
}
330
2A
100
AcDbVisualStyle
  2
Facepattern
 70
    15
 71
     2
 72
     2
 73
     0
 90
        0
 40
-0.6
 41
-30.0
 62
     5
 63
     7
 74
     1
 91
        4
 64
     7
 65
   257
 75
     1
175
     1
 42
1.0
 92
        8
 66
     7
 43
1.0
 76
     1
 77
     6
 78
     2
 67
     7
 79
     5
170
     0
171
     0
290
     0
174
     0
 93
        1
 44
0.0
173
     0
291
     1
 45
0.0
1001
ACAD
1000
AcDbSavedByObjectVersion
1070
     0
  0
VISUALSTYLE
  5
2B
102
{ACAD_REACTORS
330
2A
102
}
330
2A
100
AcDbVisualStyle
  2
Flat
 70
     0
 71
     2
 72
     1
 73
     1
 90
        2
 40
-0.6
 41
30.0
 62
     5
 63
     7
 74
     0
 91
        4
 64
     7
 65
   257
 75
     1
175
     1
 42
1.0
 92
        8
 66
     7
 43
1.0
 76
     1
 77
     6
 78
     2
 67
     7
 79
     5
170
     0
171
     0
290
     0
174
     0
 93
       13
 44
0.0
173
     0
291
     1
 45
0.0
1001
ACAD
1000
AcDbSavedByObjectVersion
1070
     0
  0
VISUALSTYLE
  5
2C
102
{ACAD_REACTORS
330
2A
102
}
330
2A
100
AcDbVisualStyle
  2
FlatWithEdges
 70
     1
 71
     2
 72
     1
 73
     1
 90
        2
 40
-0.6
 41
30.0
 62
     5
 63
     7
 74
     1
 91
        4
 64
     7
 65
   257
 75
     1
175
     1
 42
1.0
 92
        0
 66
   257
 43
1.0
 76
     1
 77
     6
 78
     2
 67
     7
 79
     5
170
     0
171
     0
290
     0
174
     0
 93
       13
 44
0.0
173
     0
291
     1
 45
0.0
1001
ACAD
1000
AcDbSavedByObjectVersion
1070
     0
  0
VISUALSTYLE
  5
2D
102
{ACAD_REACTORS
330
2A
102
}
330
2A
100
AcDbVisualStyle
  2
Gouraud
 70
     2
 71
     2
 72
     2
 73
     1
 90
        2
 40
-0.6
 41
30.0
 62
     5
 63
     7
 74
     0
 91
        4
 64
     7
 65
   257
 75
     1
175
     1
 42
1.0
 92
        0
 66
     7
 43
1.0
 76
     1
 77
     6
 78
     2
 67
     7
 79
     5
170
     0
171
     0
290
     0
174
     0
 93
       13
 44
0.0
173
     0
291
     1
 45
0.0
1001
ACAD
1000
AcDbSavedByObjectVersion
1070
     0
  0
VISUALSTYLE
  5
2E
102
{ACAD_REACTORS
330
2A
102
}
330
2A
100
AcDbVisualStyle
  2
GouraudWithEdges
 70
     3
 71
     2
 72
     2
 73
     1
 90
        2
 40
-0.6
 41
30.0
 62
     5
 63
     7
 74
     1
 91
        4
 64
     7
 65
   257
 75
     1
175
     1
 42
1.0
 92
        0
 66
   257
 43
1.0
 76
     1
 77
     6
 78
     2
 67
     7
 79
     5
170
     0
171
     0
290
     0
174
     0
 93
       13
 44
0.0
173
     0
291
     1
 45
0.0
1001
ACAD
1000
AcDbSavedByObjectVersion
1070
     0
  0
VISUALSTYLE
  5
38
102
{ACAD_REACTORS
330
2A
102
}
330
2A
100
AcDbVisualStyle
  2
Linepattern
 70
    14
 71
     2
 72
     2
 73
     0
 90
        0
 40
-0.6
 41
-30.0
 62
     5
 63
     7
 74
     1
 91
        4
 64
     7
 65
   257
 75
     7
175
     7
 42
1.0
 92
        8
 66
     7
 43
1.0
 76
     1
 77
     6
 78
     2
 67
     7
 79
     5
170
     0
171
     0
290
     0
174
     0
 93
        1
 44
0.0
173
     0
291
     1
 45
0.0
1001
ACAD
1000
AcDbSavedByObjectVersion
1070
     0
  0
VISUALSTYLE
  5
33
102
{ACAD_REACTORS
330
2A
102
}
330
2A
100
AcDbVisualStyle
  2
Realistic
 70
     8
 71
     2
 72
     2
 73
     0
 90
        0
 40
-0.6
 41
-30.0
 62
     5
 63
     7
 74
     1
 91
        0
 64
     7
 65
   257
 75
     1
175
     1
 42
1.0
 92
        8
 66
     8
 43
1.0
 76
     1
 77
     6
 78
     2
 67
     7
 79
     5
170
     0
171
     0
290
     0
174
     0
 93
       13
 44
0.0
173
     0
291
     0
 45
0.0
1001
ACAD
1000
AcDbSavedByObjectVersion
1070
     0
  0
VISUALSTYLE
  5
37
102
{ACAD_REACTORS
330
2A
102
}
330
2A
100
AcDbVisualStyle
  2
Thicken
 70
    13
 71
     2
 72
     2
 73
     0
 90
        0
 40
-0.6
 41
-30.0
 62
     5
 63
     7
 74
     1
 91
        4
 64
     7
 65
   257
 75
     1
175
     1
 42
1.0
 92
       12
 66
     7
 43
1.0
 76
     1
 77
     6
 78
     2
 67
     7
 79
     5
170
     0
171
     0
290
     0
174
     0
 93
        1
 44
0.0
173
     0
291
     1
 45
0.0
1001
ACAD
1000
AcDbSavedByObjectVersion
1070
     0
  0
DICTIONARYVAR
  5
140
102
{ACAD_REACTORS
330
13F
102
}
330
13F
100
DictionaryVariables
280
     0
  1
1:1
  0
DICTIONARYVAR
  5
144
102
{ACAD_REACTORS
330
13F
102
}
330
13F
100
DictionaryVariables
280
     0
  1
80.000000
  0
DICTIONARYVAR
  5
143
102
{ACAD_REACTORS
330
13F
102
}
330
13F
100
DictionaryVariables
280
     0
  1
5.000000
  0
ENDSEC
  0
EOF
