  0
SECTION
  2
HEADER
  9
$ACADVER
  1
AC1009
  9
$DWGCODEPAGE
  3
ansi_1252
  9
$INSBASE
 10
0.0
 20
0.0
 30
0.0
  9
$EXTMIN
 10
1.000000000000000E+20
 20
1.000000000000000E+20
 30
1.000000000000000E+20
  9
$EXTMAX
 10
-1.000000000000000E+20
 20
-1.000000000000000E+20
 30
-1.000000000000000E+20
  9
$LIMMIN
 10
0.0
 20
0.0
  9
$LIMMAX
 10
12.0
 20
9.0
  9
$ORTHOMODE
 70
     0
  9
$REGENMODE
 70
     1
  9
$FILLMODE
 70
     1
  9
$QTEXTMODE
 70
     0
  9
$MIRRTEXT
 70
     1
  9
$DRAGMODE
 70
     2
  9
$LTSCALE
 40
1.0
  9
$OSMODE
 70
    37
  9
$ATTMODE
 70
     1
  9
$TEXTSIZE
 40
0.2
  9
$TRACEWID
 40
0.05
  9
$TEXTSTYLE
  7
STANDARD
  9
$CLAYER
  8
0
  9
$CELTYPE
  6
BYLAYER
  9
$CECOLOR
 62
   256
  9
$DIMSCALE
 40
1.0
  9
$DIMASZ
 40
0.18
  9
$DIMEXO
 40
0.0625
  9
$DIMDLI
 40
0.38
  9
$DIMRND
 40
0.0
  9
$DIMDLE
 40
0.0
  9
$DIMEXE
 40
0.18
  9
$DIMTP
 40
0.0
  9
$DIMTM
 40
0.0
  9
$DIMTXT
 40
0.18
  9
$DIMCEN
 40
0.09
  9
$DIMTSZ
 40
0.0
  9
$DIMTOL
 70
     0
  9
$DIMLIM
 70
     0
  9
$DIMTIH
 70
     1
  9
$DIMTOH
 70
     1
  9
$DIMSE1
 70
     0
  9
$DIMSE2
 70
     0
  9
$DIMTAD
 70
     0
  9
$DIMZIN
 70
     0
  9
$DIMBLK
  1

  9
$DIMASO
 70
     1
  9
$DIMSHO
 70
     1
  9
$DIMPOST
  1

  9
$DIMAPOST
  1

  9
$DIMALT
 70
     0
  9
$DIMALTD
 70
     2
  9
$DIMALTF
 40
25.4
  9
$DIMLFAC
 40
1.0
  9
$DIMTOFL
 70
     0
  9
$DIMTVP
 40
0.0
  9
$DIMTIX
 70
     0
  9
$DIMSOXD
 70
     0
  9
$DIMSAH
 70
     0
  9
$DIMBLK1
  1

  9
$DIMBLK2
  1

  9
$DIMSTYLE
  2
STANDARD
  9
$DIMCLRD
 70
     0
  9
$DIMCLRE
 70
     0
  9
$DIMCLRT
 70
     0
  9
$DIMTFAC
 40
1.0
  9
$DIMGAP
 40
0.09
  9
$LUNITS
 70
     2
  9
$LUPREC
 70
     4
  9
$SKETCHINC
 40
0.1
  9
$FILLETRAD
 40
0.5
  9
$AUNITS
 70
     0
  9
$AUPREC
 70
     0
  9
$MENU
  1
.
  9
$ELEVATION
 40
0.0
  9
$PELEVATION
 40
0.0
  9
$THICKNESS
 40
0.0
  9
$LIMCHECK
 70
     0
  9
$CHAMFERA
 40
0.5
  9
$CHAMFERB
 40
0.5
  9
$SKPOLY
 70
     0
  9
$TDCREATE
 40
2457561.598733287
  9
$TDUPDATE
 40
2457561.598733287
  9
$TDINDWG
 40
0.0000000116
  9
$TDUSRTIMER
 40
0.0000000116
  9
$USRTIMER
 70
     1
  9
$ANGBASE
 50
0.0
  9
$ANGDIR
 70
     0
  9
$PDMODE
 70
     0
  9
$PDSIZE
 40
0.0
  9
$PLINEWID
 40
0.0
  9
$COORDS
 70
     1
  9
$SPLFRAME
 70
     0
  9
$SPLINETYPE
 70
     6
  9
$SPLINESEGS
 70
     8
  9
$ATTDIA
 70
     0
  9
$ATTREQ
 70
     1
  9
$HANDLING
 70
     1
  9
$HANDSEED
  5
B4C
  9
$SURFTAB1
 70
     6
  9
$SURFTAB2
 70
     6
  9
$SURFTYPE
 70
     6
  9
$SURFU
 70
     6
  9
$SURFV
 70
     6
  9
$UCSNAME
  2

  9
$UCSORG
 10
0.0
 20
0.0
 30
0.0
  9
$UCSXDIR
 10
1.0
 20
0.0
 30
0.0
  9
$UCSYDIR
 10
0.0
 20
1.0
 30
0.0
  9
$PUCSNAME
  2

  9
$PUCSORG
 10
0.0
 20
0.0
 30
0.0
  9
$PUCSXDIR
 10
1.0
 20
0.0
 30
0.0
  9
$PUCSYDIR
 10
0.0
 20
1.0
 30
0.0
  9
$USERI1
 70
     0
  9
$USERI2
 70
     0
  9
$USERI3
 70
     0
  9
$USERI4
 70
     0
  9
$USERI5
 70
     0
  9
$USERR1
 40
0.0
  9
$USERR2
 40
0.0
  9
$USERR3
 40
0.0
  9
$USERR4
 40
0.0
  9
$USERR5
 40
0.0
  9
$WORLDVIEW
 70
     1
  9
$SHADEDGE
 70
     3
  9
$SHADEDIF
 70
    70
  9
$TILEMODE
 70
     1
  9
$MAXACTVP
 70
    64
  9
$PLIMCHECK
 70
     0
  9
$PEXTMIN
 10
1.000000000000000E+20
 20
1.000000000000000E+20
 30
1.000000000000000E+20
  9
$PEXTMAX
 10
-1.000000000000000E+20
 20
-1.000000000000000E+20
 30
-1.000000000000000E+20
  9
$PLIMMIN
 10
0.0
 20
0.0
  9
$PLIMMAX
 10
12.0
 20
9.0
  9
$UNITMODE
 70
     0
  9
$VISRETAIN
 70
     1
  9
$PLINEGEN
 70
     0
  9
$PSLTSCALE
 70
     1
  0
ENDSEC
  0
SECTION
  2
TABLES
  0
TABLE
  2
VPORT
 70
     1
  0
VPORT
  2
*ACTIVE
 70
     0
 10
0.0
 20
0.0
 11
1.0
 21
1.0
 12
0.0
 22
0.0
 13
0.0
 23
0.0
 14
0.5
 24
0.5
 15
0.5
 25
0.5
 16
196.40771484375
 26
-196.40771484375
 36
196.6667785644531
 17
71.46072387695312
 27
0.0
 37
4.588088989257812
 40
158.237295082209
 41
1.972972972850329
 42
50.0
 43
0.0
 44
0.0
 50
0.0
 51
0.0
 71
     0
 72
   100
 73
     1
 74
     3
 75
     0
 76
     0
 77
     0
 78
     0
  0
ENDTAB
  0
TABLE
  2
LTYPE
 70
     1
  0
LTYPE
  2
CONTINUOUS
 70
     0
  3
Solid line
 72
    65
 73
     0
 40
0.0
  0
ENDTAB
  0
TABLE
  2
LAYER
 70
     2
  0
LAYER
  2
0
 70
     0
 62
     7
  6
CONTINUOUS
  0
LAYER
  2
LAYER_1
 70
     0
 62
     7
  6
CONTINUOUS
  0
ENDTAB
  0
TABLE
  2
STYLE
 70
     1
  0
STYLE
  2
STANDARD
 70
     0
 40
0.0
 41
1.0
 50
0.0
 71
     0
 42
0.2
  3
txt
  4

  0
ENDTAB
  0
TABLE
  2
VIEW
 70
     0
  0
ENDTAB
  0
TABLE
  2
UCS
 70
     0
  0
ENDTAB
  0
TABLE
  2
APPID
 70
     1
  0
APPID
  2
ACAD
 70
     0
  0
ENDTAB
  0
TABLE
  2
DIMSTYLE
 70
     1
  0
DIMSTYLE
  2
STANDARD
 70
     0
  3

  4

  5

  6

  7

 40
1.0
 41
0.18
 42
0.0625
 43
0.38
 44
0.18
 45
0.0
 46
0.0
 47
0.0
 48
0.0
140
0.18
141
0.09
142
0.0
143
25.4
144
1.0
145
0.0
146
1.0
147
0.09
 71
     0
 72
     0
 73
     1
 74
     1
 75
     0
 76
     0
 77
     0
 78
     0
170
     0
171
     2
172
     0
173
     0
174
     0
175
     0
176
     0
177
     0
178
     0
  0
ENDTAB
  0
ENDSEC
  0
SECTION
  2
BLOCKS
  0
BLOCK
  8
0
  2
$MODEL_SPACE
 70
     0
 10
0.0
 20
0.0
 30
0.0
  3
$MODEL_SPACE
  1

  0
ENDBLK
  5
21
  8
0
  0
BLOCK
 67
     1
  8
0
  2
$PAPER_SPACE
 70
     0
 10
0.0
 20
0.0
 30
0.0
  3
$PAPER_SPACE
  1

  0
ENDBLK
  5
1D
 67
     1
  8
0
  0
BLOCK
  8
0
  2
5L0P0249CP
 70
     0
 10
0.0
 20
0.0
 30
0.0
  3
5L0P0249CP
  1

  0
POLYLINE
  5
3C
  8
0
 62
    43
 66
     1
 10
0.0
 20
0.0
 30
0.0
 70
    64
 71
   157
 72
   274
  0
VERTEX
  5
3D
  8
0
 10
88.39376068115234
 20
-3.359459638595581
 30
-16.76499938964844
 70
   192
  0
VERTEX
  5
3E
  8
0
 10
87.71194458007812
 20
-3.566944599151611
 30
-16.76499938964844
 70
   192
  0
VERTEX
  5
3F
  8
0
 10
88.36485290527344
 20
-3.52697229385376
 30
-16.82452583312988
 70
   192
  0
VERTEX
  5
40
  8
0
 10
89.09901428222656
 20
-3.145867824554443
 30
-16.82452583312988
 70
   192
  0
VERTEX
  5
41
  8
0
 10
89.01891326904297
 20
-3.026455402374268
 30
-16.76499938964844
 70
   192
  0
VERTEX
  5
42
  8
0
 10
89.64986419677734
 20
-2.65380334854126
 30
-17.13151931762695
 70
   192
  0
VERTEX
  5
43
  8
0
 10
89.12897491455078
 20
-3.190765142440796
 30
-17.00310516357422
 70
   192
  0
VERTEX
  5
44
  8
0
 10
87.48674011230469
 20
-3.750391483306885
 30
-16.82452583312988
 70
   192
  0
VERTEX
  5
45
  8
0
 10
87.00178527832031
 20
-3.638095140457153
 30
-16.76499938964844
 70
   192
  0
VERTEX
  5
46
  8
0
 10
86.51919555664062
 20
-3.751157760620117
 30
-16.82452583312988
 70
   192
  0
VERTEX
  5
47
  8
0
 10
86.29048156738281
 20
-3.569204330444336
 30
-16.76499938964844
 70
   192
  0
VERTEX
  5
48
  8
0
 10
85.55145263671875
 20
-3.493431568145752
 30
-16.82452583312988
 70
   192
  0
VERTEX
  5
49
  8
0
 10
84.68528747558594
 20
-2.990727424621582
 30
-16.82452583312988
 70
   192
  0
VERTEX
  5
4A
  8
0
 10
84.427978515625
 20
-2.574782609939575
 30
-16.76499938964844
 70
   192
  0
VERTEX
  5
4B
  8
0
 10
84.00218200683594
 20
-2.305522441864014
 30
-16.82452583312988
 70
   192
  0
VERTEX
  5
4C
  8
0
 10
85.6059799194336
 20
-3.361925840377808
 30
-16.76499938964844
 70
   192
  0
VERTEX
  5
4D
  8
0
 10
83.63650512695312
 20
-1.395195007324219
 30
-16.76499938964844
 70
   192
  0
VERTEX
  5
4E
  8
0
 10
83.53982543945312
 20
-1.526280045509338
 30
-16.82452583312988
 70
   192
  0
VERTEX
  5
4F
  8
0
 10
83.97428894042969
 20
-2.024433851242065
 30
-16.76499938964844
 70
   192
  0
VERTEX
  5
50
  8
0
 10
83.4288558959961
 20
-0.7113733887672424
 30
-16.76499938964844
 70
   192
  0
VERTEX
  5
51
  8
0
 10
83.24974060058594
 20
0.0000000000000007
 30
-17.13151931762695
 70
   192
  0
VERTEX
  5
52
  8
0
 10
83.29075622558594
 20
-0.7374802231788635
 30
-16.82452583312988
 70
   192
  0
VERTEX
  5
53
  8
0
 10
83.23782348632812
 20
-0.7480054497718811
 30
-17.00310516357422
 70
   192
  0
VERTEX
  5
54
  8
0
 10
83.31114196777344
 20
-0.6861148476600647
 30
-17.13151931762695
 70
   192
  0
VERTEX
  5
55
  8
0
 10
86.31388854980469
 20
-3.688858509063721
 30
-17.13151931762695
 70
   192
  0
VERTEX
  5
56
  8
0
 10
86.51233673095703
 20
-3.804693460464478
 30
-17.00310516357422
 70
   192
  0
VERTEX
  5
57
  8
0
 10
85.53077697753906
 20
-3.543289184570312
 30
-17.00310516357422
 70
   192
  0
VERTEX
  5
58
  8
0
 10
84.97899627685547
 20
-3.026152610778809
 30
-16.76499938964844
 70
   192
  0
VERTEX
  5
59
  8
0
 10
83.49044036865234
 20
-1.548062801361084
 30
-17.00310516357422
 70
   192
  0
VERTEX
  5
5A
  8
0
 10
83.51425170898438
 20
-1.387267827987671
 30
-17.13151931762695
 70
   192
  0
VERTEX
  5
5B
  8
0
 10
83.95939636230469
 20
-2.338426351547241
 30
-17.00310516357422
 70
   192
  0
VERTEX
  5
5C
  8
0
 10
84.65225219726562
 20
-3.033410549163818
 30
-17.00310516357422
 70
   192
  0
VERTEX
  5
5D
  8
0
 10
87.49369049072266
 20
-3.803916454315186
 30
-17.00310516357422
 70
   192
  0
VERTEX
  5
5E
  8
0
 10
88.38433074951172
 20
-3.577308654785156
 30
-17.00310516357422
 70
   192
  0
VERTEX
  5
5F
  8
0
 10
83.86503601074219
 20
-2.057086229324341
 30
-17.13151931762695
 70
   192
  0
VERTEX
  5
60
  8
0
 10
84.3481674194336
 20
-2.651834011077881
 30
-17.13151931762695
 70
   192
  0
VERTEX
  5
61
  8
0
 10
84.9520492553711
 20
-3.140146255493164
 30
-17.13151931762695
 70
   192
  0
VERTEX
  5
62
  8
0
 10
85.62579345703125
 20
-3.485563278198242
 30
-17.13151931762695
 70
   192
  0
VERTEX
  5
63
  8
0
 10
87.0
 20
-3.750259399414062
 30
-17.13151931762695
 70
   192
  0
VERTEX
  5
64
  8
0
 10
87.68547821044922
 20
-3.688972234725952
 30
-17.13151931762695
 70
   192
  0
VERTEX
  5
65
  8
0
 10
88.3860092163086
 20
-3.486246347427368
 30
-17.13151931762695
 70
   192
  0
VERTEX
  5
66
  8
0
 10
89.04622650146484
 20
-3.141269445419312
 30
-17.13151931762695
 70
   192
  0
VERTEX
  5
67
  8
0
 10
86.07069396972656
 20
3.665888786315918
 30
-16.82452583312988
 70
   192
  0
VERTEX
  5
68
  8
0
 10
86.01591491699219
 20
3.502970695495605
 30
-16.76499938964844
 70
   192
  0
VERTEX
  5
69
  8
0
 10
86.59466552734375
 20
3.61639404296875
 30
-16.76499938964844
 70
   192
  0
VERTEX
  5
6A
  8
0
 10
85.76726531982422
 20
3.543164253234863
 30
-17.13151931762695
 70
   192
  0
VERTEX
  5
6B
  8
0
 10
86.05742645263672
 20
3.718207597732544
 30
-17.00310516357422
 70
   192
  0
VERTEX
  5
6C
  8
0
 10
86.39022064208984
 20
3.702687978744507
 30
-17.13151931762695
 70
   192
  0
VERTEX
  5
6D
  8
0
 10
84.10135650634766
 20
2.194217681884766
 30
-16.76499938964844
 70
   192
  0
VERTEX
  5
6E
  8
0
 10
83.79964447021484
 20
2.014966011047363
 30
-16.82452583312988
 70
   192
  0
VERTEX
  5
6F
  8
0
 10
83.78482055664062
 20
1.697786211967468
 30
-16.76499938964844
 70
   192
  0
VERTEX
  5
70
  8
0
 10
84.3570327758789
 20
2.705011129379272
 30
-16.82452583312988
 70
   192
  0
VERTEX
  5
71
  8
0
 10
84.95091247558594
 20
3.004101514816284
 30
-16.76499938964844
 70
   192
  0
VERTEX
  5
72
  8
0
 10
84.49270629882812
 20
2.632654666900635
 30
-16.76499938964844
 70
   192
  0
VERTEX
  5
73
  8
0
 10
83.44827270507812
 20
1.299078941345215
 30
-16.82452583312988
 70
   192
  0
VERTEX
  5
74
  8
0
 10
83.55205535888672
 20
1.155362010002136
 30
-16.76499938964844
 70
   192
  0
VERTEX
  5
75
  8
0
 10
83.3975830078125
 20
1.31761908531189
 30
-17.00310516357422
 70
   192
  0
VERTEX
  5
76
  8
0
 10
83.29730987548828
 20
0.6097822785377502
 30
-17.13151931762695
 70
   192
  0
VERTEX
  5
77
  8
0
 10
83.21549987792969
 20
0.6253686547279358
 30
-17.00310516357422
 70
   192
  0
VERTEX
  5
78
  8
0
 10
83.26875305175781
 20
0.6165691018104553
 30
-16.82452583312988
 70
   192
  0
VERTEX
  5
79
  8
0
 10
83.41020202636719
 20
0.5881773233413696
 30
-16.76499938964844
 70
   192
  0
VERTEX
  5
7A
  8
0
 10
85.46427154541016
 20
3.29769229888916
 30
-16.76499938964844
 70
   192
  0
VERTEX
  5
7B
  8
0
 10
85.12705993652344
 20
3.285489320755005
 30
-16.82452583312988
 70
   192
  0
VERTEX
  5
7C
  8
0
 10
84.3193130493164
 20
2.743616580963135
 30
-17.00310516357422
 70
   192
  0
VERTEX
  5
7D
  8
0
 10
84.59871673583984
 20
2.880338191986084
 30
-17.13151931762695
 70
   192
  0
VERTEX
  5
7E
  8
0
 10
84.11351776123047
 20
2.390452861785889
 30
-17.13151931762695
 70
   192
  0
VERTEX
  5
7F
  8
0
 10
87.10077667236328
 20
3.780502319335938
 30
-16.82452583312988
 70
   192
  0
VERTEX
  5
80
  8
0
 10
87.77092742919922
 20
3.556918144226074
 30
-16.76499938964844
 70
   192
  0
VERTEX
  5
81
  8
0
 10
87.18561553955078
 20
3.634058475494385
 30
-16.76499938964844
 70
   192
  0
VERTEX
  5
82
  8
0
 10
88.98373413085938
 20
3.219807147979736
 30
-16.82452583312988
 70
   192
  0
VERTEX
  5
83
  8
0
 10
88.10494995117188
 20
3.616828203201294
 30
-16.82452583312988
 70
   192
  0
VERTEX
  5
84
  8
0
 10
88.33412170410156
 20
3.387251377105713
 30
-16.76499938964844
 70
   192
  0
VERTEX
  5
85
  8
0
 10
89.76582336425781
 20
2.370421648025513
 30
-16.76499938964844
 70
   192
  0
VERTEX
  5
86
  8
0
 10
89.67916870117188
 20
2.669159173965454
 30
-16.82452583312988
 70
   192
  0
VERTEX
  5
87
  8
0
 10
89.34739685058594
 20
2.785405397415161
 30
-16.76499938964844
 70
   192
  0
VERTEX
  5
88
  8
0
 10
90.50446319580078
 20
1.42165994644165
 30
-16.82452583312988
 70
   192
  0
VERTEX
  5
89
  8
0
 10
90.37631225585938
 20
1.365172982215881
 30
-16.76499938964844
 70
   192
  0
VERTEX
  5
8A
  8
0
 10
90.55046844482422
 20
0.800000011920929
 30
-16.76499938964844
 70
   192
  0
VERTEX
  5
8B
  8
0
 10
90.17930603027344
 20
2.048016309738159
 30
-16.82452583312988
 70
   192
  0
VERTEX
  5
8C
  8
0
 10
90.11174011230469
 20
1.893386363983154
 30
-16.76499938964844
 70
   192
  0
VERTEX
  5
8D
  8
0
 10
90.4712905883789
 20
1.423290252685547
 30
-17.13151931762695
 70
   192
  0
VERTEX
  5
8E
  8
0
 10
90.17522430419922
 20
1.994479179382324
 30
-17.13151931762695
 70
   192
  0
VERTEX
  5
8F
  8
0
 10
90.55447387695312
 20
1.441949605941772
 30
-17.00310516357422
 70
   192
  0
VERTEX
  5
90
  8
0
 10
88.86479187011719
 20
3.128223896026611
 30
-16.76499938964844
 70
   192
  0
VERTEX
  5
91
  8
0
 10
88.16706848144531
 20
3.56169867515564
 30
-17.13151931762695
 70
   192
  0
VERTEX
  5
92
  8
0
 10
88.12071228027344
 20
3.668447017669678
 30
-17.00310516357422
 70
   192
  0
VERTEX
  5
93
  8
0
 10
89.01204681396484
 20
3.265759706497192
 30
-17.00310516357422
 70
   192
  0
VERTEX
  5
94
  8
0
 10
90.22467803955078
 20
2.077245235443115
 30
-17.00310516357422
 70
   192
  0
VERTEX
  5
95
  8
0
 10
89.7174072265625
 20
2.707252740859985
 30
-17.00310516357422
 70
   192
  0
VERTEX
  5
96
  8
0
 10
87.10221099853516
 20
3.834456920623779
 30
-17.00310516357422
 70
   192
  0
VERTEX
  5
97
  8
0
 10
85.10032653808594
 20
3.332379341125488
 30
-17.00310516357422
 70
   192
  0
VERTEX
  5
98
  8
0
 10
83.75397491455078
 20
2.043723106384277
 30
-17.00310516357422
 70
   192
  0
VERTEX
  5
99
  8
0
 10
89.78269958496094
 20
2.514156341552734
 30
-17.13151931762695
 70
   192
  0
VERTEX
  5
9A
  8
0
 10
89.29507446289062
 20
2.962943315505981
 30
-17.13151931762695
 70
   192
  0
VERTEX
  5
9B
  8
0
 10
88.75154113769531
 20
3.313565254211426
 30
-17.13151931762695
 70
   192
  0
VERTEX
  5
9C
  8
0
 10
87.58321380615234
 20
3.707263469696045
 30
-17.13151931762695
 70
   192
  0
VERTEX
  5
9D
  8
0
 10
87.0
 20
3.750259399414062
 30
-17.13151931762695
 70
   192
  0
VERTEX
  5
9E
  8
0
 10
85.16596984863281
 20
3.271202802658081
 30
-17.13151931762695
 70
   192
  0
VERTEX
  5
9F
  8
0
 10
83.72879791259766
 20
1.834033131599426
 30
-17.13151931762695
 70
   192
  0
VERTEX
  5
A0
  8
0
 10
83.45700073242188
 20
1.221126675605774
 30
-17.13151931762695
 70
   192
  0
VERTEX
  5
A1
  8
0
 10
88.26493835449219
 20
2.256162166595459
 30
-17.7514705657959
 70
   192
  0
VERTEX
  5
A2
  8
0
 10
87.63125610351562
 20
2.508357048034668
 30
-17.7514705657959
 70
   192
  0
VERTEX
  5
A3
  8
0
 10
88.8289794921875
 20
1.828980803489685
 30
-17.7514705657959
 70
   192
  0
VERTEX
  5
A4
  8
0
 10
87.0
 20
2.586569547653198
 30
-17.7514705657959
 70
   192
  0
VERTEX
  5
A5
  8
0
 10
89.25616455078125
 20
1.26494026184082
 30
-17.7514705657959
 70
   192
  0
VERTEX
  5
A6
  8
0
 10
89.7784194946289
 20
0.8243500590324402
 30
-17.61339950561523
 70
   192
  0
VERTEX
  5
A7
  8
0
 10
89.44208526611328
 20
0.6450116634368896
 30
-17.7762336730957
 70
   192
  0
VERTEX
  5
A8
  8
0
 10
90.19962310791016
 20
0.8244302272796631
 30
-17.40406608581543
 70
   192
  0
VERTEX
  5
A9
  8
0
 10
87.0
 20
0.0
 30
-18.26499938964844
 70
   192
  0
VERTEX
  5
AA
  8
0
 10
88.1446304321289
 20
0.6417508125305176
 30
-18.13661766052246
 70
   192
  0
VERTEX
  5
AB
  8
0
 10
88.2725830078125
 20
0.3202604651451111
 30
-18.13661766052246
 70
   192
  0
VERTEX
  5
AC
  8
0
 10
88.19805145263672
 20
0.0
 30
-18.15816307067871
 70
   192
  0
VERTEX
  5
AD
  8
0
 10
89.37000274658203
 20
0.4121750295162201
 30
-17.82325553894043
 70
   192
  0
VERTEX
  5
AE
  8
0
 10
87.64175415039062
 20
1.144634246826172
 30
-18.13661766052246
 70
   192
  0
VERTEX
  5
AF
  8
0
 10
87.92790985107422
 20
0.9279093742370605
 30
-18.13661766052246
 70
   192
  0
VERTEX
  5
B0
  8
0
 10
87.32025909423828
 20
1.272581934928894
 30
-18.13661766052246
 70
   192
  0
VERTEX
  5
B1
  8
0
 10
87.0
 20
1.312262058258057
 30
-18.13661766052246
 70
   192
  0
VERTEX
  5
B2
  8
0
 10
87.92790985107422
 20
-0.9279093742370605
 30
-18.13661766052246
 70
   192
  0
VERTEX
  5
B3
  8
0
 10
88.1446304321289
 20
-0.6417508125305176
 30
-18.13661766052246
 70
   192
  0
VERTEX
  5
B4
  8
0
 10
89.25616455078125
 20
-1.26494026184082
 30
-17.7514705657959
 70
   192
  0
VERTEX
  5
B5
  8
0
 10
89.44203186035156
 20
-0.64494389295578
 30
-17.7762622833252
 70
   192
  0
VERTEX
  5
B6
  8
0
 10
88.2725830078125
 20
-0.3202604651451111
 30
-18.13661766052246
 70
   192
  0
VERTEX
  5
B7
  8
0
 10
88.26493835449219
 20
-2.256162166595459
 30
-17.7514705657959
 70
   192
  0
VERTEX
  5
B8
  8
0
 10
88.8289794921875
 20
-1.828980803489685
 30
-17.7514705657959
 70
   192
  0
VERTEX
  5
B9
  8
0
 10
90.18714904785156
 20
-1.757243990898132
 30
-16.76499938964844
 70
   192
  0
VERTEX
  5
BA
  8
0
 10
89.65850067138672
 20
-0.8053557872772217
 30
-17.6689510345459
 70
   192
  0
VERTEX
  5
BB
  8
0
 10
90.19962310791016
 20
-0.8244302272796631
 30
-17.40406608581543
 70
   192
  0
VERTEX
  5
BC
  8
0
 10
90.65853881835938
 20
-0.8243500590324402
 30
-17.13151931762695
 70
   192
  0
VERTEX
  5
BD
  8
0
 10
87.63125610351562
 20
-2.508357048034668
 30
-17.7514705657959
 70
   192
  0
VERTEX
  5
BE
  8
0
 10
87.32025909423828
 20
-1.272581934928894
 30
-18.13661766052246
 70
   192
  0
VERTEX
  5
BF
  8
0
 10
87.64175415039062
 20
-1.144634246826172
 30
-18.13661766052246
 70
   192
  0
VERTEX
  5
C0
  8
0
 10
87.0
 20
-2.586569547653198
 30
-17.7514705657959
 70
   192
  0
VERTEX
  5
C1
  8
0
 10
87.0
 20
-1.312262058258057
 30
-18.13661766052246
 70
   192
  0
VERTEX
  5
C2
  8
0
 10
85.73506164550781
 20
-2.256162166595459
 30
-17.7514705657959
 70
   192
  0
VERTEX
  5
C3
  8
0
 10
86.36874389648438
 20
-2.508357048034668
 30
-17.7514705657959
 70
   192
  0
VERTEX
  5
C4
  8
0
 10
85.1710205078125
 20
-1.828980803489685
 30
-17.7514705657959
 70
   192
  0
VERTEX
  5
C5
  8
0
 10
86.35824584960938
 20
-1.144634246826172
 30
-18.13661766052246
 70
   192
  0
VERTEX
  5
C6
  8
0
 10
84.74383544921875
 20
-1.26494026184082
 30
-17.7514705657959
 70
   192
  0
VERTEX
  5
C7
  8
0
 10
84.49164581298828
 20
-0.6312580704689026
 30
-17.7514705657959
 70
   192
  0
VERTEX
  5
C8
  8
0
 10
84.4134292602539
 20
-0.0000000000000183
 30
-17.7514705657959
 70
   192
  0
VERTEX
  5
C9
  8
0
 10
85.68773651123047
 20
-0.0000000000000183
 30
-18.13661766052246
 70
   192
  0
VERTEX
  5
CA
  8
0
 10
85.7274169921875
 20
-0.3202604651451111
 30
-18.13661766052246
 70
   192
  0
VERTEX
  5
CB
  8
0
 10
85.8553695678711
 20
-0.6417508125305176
 30
-18.13661766052246
 70
   192
  0
VERTEX
  5
CC
  8
0
 10
86.07209014892578
 20
-0.9279093742370605
 30
-18.13661766052246
 70
   192
  0
VERTEX
  5
CD
  8
0
 10
86.67974090576172
 20
-1.272581934928894
 30
-18.13661766052246
 70
   192
  0
VERTEX
  5
CE
  8
0
 10
84.74383544921875
 20
1.26494026184082
 30
-17.7514705657959
 70
   192
  0
VERTEX
  5
CF
  8
0
 10
84.49164581298828
 20
0.6312580704689026
 30
-17.7514705657959
 70
   192
  0
VERTEX
  5
D0
  8
0
 10
85.1710205078125
 20
1.828980803489685
 30
-17.7514705657959
 70
   192
  0
VERTEX
  5
D1
  8
0
 10
85.8553695678711
 20
0.6417508125305176
 30
-18.13661766052246
 70
   192
  0
VERTEX
  5
D2
  8
0
 10
85.73506164550781
 20
2.256162166595459
 30
-17.7514705657959
 70
   192
  0
VERTEX
  5
D3
  8
0
 10
86.36874389648438
 20
2.508357048034668
 30
-17.7514705657959
 70
   192
  0
VERTEX
  5
D4
  8
0
 10
86.67974090576172
 20
1.272581934928894
 30
-18.13661766052246
 70
   192
  0
VERTEX
  5
D5
  8
0
 10
86.35824584960938
 20
1.144634246826172
 30
-18.13661766052246
 70
   192
  0
VERTEX
  5
D6
  8
0
 10
86.07209014892578
 20
0.9279093742370605
 30
-18.13661766052246
 70
   192
  0
VERTEX
  5
D7
  8
0
 10
85.7274169921875
 20
0.3202604651451111
 30
-18.13661766052246
 70
   192
  0
VERTEX
  5
D8
  8
0
 10
90.35908508300781
 20
-1.852040767669678
 30
-17.00310516357422
 70
   192
  0
VERTEX
  5
D9
  8
0
 10
90.31182098388672
 20
-1.825980663299561
 30
-16.82452583312988
 70
   192
  0
VERTEX
  5
DA
  8
0
 62
    43
 10
0.0
 20
0.0
 30
0.0
 70
   128
 71
     3
 72
     2
 73
     1
  0
VERTEX
  5
DB
  8
0
 62
    43
 10
0.0
 20
0.0
 30
0.0
 70
   128
 71
     5
 72
     4
 73
     1
  0
VERTEX
  5
DC
  8
0
 62
    43
 10
0.0
 20
0.0
 30
0.0
 70
   128
 71
     1
 72
     4
 73
     3
  0
VERTEX
  5
DD
  8
0
 62
    43
 10
0.0
 20
0.0
 30
0.0
 70
   128
 71
     6
 72
     4
 73
     5
  0
VERTEX
  5
DE
  8
0
 62
    43
 10
0.0
 20
0.0
 30
0.0
 70
   128
 71
     7
 72
     4
 73
     6
  0
VERTEX
  5
DF
  8
0
 62
    43
 10
0.0
 20
0.0
 30
0.0
 70
   128
 71
     8
 72
     2
 73
     3
  0
VERTEX
  5
E0
  8
0
 62
    43
 10
0.0
 20
0.0
 30
0.0
 70
   128
 71
    10
 72
     9
 73
     8
  0
VERTEX
  5
E1
  8
0
 62
    43
 10
0.0
 20
0.0
 30
0.0
 70
   128
 71
    10
 72
    12
 73
    11
  0
VERTEX
  5
E2
  8
0
 62
    43
 10
0.0
 20
0.0
 30
0.0
 70
   128
 71
     8
 72
     9
 73
     2
  0
VERTEX
  5
E3
  8
0
 62
    43
 10
0.0
 20
0.0
 30
0.0
 70
   128
 71
    15
 72
    14
 73
    13
  0
VERTEX
  5
E4
  8
0
 62
    43
 10
0.0
 20
0.0
 30
0.0
 70
   128
 71
    11
 72
    12
 73
    16
  0
VERTEX
  5
E5
  8
0
 62
    43
 10
0.0
 20
0.0
 30
0.0
 70
   128
 71
    19
 72
    18
 73
    17
  0
VERTEX
  5
E6
  8
0
 62
    43
 10
0.0
 20
0.0
 30
0.0
 70
   128
 71
    19
 72
    14
 73
    15
  0
VERTEX
  5
E7
  8
0
 62
    43
 10
0.0
 20
0.0
 30
0.0
 70
   128
 71
    22
 72
    21
 73
    20
  0
VERTEX
  5
E8
  8
0
 62
    43
 10
0.0
 20
0.0
 30
0.0
 70
   128
 71
    24
 72
    21
 73
    23
  0
VERTEX
  5
E9
  8
0
 62
    43
 10
0.0
 20
0.0
 30
0.0
 70
   128
 71
    20
 72
    17
 73
    22
  0
VERTEX
  5
EA
  8
0
 62
    43
 10
0.0
 20
0.0
 30
0.0
 70
   128
 71
    18
 72
    22
 73
    17
  0
VERTEX
  5
EB
  8
0
 62
    43
 10
0.0
 20
0.0
 30
0.0
 70
   128
 71
    15
 72
    18
 73
    19
  0
VERTEX
  5
EC
  8
0
 62
    43
 10
0.0
 20
0.0
 30
0.0
 70
   128
 71
    27
 72
    26
 73
    25
  0
VERTEX
  5
ED
  8
0
 62
    43
 10
0.0
 20
0.0
 30
0.0
 70
   128
 71
    28
 72
    13
 73
    14
  0
VERTEX
  5
EE
  8
0
 62
    43
 10
0.0
 20
0.0
 30
0.0
 70
   128
 71
    12
 72
    28
 73
    16
  0
VERTEX
  5
EF
  8
0
 62
    43
 10
0.0
 20
0.0
 30
0.0
 70
   128
 71
    13
 72
    28
 73
    12
  0
VERTEX
  5
F0
  8
0
 62
    43
 10
0.0
 20
0.0
 30
0.0
 70
   128
 71
    11
 72
     9
 73
    10
  0
VERTEX
  5
F1
  8
0
 62
    43
 10
0.0
 20
0.0
 30
0.0
 70
   128
 71
    30
 72
    23
 73
    29
  0
VERTEX
  5
F2
  8
0
 62
    43
 10
0.0
 20
0.0
 30
0.0
 70
   128
 71
    29
 72
    22
 73
    18
  0
VERTEX
  5
F3
  8
0
 62
    43
 10
0.0
 20
0.0
 30
0.0
 70
   128
 71
    29
 72
    23
 73
    22
  0
VERTEX
  5
F4
  8
0
 62
    43
 10
0.0
 20
0.0
 30
0.0
 70
   128
 71
    18
 72
    15
 73
    31
  0
VERTEX
  5
F5
  8
0
 62
    43
 10
0.0
 20
0.0
 30
0.0
 70
   128
 71
    31
 72
    29
 73
    18
  0
VERTEX
  5
F6
  8
0
 62
    43
 10
0.0
 20
0.0
 30
0.0
 70
   128
 71
    15
 72
    13
 73
    32
  0
VERTEX
  5
F7
  8
0
 62
    43
 10
0.0
 20
0.0
 30
0.0
 70
   128
 71
    32
 72
    31
 73
    15
  0
VERTEX
  5
F8
  8
0
 62
    43
 10
0.0
 20
0.0
 30
0.0
 70
   128
 71
    13
 72
    12
 73
    27
  0
VERTEX
  5
F9
  8
0
 62
    43
 10
0.0
 20
0.0
 30
0.0
 70
   128
 71
    13
 72
    27
 73
    32
  0
VERTEX
  5
FA
  8
0
 62
    43
 10
0.0
 20
0.0
 30
0.0
 70
   128
 71
    12
 72
    10
 73
    26
  0
VERTEX
  5
FB
  8
0
 62
    43
 10
0.0
 20
0.0
 30
0.0
 70
   128
 71
    26
 72
    27
 73
    12
  0
VERTEX
  5
FC
  8
0
 62
    43
 10
0.0
 20
0.0
 30
0.0
 70
   128
 71
    10
 72
     8
 73
    33
  0
VERTEX
  5
FD
  8
0
 62
    43
 10
0.0
 20
0.0
 30
0.0
 70
   128
 71
    33
 72
    26
 73
    10
  0
VERTEX
  5
FE
  8
0
 62
    43
 10
0.0
 20
0.0
 30
0.0
 70
   128
 71
     8
 72
     3
 73
    34
  0
VERTEX
  5
FF
  8
0
 62
    43
 10
0.0
 20
0.0
 30
0.0
 70
   128
 71
    34
 72
    33
 73
     8
  0
VERTEX
  5
100
  8
0
 62
    43
 10
0.0
 20
0.0
 30
0.0
 70
   128
 71
     3
 72
     4
 73
     7
  0
VERTEX
  5
101
  8
0
 62
    43
 10
0.0
 20
0.0
 30
0.0
 70
   128
 71
     3
 72
     7
 73
    34
  0
VERTEX
  5
102
  8
0
 62
    43
 10
0.0
 20
0.0
 30
0.0
 70
   128
 71
    21
 72
    22
 73
    23
  0
VERTEX
  5
103
  8
0
 62
    43
 10
0.0
 20
0.0
 30
0.0
 70
   128
 71
    23
 72
    30
 73
    24
  0
VERTEX
  5
104
  8
0
 62
    43
 10
0.0
 20
0.0
 30
0.0
 70
   128
 71
    29
 72
    35
 73
    30
  0
VERTEX
  5
105
  8
0
 62
    43
 10
0.0
 20
0.0
 30
0.0
 70
   128
 71
    31
 72
    35
 73
    29
  0
VERTEX
  5
106
  8
0
 62
    43
 10
0.0
 20
0.0
 30
0.0
 70
   128
 71
    31
 72
    36
 73
    35
  0
VERTEX
  5
107
  8
0
 62
    43
 10
0.0
 20
0.0
 30
0.0
 70
   128
 71
    32
 72
    37
 73
    36
  0
VERTEX
  5
108
  8
0
 62
    43
 10
0.0
 20
0.0
 30
0.0
 70
   128
 71
    31
 72
    32
 73
    36
  0
VERTEX
  5
109
  8
0
 62
    43
 10
0.0
 20
0.0
 30
0.0
 70
   128
 71
    27
 72
    38
 73
    37
  0
VERTEX
  5
10A
  8
0
 62
    43
 10
0.0
 20
0.0
 30
0.0
 70
   128
 71
    32
 72
    27
 73
    37
  0
VERTEX
  5
10B
  8
0
 62
    43
 10
0.0
 20
0.0
 30
0.0
 70
   128
 71
    38
 72
    27
 73
    25
  0
VERTEX
  5
10C
  8
0
 62
    43
 10
0.0
 20
0.0
 30
0.0
 70
   128
 71
    26
 72
    39
 73
    25
  0
VERTEX
  5
10D
  8
0
 62
    43
 10
0.0
 20
0.0
 30
0.0
 70
   128
 71
    33
 72
    40
 73
    39
  0
VERTEX
  5
10E
  8
0
 62
    43
 10
0.0
 20
0.0
 30
0.0
 70
   128
 71
    26
 72
    33
 73
    39
  0
VERTEX
  5
10F
  8
0
 62
    43
 10
0.0
 20
0.0
 30
0.0
 70
   128
 71
    34
 72
    41
 73
    40
  0
VERTEX
  5
110
  8
0
 62
    43
 10
0.0
 20
0.0
 30
0.0
 70
   128
 71
    33
 72
    34
 73
    40
  0
VERTEX
  5
111
  8
0
 62
    43
 10
0.0
 20
0.0
 30
0.0
 70
   128
 71
     7
 72
    42
 73
    41
  0
VERTEX
  5
112
  8
0
 62
    43
 10
0.0
 20
0.0
 30
0.0
 70
   128
 71
    34
 72
     7
 73
    41
  0
VERTEX
  5
113
  8
0
 62
    43
 10
0.0
 20
0.0
 30
0.0
 70
   128
 71
    42
 72
     7
 73
     6
  0
VERTEX
  5
114
  8
0
 62
    43
 10
0.0
 20
0.0
 30
0.0
 70
   128
 71
    45
 72
    44
 73
    43
  0
VERTEX
  5
115
  8
0
 62
    43
 10
0.0
 20
0.0
 30
0.0
 70
   128
 71
    48
 72
    47
 73
    46
  0
VERTEX
  5
116
  8
0
 62
    43
 10
0.0
 20
0.0
 30
0.0
 70
   128
 71
    51
 72
    50
 73
    49
  0
VERTEX
  5
117
  8
0
 62
    43
 10
0.0
 20
0.0
 30
0.0
 70
   128
 71
    50
 72
    52
 73
    49
  0
VERTEX
  5
118
  8
0
 62
    43
 10
0.0
 20
0.0
 30
0.0
 70
   128
 71
    54
 72
    52
 73
    53
  0
VERTEX
  5
119
  8
0
 62
    43
 10
0.0
 20
0.0
 30
0.0
 70
   128
 71
    56
 72
    55
 73
    51
  0
VERTEX
  5
11A
  8
0
 62
    43
 10
0.0
 20
0.0
 30
0.0
 70
   128
 71
    59
 72
    58
 73
    57
  0
VERTEX
  5
11B
  8
0
 62
    43
 10
0.0
 20
0.0
 30
0.0
 70
   128
 71
    51
 72
    55
 73
    50
  0
VERTEX
  5
11C
  8
0
 62
    43
 10
0.0
 20
0.0
 30
0.0
 70
   128
 71
    55
 72
    56
 73
    60
  0
VERTEX
  5
11D
  8
0
 62
    43
 10
0.0
 20
0.0
 30
0.0
 70
   128
 71
    60
 72
    61
 73
    21
  0
VERTEX
  5
11E
  8
0
 62
    43
 10
0.0
 20
0.0
 30
0.0
 70
   128
 71
    60
 72
    56
 73
    61
  0
VERTEX
  5
11F
  8
0
 62
    43
 10
0.0
 20
0.0
 30
0.0
 70
   128
 71
    52
 72
    54
 73
    49
  0
VERTEX
  5
120
  8
0
 62
    43
 10
0.0
 20
0.0
 30
0.0
 70
   128
 71
    63
 72
    62
 73
    53
  0
VERTEX
  5
121
  8
0
 62
    43
 10
0.0
 20
0.0
 30
0.0
 70
   128
 71
    53
 72
    52
 73
    63
  0
VERTEX
  5
122
  8
0
 62
    43
 10
0.0
 20
0.0
 30
0.0
 70
   128
 71
    66
 72
    65
 73
    64
  0
VERTEX
  5
123
  8
0
 62
    43
 10
0.0
 20
0.0
 30
0.0
 70
   128
 71
    63
 72
    43
 73
    62
  0
VERTEX
  5
124
  8
0
 62
    43
 10
0.0
 20
0.0
 30
0.0
 70
   128
 71
    67
 72
    45
 73
    43
  0
VERTEX
  5
125
  8
0
 62
    43
 10
0.0
 20
0.0
 30
0.0
 70
   128
 71
    44
 72
    62
 73
    43
  0
VERTEX
  5
126
  8
0
 62
    43
 10
0.0
 20
0.0
 30
0.0
 70
   128
 71
    69
 72
    67
 73
    68
  0
VERTEX
  5
127
  8
0
 62
    43
 10
0.0
 20
0.0
 30
0.0
 70
   128
 71
    69
 72
    45
 73
    67
  0
VERTEX
  5
128
  8
0
 62
    43
 10
0.0
 20
0.0
 30
0.0
 70
   128
 71
    72
 72
    71
 73
    70
  0
VERTEX
  5
129
  8
0
 62
    43
 10
0.0
 20
0.0
 30
0.0
 70
   128
 71
    71
 72
    68
 73
    67
  0
VERTEX
  5
12A
  8
0
 62
    43
 10
0.0
 20
0.0
 30
0.0
 70
   128
 71
    75
 72
    74
 73
    73
  0
VERTEX
  5
12B
  8
0
 62
    43
 10
0.0
 20
0.0
 30
0.0
 70
   128
 71
    70
 72
    74
 73
    75
  0
VERTEX
  5
12C
  8
0
 62
    43
 10
0.0
 20
0.0
 30
0.0
 70
   128
 71
    78
 72
    77
 73
    76
  0
VERTEX
  5
12D
  8
0
 62
    43
 10
0.0
 20
0.0
 30
0.0
 70
   128
 71
    80
 72
    73
 73
    79
  0
VERTEX
  5
12E
  8
0
 62
    43
 10
0.0
 20
0.0
 30
0.0
 70
   128
 71
    83
 72
    82
 73
    81
  0
VERTEX
  5
12F
  8
0
 62
    43
 10
0.0
 20
0.0
 30
0.0
 70
   128
 71
    77
 72
    80
 73
    76
  0
VERTEX
  5
130
  8
0
 62
    43
 10
0.0
 20
0.0
 30
0.0
 70
   128
 71
    79
 72
    76
 73
    80
  0
VERTEX
  5
131
  8
0
 62
    43
 10
0.0
 20
0.0
 30
0.0
 70
   128
 71
    73
 72
    74
 73
    79
  0
VERTEX
  5
132
  8
0
 62
    43
 10
0.0
 20
0.0
 30
0.0
 70
   128
 71
    70
 72
    75
 73
    84
  0
VERTEX
  5
133
  8
0
 62
    43
 10
0.0
 20
0.0
 30
0.0
 70
   128
 71
    87
 72
    86
 73
    85
  0
VERTEX
  5
134
  8
0
 62
    43
 10
0.0
 20
0.0
 30
0.0
 70
   128
 71
    71
 72
    72
 73
    68
  0
VERTEX
  5
135
  8
0
 62
    43
 10
0.0
 20
0.0
 30
0.0
 70
   128
 71
    84
 72
    72
 73
    70
  0
VERTEX
  5
136
  8
0
 62
    43
 10
0.0
 20
0.0
 30
0.0
 70
   128
 71
    88
 72
    82
 73
    83
  0
VERTEX
  5
137
  8
0
 62
    43
 10
0.0
 20
0.0
 30
0.0
 70
   128
 71
    88
 72
    76
 73
    79
  0
VERTEX
  5
138
  8
0
 62
    43
 10
0.0
 20
0.0
 30
0.0
 70
   128
 71
    88
 72
    83
 73
    76
  0
VERTEX
  5
139
  8
0
 62
    43
 10
0.0
 20
0.0
 30
0.0
 70
   128
 71
    79
 72
    74
 73
    89
  0
VERTEX
  5
13A
  8
0
 62
    43
 10
0.0
 20
0.0
 30
0.0
 70
   128
 71
    89
 72
    88
 73
    79
  0
VERTEX
  5
13B
  8
0
 62
    43
 10
0.0
 20
0.0
 30
0.0
 70
   128
 71
    74
 72
    70
 73
    87
  0
VERTEX
  5
13C
  8
0
 62
    43
 10
0.0
 20
0.0
 30
0.0
 70
   128
 71
    74
 72
    87
 73
    89
  0
VERTEX
  5
13D
  8
0
 62
    43
 10
0.0
 20
0.0
 30
0.0
 70
   128
 71
    86
 72
    70
 73
    71
  0
VERTEX
  5
13E
  8
0
 62
    43
 10
0.0
 20
0.0
 30
0.0
 70
   128
 71
    86
 72
    87
 73
    70
  0
VERTEX
  5
13F
  8
0
 62
    43
 10
0.0
 20
0.0
 30
0.0
 70
   128
 71
    90
 72
    71
 73
    67
  0
VERTEX
  5
140
  8
0
 62
    43
 10
0.0
 20
0.0
 30
0.0
 70
   128
 71
    71
 72
    90
 73
    86
  0
VERTEX
  5
141
  8
0
 62
    43
 10
0.0
 20
0.0
 30
0.0
 70
   128
 71
    47
 72
    67
 73
    43
  0
VERTEX
  5
142
  8
0
 62
    43
 10
0.0
 20
0.0
 30
0.0
 70
   128
 71
    47
 72
    90
 73
    67
  0
VERTEX
  5
143
  8
0
 62
    43
 10
0.0
 20
0.0
 30
0.0
 70
   128
 71
    91
 72
    43
 73
    63
  0
VERTEX
  5
144
  8
0
 62
    43
 10
0.0
 20
0.0
 30
0.0
 70
   128
 71
    43
 72
    91
 73
    47
  0
VERTEX
  5
145
  8
0
 62
    43
 10
0.0
 20
0.0
 30
0.0
 70
   128
 71
    64
 72
    63
 73
    52
  0
VERTEX
  5
146
  8
0
 62
    43
 10
0.0
 20
0.0
 30
0.0
 70
   128
 71
    64
 72
    91
 73
    63
  0
VERTEX
  5
147
  8
0
 62
    43
 10
0.0
 20
0.0
 30
0.0
 70
   128
 71
    52
 72
    50
 73
    92
  0
VERTEX
  5
148
  8
0
 62
    43
 10
0.0
 20
0.0
 30
0.0
 70
   128
 71
    92
 72
    64
 73
    52
  0
VERTEX
  5
149
  8
0
 62
    43
 10
0.0
 20
0.0
 30
0.0
 70
   128
 71
    50
 72
    55
 73
    57
  0
VERTEX
  5
14A
  8
0
 62
    43
 10
0.0
 20
0.0
 30
0.0
 70
   128
 71
    57
 72
    92
 73
    50
  0
VERTEX
  5
14B
  8
0
 62
    43
 10
0.0
 20
0.0
 30
0.0
 70
   128
 71
    59
 72
    55
 73
    60
  0
VERTEX
  5
14C
  8
0
 62
    43
 10
0.0
 20
0.0
 30
0.0
 70
   128
 71
    59
 72
    57
 73
    55
  0
VERTEX
  5
14D
  8
0
 62
    43
 10
0.0
 20
0.0
 30
0.0
 70
   128
 71
    76
 72
    83
 73
    78
  0
VERTEX
  5
14E
  8
0
 62
    43
 10
0.0
 20
0.0
 30
0.0
 70
   128
 71
    83
 72
    81
 73
    78
  0
VERTEX
  5
14F
  8
0
 62
    43
 10
0.0
 20
0.0
 30
0.0
 70
   128
 71
    88
 72
    93
 73
    82
  0
VERTEX
  5
150
  8
0
 62
    43
 10
0.0
 20
0.0
 30
0.0
 70
   128
 71
    89
 72
    93
 73
    88
  0
VERTEX
  5
151
  8
0
 62
    43
 10
0.0
 20
0.0
 30
0.0
 70
   128
 71
    89
 72
    94
 73
    93
  0
VERTEX
  5
152
  8
0
 62
    43
 10
0.0
 20
0.0
 30
0.0
 70
   128
 71
    87
 72
    95
 73
    94
  0
VERTEX
  5
153
  8
0
 62
    43
 10
0.0
 20
0.0
 30
0.0
 70
   128
 71
    89
 72
    87
 73
    94
  0
VERTEX
  5
154
  8
0
 62
    43
 10
0.0
 20
0.0
 30
0.0
 70
   128
 71
    95
 72
    87
 73
    85
  0
VERTEX
  5
155
  8
0
 62
    43
 10
0.0
 20
0.0
 30
0.0
 70
   128
 71
    86
 72
    96
 73
    85
  0
VERTEX
  5
156
  8
0
 62
    43
 10
0.0
 20
0.0
 30
0.0
 70
   128
 71
    90
 72
    97
 73
    96
  0
VERTEX
  5
157
  8
0
 62
    43
 10
0.0
 20
0.0
 30
0.0
 70
   128
 71
    86
 72
    90
 73
    96
  0
VERTEX
  5
158
  8
0
 62
    43
 10
0.0
 20
0.0
 30
0.0
 70
   128
 71
    97
 72
    90
 73
    48
  0
VERTEX
  5
159
  8
0
 62
    43
 10
0.0
 20
0.0
 30
0.0
 70
   128
 71
    90
 72
    47
 73
    48
  0
VERTEX
  5
15A
  8
0
 62
    43
 10
0.0
 20
0.0
 30
0.0
 70
   128
 71
    91
 72
    98
 73
    46
  0
VERTEX
  5
15B
  8
0
 62
    43
 10
0.0
 20
0.0
 30
0.0
 70
   128
 71
    47
 72
    91
 73
    46
  0
VERTEX
  5
15C
  8
0
 62
    43
 10
0.0
 20
0.0
 30
0.0
 70
   128
 71
    98
 72
    91
 73
    65
  0
VERTEX
  5
15D
  8
0
 62
    43
 10
0.0
 20
0.0
 30
0.0
 70
   128
 71
    91
 72
    64
 73
    65
  0
VERTEX
  5
15E
  8
0
 62
    43
 10
0.0
 20
0.0
 30
0.0
 70
   128
 71
    92
 72
    99
 73
    66
  0
VERTEX
  5
15F
  8
0
 62
    43
 10
0.0
 20
0.0
 30
0.0
 70
   128
 71
    64
 72
    92
 73
    66
  0
VERTEX
  5
160
  8
0
 62
    43
 10
0.0
 20
0.0
 30
0.0
 70
   128
 71
   100
 72
    99
 73
    57
  0
VERTEX
  5
161
  8
0
 62
    43
 10
0.0
 20
0.0
 30
0.0
 70
   128
 71
    92
 72
    57
 73
    99
  0
VERTEX
  5
162
  8
0
 62
    43
 10
0.0
 20
0.0
 30
0.0
 70
   128
 71
   100
 72
    57
 73
    58
  0
VERTEX
  5
163
  8
0
 62
    43
 10
0.0
 20
0.0
 30
0.0
 70
   128
 71
    59
 72
    21
 73
    58
  0
VERTEX
  5
164
  8
0
 62
    43
 10
0.0
 20
0.0
 30
0.0
 70
   128
 71
    59
 72
    60
 73
    21
  0
VERTEX
  5
165
  8
0
 62
    43
 10
0.0
 20
0.0
 30
0.0
 70
   128
 71
    95
 72
   101
 73
    94
  0
VERTEX
  5
166
  8
0
 62
    43
 10
0.0
 20
0.0
 30
0.0
 70
   128
 71
    85
 72
   102
 73
   101
  0
VERTEX
  5
167
  8
0
 62
    43
 10
0.0
 20
0.0
 30
0.0
 70
   128
 71
    94
 72
   103
 73
    93
  0
VERTEX
  5
168
  8
0
 62
    43
 10
0.0
 20
0.0
 30
0.0
 70
   128
 71
    85
 72
   101
 73
    95
  0
VERTEX
  5
169
  8
0
 62
    43
 10
0.0
 20
0.0
 30
0.0
 70
   128
 71
   104
 72
    96
 73
    97
  0
VERTEX
  5
16A
  8
0
 62
    43
 10
0.0
 20
0.0
 30
0.0
 70
   128
 71
   105
 72
    93
 73
   103
  0
VERTEX
  5
16B
  8
0
 62
    43
 10
0.0
 20
0.0
 30
0.0
 70
   128
 71
   103
 72
    94
 73
   101
  0
VERTEX
  5
16C
  8
0
 62
    43
 10
0.0
 20
0.0
 30
0.0
 70
   128
 71
    82
 72
    93
 73
   105
  0
VERTEX
  5
16D
  8
0
 62
    43
 10
0.0
 20
0.0
 30
0.0
 70
   128
 71
   107
 72
   106
 73
   105
  0
VERTEX
  5
16E
  8
0
 62
    43
 10
0.0
 20
0.0
 30
0.0
 70
   128
 71
   106
 72
   108
 73
    81
  0
VERTEX
  5
16F
  8
0
 62
    43
 10
0.0
 20
0.0
 30
0.0
 70
   128
 71
    81
 72
    82
 73
   105
  0
VERTEX
  5
170
  8
0
 62
    43
 10
0.0
 20
0.0
 30
0.0
 70
   128
 71
   108
 72
    78
 73
    81
  0
VERTEX
  5
171
  8
0
 62
    43
 10
0.0
 20
0.0
 30
0.0
 70
   128
 71
    81
 72
   105
 73
   106
  0
VERTEX
  5
172
  8
0
 62
    43
 10
0.0
 20
0.0
 30
0.0
 70
   128
 71
   111
 72
   110
 73
   109
  0
VERTEX
  5
173
  8
0
 62
    43
 10
0.0
 20
0.0
 30
0.0
 70
   128
 71
   112
 72
   111
 73
   109
  0
VERTEX
  5
174
  8
0
 62
    43
 10
0.0
 20
0.0
 30
0.0
 70
   128
 71
   112
 72
   113
 73
   111
  0
VERTEX
  5
175
  8
0
 62
    43
 10
0.0
 20
0.0
 30
0.0
 70
   128
 71
   111
 72
   113
 73
   107
  0
VERTEX
  5
176
  8
0
 62
    43
 10
0.0
 20
0.0
 30
0.0
 70
   128
 71
   102
 72
   114
 73
   101
  0
VERTEX
  5
177
  8
0
 62
    43
 10
0.0
 20
0.0
 30
0.0
 70
   128
 71
   102
 72
    85
 73
    96
  0
VERTEX
  5
178
  8
0
 62
    43
 10
0.0
 20
0.0
 30
0.0
 70
   128
 71
   115
 72
   110
 73
   103
  0
VERTEX
  5
179
  8
0
 62
    43
 10
0.0
 20
0.0
 30
0.0
 70
   128
 71
   114
 72
   115
 73
   101
  0
VERTEX
  5
17A
  8
0
 62
    43
 10
0.0
 20
0.0
 30
0.0
 70
   128
 71
   102
 72
    96
 73
   104
  0
VERTEX
  5
17B
  8
0
 62
    43
 10
0.0
 20
0.0
 30
0.0
 70
   128
 71
   116
 72
   102
 73
   104
  0
VERTEX
  5
17C
  8
0
 62
    43
 10
0.0
 20
0.0
 30
0.0
 70
   128
 71
   111
 72
   107
 73
   105
  0
VERTEX
  5
17D
  8
0
 62
    43
 10
0.0
 20
0.0
 30
0.0
 70
   128
 71
   110
 72
   111
 73
   105
  0
VERTEX
  5
17E
  8
0
 62
    43
 10
0.0
 20
0.0
 30
0.0
 70
   128
 71
   101
 72
   115
 73
   103
  0
VERTEX
  5
17F
  8
0
 62
    43
 10
0.0
 20
0.0
 30
0.0
 70
   128
 71
   103
 72
   110
 73
   105
  0
VERTEX
  5
180
  8
0
 62
    43
 10
0.0
 20
0.0
 30
0.0
 70
   128
 71
   110
 72
   115
 73
   109
  0
VERTEX
  5
181
  8
0
 62
    43
 10
0.0
 20
0.0
 30
0.0
 70
   128
 71
   116
 72
   117
 73
   109
  0
VERTEX
  5
182
  8
0
 62
    43
 10
0.0
 20
0.0
 30
0.0
 70
   128
 71
   115
 72
   114
 73
   109
  0
VERTEX
  5
183
  8
0
 62
    43
 10
0.0
 20
0.0
 30
0.0
 70
   128
 71
   109
 72
   114
 73
   116
  0
VERTEX
  5
184
  8
0
 62
    43
 10
0.0
 20
0.0
 30
0.0
 70
   128
 71
   117
 72
   116
 73
   104
  0
VERTEX
  5
185
  8
0
 62
    43
 10
0.0
 20
0.0
 30
0.0
 70
   128
 71
   116
 72
   114
 73
   102
  0
VERTEX
  5
186
  8
0
 62
    43
 10
0.0
 20
0.0
 30
0.0
 70
   128
 71
   120
 72
   119
 73
   118
  0
VERTEX
  5
187
  8
0
 62
    43
 10
0.0
 20
0.0
 30
0.0
 70
   128
 71
   119
 72
   120
 73
   121
  0
VERTEX
  5
188
  8
0
 62
    43
 10
0.0
 20
0.0
 30
0.0
 70
   128
 71
   122
 72
   119
 73
   121
  0
VERTEX
  5
189
  8
0
 62
    43
 10
0.0
 20
0.0
 30
0.0
 70
   128
 71
     6
 72
   123
 73
    42
  0
VERTEX
  5
18A
  8
0
 62
    43
 10
0.0
 20
0.0
 30
0.0
 70
   128
 71
     6
 72
   124
 73
   123
  0
VERTEX
  5
18B
  8
0
 62
    43
 10
0.0
 20
0.0
 30
0.0
 70
   128
 71
     6
 72
   125
 73
   124
  0
VERTEX
  5
18C
  8
0
 62
    43
 10
0.0
 20
0.0
 30
0.0
 70
   128
 71
   125
 72
   127
 73
   126
  0
VERTEX
  5
18D
  8
0
 62
    43
 10
0.0
 20
0.0
 30
0.0
 70
   128
 71
    41
 72
    42
 73
   123
  0
VERTEX
  5
18E
  8
0
 62
    43
 10
0.0
 20
0.0
 30
0.0
 70
   128
 71
   127
 72
   125
 73
   128
  0
VERTEX
  5
18F
  8
0
 62
    43
 10
0.0
 20
0.0
 30
0.0
 70
   128
 71
    41
 72
   129
 73
    40
  0
VERTEX
  5
190
  8
0
 62
    43
 10
0.0
 20
0.0
 30
0.0
 70
   128
 71
   131
 72
   109
 73
   130
  0
VERTEX
  5
191
  8
0
 62
    43
 10
0.0
 20
0.0
 30
0.0
 70
   128
 71
    40
 72
   132
 73
    39
  0
VERTEX
  5
192
  8
0
 62
    43
 10
0.0
 20
0.0
 30
0.0
 70
   128
 71
   133
 72
   132
 73
   129
  0
VERTEX
  5
193
  8
0
 62
    43
 10
0.0
 20
0.0
 30
0.0
 70
   128
 71
   132
 72
    40
 73
   129
  0
VERTEX
  5
194
  8
0
 62
    43
 10
0.0
 20
0.0
 30
0.0
 70
   128
 71
   109
 72
   133
 73
   130
  0
VERTEX
  5
195
  8
0
 62
    43
 10
0.0
 20
0.0
 30
0.0
 70
   128
 71
   123
 72
   129
 73
    41
  0
VERTEX
  5
196
  8
0
 62
    43
 10
0.0
 20
0.0
 30
0.0
 70
   128
 71
   130
 72
   133
 73
   129
  0
VERTEX
  5
197
  8
0
 62
    43
 10
0.0
 20
0.0
 30
0.0
 70
   128
 71
   125
 72
   120
 73
   124
  0
VERTEX
  5
198
  8
0
 62
    43
 10
0.0
 20
0.0
 30
0.0
 70
   128
 71
   124
 72
   118
 73
   131
  0
VERTEX
  5
199
  8
0
 62
    43
 10
0.0
 20
0.0
 30
0.0
 70
   128
 71
   120
 72
   126
 73
   121
  0
VERTEX
  5
19A
  8
0
 62
    43
 10
0.0
 20
0.0
 30
0.0
 70
   128
 71
   126
 72
   120
 73
   125
  0
VERTEX
  5
19B
  8
0
 62
    43
 10
0.0
 20
0.0
 30
0.0
 70
   128
 71
   123
 72
   130
 73
   129
  0
VERTEX
  5
19C
  8
0
 62
    43
 10
0.0
 20
0.0
 30
0.0
 70
   128
 71
   131
 72
   130
 73
   123
  0
VERTEX
  5
19D
  8
0
 62
    43
 10
0.0
 20
0.0
 30
0.0
 70
   128
 71
   120
 72
   118
 73
   124
  0
VERTEX
  5
19E
  8
0
 62
    43
 10
0.0
 20
0.0
 30
0.0
 70
   128
 71
   124
 72
   131
 73
   123
  0
VERTEX
  5
19F
  8
0
 62
    43
 10
0.0
 20
0.0
 30
0.0
 70
   128
 71
   131
 72
   118
 73
   109
  0
VERTEX
  5
1A0
  8
0
 62
    43
 10
0.0
 20
0.0
 30
0.0
 70
   128
 71
   109
 72
   122
 73
   112
  0
VERTEX
  5
1A1
  8
0
 62
    43
 10
0.0
 20
0.0
 30
0.0
 70
   128
 71
   118
 72
   119
 73
   109
  0
VERTEX
  5
1A2
  8
0
 62
    43
 10
0.0
 20
0.0
 30
0.0
 70
   128
 71
   113
 72
   122
 73
   121
  0
VERTEX
  5
1A3
  8
0
 62
    43
 10
0.0
 20
0.0
 30
0.0
 70
   128
 71
   119
 72
   122
 73
   109
  0
VERTEX
  5
1A4
  8
0
 62
    43
 10
0.0
 20
0.0
 30
0.0
 70
   128
 71
   112
 72
   122
 73
   113
  0
VERTEX
  5
1A5
  8
0
 62
    43
 10
0.0
 20
0.0
 30
0.0
 70
   128
 71
   135
 72
   134
 73
    38
  0
VERTEX
  5
1A6
  8
0
 62
    43
 10
0.0
 20
0.0
 30
0.0
 70
   128
 71
   136
 72
    37
 73
   134
  0
VERTEX
  5
1A7
  8
0
 62
    43
 10
0.0
 20
0.0
 30
0.0
 70
   128
 71
   134
 72
    37
 73
    38
  0
VERTEX
  5
1A8
  8
0
 62
    43
 10
0.0
 20
0.0
 30
0.0
 70
   128
 71
   136
 72
    36
 73
    37
  0
VERTEX
  5
1A9
  8
0
 62
    43
 10
0.0
 20
0.0
 30
0.0
 70
   128
 71
    25
 72
    39
 73
   135
  0
VERTEX
  5
1AA
  8
0
 62
    43
 10
0.0
 20
0.0
 30
0.0
 70
   128
 71
   134
 72
   135
 73
   137
  0
VERTEX
  5
1AB
  8
0
 62
    43
 10
0.0
 20
0.0
 30
0.0
 70
   128
 71
   138
 72
    36
 73
   136
  0
VERTEX
  5
1AC
  8
0
 62
    43
 10
0.0
 20
0.0
 30
0.0
 70
   128
 71
    24
 72
    30
 73
   139
  0
VERTEX
  5
1AD
  8
0
 62
    43
 10
0.0
 20
0.0
 30
0.0
 70
   128
 71
   138
 72
    35
 73
    36
  0
VERTEX
  5
1AE
  8
0
 62
    43
 10
0.0
 20
0.0
 30
0.0
 70
   128
 71
   138
 72
    30
 73
    35
  0
VERTEX
  5
1AF
  8
0
 62
    43
 10
0.0
 20
0.0
 30
0.0
 70
   128
 71
   141
 72
   140
 73
   139
  0
VERTEX
  5
1B0
  8
0
 62
    43
 10
0.0
 20
0.0
 30
0.0
 70
   128
 71
    24
 72
   140
 73
    21
  0
VERTEX
  5
1B1
  8
0
 62
    43
 10
0.0
 20
0.0
 30
0.0
 70
   128
 71
   140
 72
    24
 73
   139
  0
VERTEX
  5
1B2
  8
0
 62
    43
 10
0.0
 20
0.0
 30
0.0
 70
   128
 71
   109
 72
   141
 73
   142
  0
VERTEX
  5
1B3
  8
0
 62
    43
 10
0.0
 20
0.0
 30
0.0
 70
   128
 71
   138
 72
   139
 73
    30
  0
VERTEX
  5
1B4
  8
0
 62
    43
 10
0.0
 20
0.0
 30
0.0
 70
   128
 71
   141
 72
   139
 73
   142
  0
VERTEX
  5
1B5
  8
0
 62
    43
 10
0.0
 20
0.0
 30
0.0
 70
   128
 71
   109
 72
   142
 73
   143
  0
VERTEX
  5
1B6
  8
0
 62
    43
 10
0.0
 20
0.0
 30
0.0
 70
   128
 71
   135
 72
    38
 73
    25
  0
VERTEX
  5
1B7
  8
0
 62
    43
 10
0.0
 20
0.0
 30
0.0
 70
   128
 71
   144
 72
   143
 73
   136
  0
VERTEX
  5
1B8
  8
0
 62
    43
 10
0.0
 20
0.0
 30
0.0
 70
   128
 71
   137
 72
   144
 73
   134
  0
VERTEX
  5
1B9
  8
0
 62
    43
 10
0.0
 20
0.0
 30
0.0
 70
   128
 71
   132
 72
   135
 73
    39
  0
VERTEX
  5
1BA
  8
0
 62
    43
 10
0.0
 20
0.0
 30
0.0
 70
   128
 71
   145
 72
   135
 73
   132
  0
VERTEX
  5
1BB
  8
0
 62
    43
 10
0.0
 20
0.0
 30
0.0
 70
   128
 71
   138
 72
   142
 73
   139
  0
VERTEX
  5
1BC
  8
0
 62
    43
 10
0.0
 20
0.0
 30
0.0
 70
   128
 71
   143
 72
   142
 73
   138
  0
VERTEX
  5
1BD
  8
0
 62
    43
 10
0.0
 20
0.0
 30
0.0
 70
   128
 71
   134
 72
   144
 73
   136
  0
VERTEX
  5
1BE
  8
0
 62
    43
 10
0.0
 20
0.0
 30
0.0
 70
   128
 71
   136
 72
   143
 73
   138
  0
VERTEX
  5
1BF
  8
0
 62
    43
 10
0.0
 20
0.0
 30
0.0
 70
   128
 71
   143
 72
   144
 73
   109
  0
VERTEX
  5
1C0
  8
0
 62
    43
 10
0.0
 20
0.0
 30
0.0
 70
   128
 71
   145
 72
   133
 73
   109
  0
VERTEX
  5
1C1
  8
0
 62
    43
 10
0.0
 20
0.0
 30
0.0
 70
   128
 71
   144
 72
   137
 73
   109
  0
VERTEX
  5
1C2
  8
0
 62
    43
 10
0.0
 20
0.0
 30
0.0
 70
   128
 71
   109
 72
   137
 73
   145
  0
VERTEX
  5
1C3
  8
0
 62
    43
 10
0.0
 20
0.0
 30
0.0
 70
   128
 71
   133
 72
   145
 73
   132
  0
VERTEX
  5
1C4
  8
0
 62
    43
 10
0.0
 20
0.0
 30
0.0
 70
   128
 71
   145
 72
   137
 73
   135
  0
VERTEX
  5
1C5
  8
0
 62
    43
 10
0.0
 20
0.0
 30
0.0
 70
   128
 71
   147
 72
   146
 73
   100
  0
VERTEX
  5
1C6
  8
0
 62
    43
 10
0.0
 20
0.0
 30
0.0
 70
   128
 71
   146
 72
    66
 73
    99
  0
VERTEX
  5
1C7
  8
0
 62
    43
 10
0.0
 20
0.0
 30
0.0
 70
   128
 71
   146
 72
    99
 73
   100
  0
VERTEX
  5
1C8
  8
0
 62
    43
 10
0.0
 20
0.0
 30
0.0
 70
   128
 71
    66
 72
   148
 73
    65
  0
VERTEX
  5
1C9
  8
0
 62
    43
 10
0.0
 20
0.0
 30
0.0
 70
   128
 71
    21
 72
   140
 73
    58
  0
VERTEX
  5
1CA
  8
0
 62
    43
 10
0.0
 20
0.0
 30
0.0
 70
   128
 71
   146
 72
   148
 73
    66
  0
VERTEX
  5
1CB
  8
0
 62
    43
 10
0.0
 20
0.0
 30
0.0
 70
   128
 71
   147
 72
   149
 73
   146
  0
VERTEX
  5
1CC
  8
0
 62
    43
 10
0.0
 20
0.0
 30
0.0
 70
   128
 71
   148
 72
   150
 73
    65
  0
VERTEX
  5
1CD
  8
0
 62
    43
 10
0.0
 20
0.0
 30
0.0
 70
   128
 71
   150
 72
    98
 73
    65
  0
VERTEX
  5
1CE
  8
0
 62
    43
 10
0.0
 20
0.0
 30
0.0
 70
   128
 71
   151
 72
    46
 73
   150
  0
VERTEX
  5
1CF
  8
0
 62
    43
 10
0.0
 20
0.0
 30
0.0
 70
   128
 71
    46
 72
    98
 73
   150
  0
VERTEX
  5
1D0
  8
0
 62
    43
 10
0.0
 20
0.0
 30
0.0
 70
   128
 71
    48
 72
   151
 73
   104
  0
VERTEX
  5
1D1
  8
0
 62
    43
 10
0.0
 20
0.0
 30
0.0
 70
   128
 71
   117
 72
   104
 73
   151
  0
VERTEX
  5
1D2
  8
0
 62
    43
 10
0.0
 20
0.0
 30
0.0
 70
   128
 71
    48
 72
   104
 73
    97
  0
VERTEX
  5
1D3
  8
0
 62
    43
 10
0.0
 20
0.0
 30
0.0
 70
   128
 71
    48
 72
    46
 73
   151
  0
VERTEX
  5
1D4
  8
0
 62
    43
 10
0.0
 20
0.0
 30
0.0
 70
   128
 71
   152
 72
   109
 73
   117
  0
VERTEX
  5
1D5
  8
0
 62
    43
 10
0.0
 20
0.0
 30
0.0
 70
   128
 71
   117
 72
   151
 73
   152
  0
VERTEX
  5
1D6
  8
0
 62
    43
 10
0.0
 20
0.0
 30
0.0
 70
   128
 71
   152
 72
   153
 73
   109
  0
VERTEX
  5
1D7
  8
0
 62
    43
 10
0.0
 20
0.0
 30
0.0
 70
   128
 71
   147
 72
   100
 73
    58
  0
VERTEX
  5
1D8
  8
0
 62
    43
 10
0.0
 20
0.0
 30
0.0
 70
   128
 71
   154
 72
   153
 73
   148
  0
VERTEX
  5
1D9
  8
0
 62
    43
 10
0.0
 20
0.0
 30
0.0
 70
   128
 71
   149
 72
   154
 73
   146
  0
VERTEX
  5
1DA
  8
0
 62
    43
 10
0.0
 20
0.0
 30
0.0
 70
   128
 71
   147
 72
    58
 73
   140
  0
VERTEX
  5
1DB
  8
0
 62
    43
 10
0.0
 20
0.0
 30
0.0
 70
   128
 71
   155
 72
   147
 73
   140
  0
VERTEX
  5
1DC
  8
0
 62
    43
 10
0.0
 20
0.0
 30
0.0
 70
   128
 71
   150
 72
   152
 73
   151
  0
VERTEX
  5
1DD
  8
0
 62
    43
 10
0.0
 20
0.0
 30
0.0
 70
   128
 71
   153
 72
   152
 73
   150
  0
VERTEX
  5
1DE
  8
0
 62
    43
 10
0.0
 20
0.0
 30
0.0
 70
   128
 71
   146
 72
   154
 73
   148
  0
VERTEX
  5
1DF
  8
0
 62
    43
 10
0.0
 20
0.0
 30
0.0
 70
   128
 71
   148
 72
   153
 73
   150
  0
VERTEX
  5
1E0
  8
0
 62
    43
 10
0.0
 20
0.0
 30
0.0
 70
   128
 71
   153
 72
   154
 73
   109
  0
VERTEX
  5
1E1
  8
0
 62
    43
 10
0.0
 20
0.0
 30
0.0
 70
   128
 71
   155
 72
   141
 73
   109
  0
VERTEX
  5
1E2
  8
0
 62
    43
 10
0.0
 20
0.0
 30
0.0
 70
   128
 71
   154
 72
   149
 73
   109
  0
VERTEX
  5
1E3
  8
0
 62
    43
 10
0.0
 20
0.0
 30
0.0
 70
   128
 71
   109
 72
   149
 73
   155
  0
VERTEX
  5
1E4
  8
0
 62
    43
 10
0.0
 20
0.0
 30
0.0
 70
   128
 71
   141
 72
   155
 73
   140
  0
VERTEX
  5
1E5
  8
0
 62
    43
 10
0.0
 20
0.0
 30
0.0
 70
   128
 71
   155
 72
   149
 73
   147
  0
VERTEX
  5
1E6
  8
0
 62
    43
 10
0.0
 20
0.0
 30
0.0
 70
   128
 71
   157
 72
   128
 73
   156
  0
VERTEX
  5
1E7
  8
0
 62
    43
 10
0.0
 20
0.0
 30
0.0
 70
   128
 71
     6
 72
   157
 73
   156
  0
VERTEX
  5
1E8
  8
0
 62
    43
 10
0.0
 20
0.0
 30
0.0
 70
   128
 71
   157
 72
   125
 73
   128
  0
VERTEX
  5
1E9
  8
0
 62
    43
 10
0.0
 20
0.0
 30
0.0
 70
   128
 71
   157
 72
     6
 73
   125
  0
VERTEX
  5
1EA
  8
0
 62
    43
 10
0.0
 20
0.0
 30
0.0
 70
   128
 71
   156
 72
   128
 73
   125
  0
VERTEX
  5
1EB
  8
0
 62
    43
 10
0.0
 20
0.0
 30
0.0
 70
   128
 71
   156
 72
   125
 73
     6
  0
SEQEND
  5
1EC
  8
0
 62
    43
  0
ENDBLK
  5
1F0
  8
0
  0
BLOCK
  8
0
  2
M917164
 70
     0
 10
0.0
 20
0.0
 30
0.0
  3
M917164
  1

  0
POLYLINE
  5
1F2
  8
0
 62
    43
 66
     1
 10
0.0
 20
0.0
 30
0.0
 70
    64
 71
    44
 72
    44
  0
VERTEX
  5
1F3
  8
0
 10
119.6687850952148
 20
-2.356071472167969
 30
31.5
 70
   192
  0
VERTEX
  5
1F4
  8
0
 10
119.650764465332
 20
-2.349719047546387
 30
-9.5
 70
   192
  0
VERTEX
  5
1F5
  8
0
 10
120.349235534668
 20
-2.349719047546387
 30
31.5
 70
   192
  0
VERTEX
  5
1F6
  8
0
 10
119.0141906738281
 20
-2.162505865097046
 30
31.5
 70
   192
  0
VERTEX
  5
1F7
  8
0
 10
119.0065383911133
 20
-2.153805255889893
 30
-9.5
 70
   192
  0
VERTEX
  5
1F8
  8
0
 10
118.4412689208984
 20
-1.782894849777222
 30
-9.5
 70
   192
  0
VERTEX
  5
1F9
  8
0
 10
118.4440841674805
 20
-1.804128170013428
 30
31.5
 70
   192
  0
VERTEX
  5
1FA
  8
0
 10
117.9962692260742
 20
-1.299034118652344
 30
31.5
 70
   192
  0
VERTEX
  5
1FB
  8
0
 10
118.0003128051758
 20
-1.268323659896851
 30
-9.5
 70
   192
  0
VERTEX
  5
1FC
  8
0
 10
117.7097091674805
 20
-0.6791779398918152
 30
31.5
 70
   192
  0
VERTEX
  5
1FD
  8
0
 10
117.7239151000977
 20
-0.6700863242149353
 30
-9.5
 70
   192
  0
VERTEX
  5
1FE
  8
0
 10
117.620002746582
 20
0.0
 30
-9.5
 70
   192
  0
VERTEX
  5
1FF
  8
0
 10
117.620002746582
 20
0.0
 30
31.5
 70
   192
  0
VERTEX
  5
200
  8
0
 10
120.3312149047852
 20
-2.356071472167969
 30
-9.5
 70
   192
  0
VERTEX
  5
201
  8
0
 10
120.9934616088867
 20
-2.153805255889893
 30
31.5
 70
   192
  0
VERTEX
  5
202
  8
0
 10
120.9858093261719
 20
-2.162505865097046
 30
-9.5
 70
   192
  0
VERTEX
  5
203
  8
0
 10
121.5559158325195
 20
-1.804128170013428
 30
-9.5
 70
   192
  0
VERTEX
  5
204
  8
0
 10
121.5587310791016
 20
-1.782894849777222
 30
31.5
 70
   192
  0
VERTEX
  5
205
  8
0
 10
122.0037307739258
 20
-1.299034118652344
 30
-9.5
 70
   192
  0
VERTEX
  5
206
  8
0
 10
121.9996871948242
 20
-1.268323659896851
 30
31.5
 70
   192
  0
VERTEX
  5
207
  8
0
 10
122.2760848999023
 20
-0.6700863242149353
 30
31.5
 70
   192
  0
VERTEX
  5
208
  8
0
 10
122.2902908325195
 20
-0.6791779398918152
 30
-9.5
 70
   192
  0
VERTEX
  5
209
  8
0
 10
122.379997253418
 20
0.0000000000000003
 30
31.5
 70
   192
  0
VERTEX
  5
20A
  8
0
 10
122.379997253418
 20
0.0000000000000003
 30
-9.5
 70
   192
  0
VERTEX
  5
20B
  8
0
 10
117.7097091674805
 20
0.6791779398918152
 30
-9.5
 70
   192
  0
VERTEX
  5
20C
  8
0
 10
117.7239151000977
 20
0.6700863242149353
 30
31.5
 70
   192
  0
VERTEX
  5
20D
  8
0
 10
119.6687850952148
 20
2.356071472167969
 30
-9.5
 70
   192
  0
VERTEX
  5
20E
  8
0
 10
119.0141906738281
 20
2.162505865097046
 30
-9.5
 70
   192
  0
VERTEX
  5
20F
  8
0
 10
119.0065383911133
 20
2.153805255889893
 30
31.5
 70
   192
  0
VERTEX
  5
210
  8
0
 10
118.0003128051758
 20
1.268323659896851
 30
31.5
 70
   192
  0
VERTEX
  5
211
  8
0
 10
118.4440841674805
 20
1.804128170013428
 30
-9.5
 70
   192
  0
VERTEX
  5
212
  8
0
 10
117.9962692260742
 20
1.299034118652344
 30
-9.5
 70
   192
  0
VERTEX
  5
213
  8
0
 10
120.9934616088867
 20
2.153805255889893
 30
-9.5
 70
   192
  0
VERTEX
  5
214
  8
0
 10
120.3312149047852
 20
2.356071472167969
 30
31.5
 70
   192
  0
VERTEX
  5
215
  8
0
 10
120.9858093261719
 20
2.162505865097046
 30
31.5
 70
   192
  0
VERTEX
  5
216
  8
0
 10
119.650764465332
 20
2.349719047546387
 30
31.5
 70
   192
  0
VERTEX
  5
217
  8
0
 10
120.349235534668
 20
2.349719047546387
 30
-9.5
 70
   192
  0
VERTEX
  5
218
  8
0
 10
121.9996871948242
 20
1.268323659896851
 30
-9.5
 70
   192
  0
VERTEX
  5
219
  8
0
 10
121.5559158325195
 20
1.804128170013428
 30
31.5
 70
   192
  0
VERTEX
  5
21A
  8
0
 10
122.0037307739258
 20
1.299034118652344
 30
31.5
 70
   192
  0
VERTEX
  5
21B
  8
0
 10
121.5587310791016
 20
1.782894849777222
 30
-9.5
 70
   192
  0
VERTEX
  5
21C
  8
0
 10
122.2902908325195
 20
0.6791779398918152
 30
31.5
 70
   192
  0
VERTEX
  5
21D
  8
0
 10
122.2760848999023
 20
0.6700863242149353
 30
-9.5
 70
   192
  0
VERTEX
  5
21E
  8
0
 10
118.4412689208984
 20
1.782894849777222
 30
31.5
 70
   192
  0
VERTEX
  5
21F
  8
0
 62
    43
 10
0.0
 20
0.0
 30
0.0
 70
   128
 71
     3
 72
     2
 73
     1
  0
VERTEX
  5
220
  8
0
 62
    43
 10
0.0
 20
0.0
 30
0.0
 70
   128
 71
     5
 72
     4
 73
     1
  0
VERTEX
  5
221
  8
0
 62
    43
 10
0.0
 20
0.0
 30
0.0
 70
   128
 71
     1
 72
     2
 73
     5
  0
VERTEX
  5
222
  8
0
 62
    43
 10
0.0
 20
0.0
 30
0.0
 70
   128
 71
     7
 72
     4
 73
     6
  0
VERTEX
  5
223
  8
0
 62
    43
 10
0.0
 20
0.0
 30
0.0
 70
   128
 71
     5
 72
     6
 73
     4
  0
VERTEX
  5
224
  8
0
 62
    43
 10
0.0
 20
0.0
 30
0.0
 70
   128
 71
     7
 72
     9
 73
     8
  0
VERTEX
  5
225
  8
0
 62
    43
 10
0.0
 20
0.0
 30
0.0
 70
   128
 71
     9
 72
     7
 73
     6
  0
VERTEX
  5
226
  8
0
 62
    43
 10
0.0
 20
0.0
 30
0.0
 70
   128
 71
    11
 72
    10
 73
     8
  0
VERTEX
  5
227
  8
0
 62
    43
 10
0.0
 20
0.0
 30
0.0
 70
   128
 71
     8
 72
     9
 73
    11
  0
VERTEX
  5
228
  8
0
 62
    43
 10
0.0
 20
0.0
 30
0.0
 70
   128
 71
    11
 72
    12
 73
    10
  0
VERTEX
  5
229
  8
0
 62
    43
 10
0.0
 20
0.0
 30
0.0
 70
   128
 71
    12
 72
    13
 73
    10
  0
VERTEX
  5
22A
  8
0
 62
    43
 10
0.0
 20
0.0
 30
0.0
 70
   128
 71
    14
 72
     2
 73
     3
  0
VERTEX
  5
22B
  8
0
 62
    43
 10
0.0
 20
0.0
 30
0.0
 70
   128
 71
    16
 72
    14
 73
    15
  0
VERTEX
  5
22C
  8
0
 62
    43
 10
0.0
 20
0.0
 30
0.0
 70
   128
 71
     3
 72
    15
 73
    14
  0
VERTEX
  5
22D
  8
0
 62
    43
 10
0.0
 20
0.0
 30
0.0
 70
   128
 71
    16
 72
    18
 73
    17
  0
VERTEX
  5
22E
  8
0
 62
    43
 10
0.0
 20
0.0
 30
0.0
 70
   128
 71
    18
 72
    16
 73
    15
  0
VERTEX
  5
22F
  8
0
 62
    43
 10
0.0
 20
0.0
 30
0.0
 70
   128
 71
    20
 72
    19
 73
    17
  0
VERTEX
  5
230
  8
0
 62
    43
 10
0.0
 20
0.0
 30
0.0
 70
   128
 71
    17
 72
    18
 73
    20
  0
VERTEX
  5
231
  8
0
 62
    43
 10
0.0
 20
0.0
 30
0.0
 70
   128
 71
    22
 72
    19
 73
    21
  0
VERTEX
  5
232
  8
0
 62
    43
 10
0.0
 20
0.0
 30
0.0
 70
   128
 71
    20
 72
    21
 73
    19
  0
VERTEX
  5
233
  8
0
 62
    43
 10
0.0
 20
0.0
 30
0.0
 70
   128
 71
    23
 72
    22
 73
    21
  0
VERTEX
  5
234
  8
0
 62
    43
 10
0.0
 20
0.0
 30
0.0
 70
   128
 71
    24
 72
    22
 73
    23
  0
VERTEX
  5
235
  8
0
 62
    43
 10
0.0
 20
0.0
 30
0.0
 70
   128
 71
    26
 72
    13
 73
    25
  0
VERTEX
  5
236
  8
0
 62
    43
 10
0.0
 20
0.0
 30
0.0
 70
   128
 71
    29
 72
    28
 73
    27
  0
VERTEX
  5
237
  8
0
 62
    43
 10
0.0
 20
0.0
 30
0.0
 70
   128
 71
    32
 72
    31
 73
    30
  0
VERTEX
  5
238
  8
0
 62
    43
 10
0.0
 20
0.0
 30
0.0
 70
   128
 71
    35
 72
    34
 73
    33
  0
VERTEX
  5
239
  8
0
 62
    43
 10
0.0
 20
0.0
 30
0.0
 70
   128
 71
    37
 72
    34
 73
    36
  0
VERTEX
  5
23A
  8
0
 62
    43
 10
0.0
 20
0.0
 30
0.0
 70
   128
 71
    40
 72
    39
 73
    38
  0
VERTEX
  5
23B
  8
0
 62
    43
 10
0.0
 20
0.0
 30
0.0
 70
   128
 71
    41
 72
    38
 73
    39
  0
VERTEX
  5
23C
  8
0
 62
    43
 10
0.0
 20
0.0
 30
0.0
 70
   128
 71
    40
 72
    43
 73
    42
  0
VERTEX
  5
23D
  8
0
 62
    43
 10
0.0
 20
0.0
 30
0.0
 70
   128
 71
    43
 72
    40
 73
    38
  0
VERTEX
  5
23E
  8
0
 62
    43
 10
0.0
 20
0.0
 30
0.0
 70
   128
 71
    24
 72
    23
 73
    42
  0
VERTEX
  5
23F
  8
0
 62
    43
 10
0.0
 20
0.0
 30
0.0
 70
   128
 71
    42
 72
    43
 73
    24
  0
VERTEX
  5
240
  8
0
 62
    43
 10
0.0
 20
0.0
 30
0.0
 70
   128
 71
    41
 72
    35
 73
    33
  0
VERTEX
  5
241
  8
0
 62
    43
 10
0.0
 20
0.0
 30
0.0
 70
   128
 71
    41
 72
    39
 73
    35
  0
VERTEX
  5
242
  8
0
 62
    43
 10
0.0
 20
0.0
 30
0.0
 70
   128
 71
    27
 72
    37
 73
    36
  0
VERTEX
  5
243
  8
0
 62
    43
 10
0.0
 20
0.0
 30
0.0
 70
   128
 71
    33
 72
    34
 73
    37
  0
VERTEX
  5
244
  8
0
 62
    43
 10
0.0
 20
0.0
 30
0.0
 70
   128
 71
    29
 72
    44
 73
    28
  0
VERTEX
  5
245
  8
0
 62
    43
 10
0.0
 20
0.0
 30
0.0
 70
   128
 71
    36
 72
    29
 73
    27
  0
VERTEX
  5
246
  8
0
 62
    43
 10
0.0
 20
0.0
 30
0.0
 70
   128
 71
    31
 72
    44
 73
    30
  0
VERTEX
  5
247
  8
0
 62
    43
 10
0.0
 20
0.0
 30
0.0
 70
   128
 71
    44
 72
    31
 73
    28
  0
VERTEX
  5
248
  8
0
 62
    43
 10
0.0
 20
0.0
 30
0.0
 70
   128
 71
    25
 72
    32
 73
    26
  0
VERTEX
  5
249
  8
0
 62
    43
 10
0.0
 20
0.0
 30
0.0
 70
   128
 71
    26
 72
    32
 73
    30
  0
VERTEX
  5
24A
  8
0
 62
    43
 10
0.0
 20
0.0
 30
0.0
 70
   128
 71
    12
 72
    25
 73
    13
  0
SEQEND
  5
24B
  8
0
 62
    43
  0
ENDBLK
  5
24E
  8
0
  0
BLOCK
  8
0
  2
M909991
 70
     0
 10
0.0
 20
0.0
 30
0.0
  3
M909991
  1

  0
POLYLINE
  5
250
  8
0
 62
    43
 66
     1
 10
0.0
 20
0.0
 30
0.0
 70
    64
 71
   272
 72
   536
  0
VERTEX
  5
251
  8
0
 10
121.8652038574219
 20
7.113069534301758
 30
41.85355377197266
 70
   192
  0
VERTEX
  5
252
  8
0
 10
120.0541687011719
 20
6.999790191650391
 30
42.0
 70
   192
  0
VERTEX
  5
253
  8
0
 10
121.8974685668945
 20
6.732742786407471
 30
42.0
 70
   192
  0
VERTEX
  5
254
  8
0
 10
127.161491394043
 20
-1.669662117958069
 30
41.85355377197266
 70
   192
  0
VERTEX
  5
255
  8
0
 10
126.7494125366211
 20
-1.855277538299561
 30
42.0
 70
   192
  0
VERTEX
  5
256
  8
0
 10
125.8485260009766
 20
-4.457522869110107
 30
41.85355377197266
 70
   192
  0
VERTEX
  5
257
  8
0
 10
127.0034637451172
 20
-2.661671161651611
 30
41.5
 70
   192
  0
VERTEX
  5
258
  8
0
 10
127.4329299926758
 20
-0.9162677526473999
 30
41.5
 70
   192
  0
VERTEX
  5
259
  8
0
 10
123.4722061157227
 20
-6.069719314575195
 30
42.0
 70
   192
  0
VERTEX
  5
25A
  8
0
 10
123.8364639282227
 20
-6.273458480834961
 30
41.85355377197266
 70
   192
  0
VERTEX
  5
25B
  8
0
 10
124.9277801513672
 20
-4.968751907348633
 30
42.0
 70
   192
  0
VERTEX
  5
25C
  8
0
 10
124.9803314208984
 20
-5.633180618286133
 30
41.5
 70
   192
  0
VERTEX
  5
25D
  8
0
 10
123.5048675537109
 20
-6.656243801116943
 30
41.5
 70
   192
  0
VERTEX
  5
25E
  8
0
 10
126.174186706543
 20
-4.269228935241699
 30
41.5
 70
   192
  0
VERTEX
  5
25F
  8
0
 10
121.8089752197266
 20
-7.298516273498535
 30
41.5
 70
   192
  0
VERTEX
  5
260
  8
0
 10
121.7548980712891
 20
-7.141083717346191
 30
41.85355377197266
 70
   192
  0
VERTEX
  5
261
  8
0
 10
119.9458312988281
 20
-6.999790191650391
 30
42.0
 70
   192
  0
VERTEX
  5
262
  8
0
 10
119.9430999755859
 20
-7.353332996368408
 30
41.85355377197266
 70
   192
  0
VERTEX
  5
263
  8
0
 10
121.7930450439453
 20
-6.76130199432373
 30
42.0
 70
   192
  0
VERTEX
  5
264
  8
0
 10
120.0
 20
-7.5
 30
41.5
 70
   192
  0
VERTEX
  5
265
  8
0
 10
127.1864776611328
 20
1.558630466461182
 30
41.85355377197266
 70
   192
  0
VERTEX
  5
266
  8
0
 10
126.9935607910156
 20
-0.0155916614457965
 30
42.0
 70
   192
  0
VERTEX
  5
267
  8
0
 10
127.4443054199219
 20
0.8859480023384094
 30
41.5
 70
   192
  0
VERTEX
  5
268
  8
0
 10
126.9983062744141
 20
2.64810848236084
 30
41.5
 70
   192
  0
VERTEX
  5
269
  8
0
 10
125.9168090820312
 20
4.366477012634277
 30
41.85355377197266
 70
   192
  0
VERTEX
  5
26A
  8
0
 10
126.1552581787109
 20
4.236846446990967
 30
41.5
 70
   192
  0
VERTEX
  5
26B
  8
0
 10
124.9740600585938
 20
5.575650691986084
 30
41.5
 70
   192
  0
VERTEX
  5
26C
  8
0
 10
123.9330978393555
 20
6.213333606719971
 30
41.85355377197266
 70
   192
  0
VERTEX
  5
26D
  8
0
 10
124.9592132568359
 20
4.92835521697998
 30
42.0
 70
   192
  0
VERTEX
  5
26E
  8
0
 10
123.49072265625
 20
6.60922384262085
 30
41.5
 70
   192
  0
VERTEX
  5
26F
  8
0
 10
120.0569000244141
 20
7.353332996368408
 30
41.85355377197266
 70
   192
  0
VERTEX
  5
270
  8
0
 10
121.8484878540039
 20
7.252705097198486
 30
41.5
 70
   192
  0
VERTEX
  5
271
  8
0
 10
120.0580368041992
 20
7.499775409698486
 30
41.5
 70
   192
  0
VERTEX
  5
272
  8
0
 10
123.5324859619141
 20
6.042264461517334
 30
42.0
 70
   192
  0
VERTEX
  5
273
  8
0
 10
126.0712738037109
 20
3.477442502975464
 30
42.0
 70
   192
  0
VERTEX
  5
274
  8
0
 10
126.7672805786133
 20
1.771901845932007
 30
42.0
 70
   192
  0
VERTEX
  5
275
  8
0
 10
126.0468826293945
 20
-3.509478569030762
 30
42.0
 70
   192
  0
VERTEX
  5
276
  8
0
 10
127.4343795776367
 20
-0.9076504707336426
 30
26.5
 70
   192
  0
VERTEX
  5
277
  8
0
 10
120.0
 20
7.5
 30
26.5
 70
   192
  0
VERTEX
  5
278
  8
0
 10
121.8317337036133
 20
7.256823539733887
 30
26.5
 70
   192
  0
VERTEX
  5
279
  8
0
 10
127.0063705444336
 20
-2.654961347579956
 30
26.5
 70
   192
  0
VERTEX
  5
27A
  8
0
 10
126.1767349243164
 20
-4.263984203338623
 30
26.5
 70
   192
  0
VERTEX
  5
27B
  8
0
 10
124.9833755493164
 20
-5.629831314086914
 30
26.5
 70
   192
  0
VERTEX
  5
27C
  8
0
 10
123.5075378417969
 20
-6.654594898223877
 30
26.5
 70
   192
  0
VERTEX
  5
27D
  8
0
 10
121.8105163574219
 20
-7.298124313354492
 30
26.5
 70
   192
  0
VERTEX
  5
27E
  8
0
 10
120.0
 20
-7.5
 30
26.5
 70
   192
  0
VERTEX
  5
27F
  8
0
 10
127.4423904418945
 20
0.8965800404548645
 30
26.5
 70
   192
  0
VERTEX
  5
280
  8
0
 10
126.9930038452148
 20
2.658942937850952
 30
26.5
 70
   192
  0
VERTEX
  5
281
  8
0
 10
126.1469192504883
 20
4.247182846069336
 30
26.5
 70
   192
  0
VERTEX
  5
282
  8
0
 10
124.962890625
 20
5.584818363189697
 30
26.5
 70
   192
  0
VERTEX
  5
283
  8
0
 10
123.4765167236328
 20
6.616354942321777
 30
26.5
 70
   192
  0
VERTEX
  5
284
  8
0
 10
118.2272491455078
 20
7.136673450469971
 30
26.14644622802734
 70
   192
  0
VERTEX
  5
285
  8
0
 10
116.1478576660156
 20
6.263845920562744
 30
26.14644622802734
 70
   192
  0
VERTEX
  5
286
  8
0
 10
118.206298828125
 20
7.266318321228027
 30
26.5
 70
   192
  0
VERTEX
  5
287
  8
0
 10
114.9872055053711
 20
-5.603652000427246
 30
26.5
 70
   192
  0
VERTEX
  5
288
  8
0
 10
114.0941314697266
 20
-4.381258487701416
 30
26.14644622802734
 70
   192
  0
VERTEX
  5
289
  8
0
 10
116.0824508666992
 20
-6.223149299621582
 30
26.14644622802734
 70
   192
  0
VERTEX
  5
28A
  8
0
 10
120.0366668701172
 20
6.999904155731201
 30
26.0
 70
   192
  0
VERTEX
  5
28B
  8
0
 10
118.190055847168
 20
6.756797313690186
 30
26.0
 70
   192
  0
VERTEX
  5
28C
  8
0
 10
120.0385131835938
 20
7.353452682495117
 30
26.14644622802734
 70
   192
  0
VERTEX
  5
28D
  8
0
 10
113.9443588256836
 20
3.494347333908081
 30
26.0
 70
   192
  0
VERTEX
  5
28E
  8
0
 10
113.245964050293
 20
1.83839476108551
 30
26.0
 70
   192
  0
VERTEX
  5
28F
  8
0
 10
114.1403503417969
 20
4.44288444519043
 30
26.14644622802734
 70
   192
  0
VERTEX
  5
290
  8
0
 10
116.5126266479492
 20
6.061017990112305
 30
26.0
 70
   192
  0
VERTEX
  5
291
  8
0
 10
113.9374389648438
 20
-3.492613077163696
 30
26.0
 70
   192
  0
VERTEX
  5
292
  8
0
 10
112.8174438476562
 20
-1.576595544815063
 30
26.14644622802734
 70
   192
  0
VERTEX
  5
293
  8
0
 10
113.2371673583984
 20
-1.788818001747131
 30
26.0
 70
   192
  0
VERTEX
  5
294
  8
0
 10
113.0064239501953
 20
-0.0018958916189149
 30
26.0
 70
   192
  0
VERTEX
  5
295
  8
0
 10
112.834358215332
 20
1.651749491691589
 30
26.14644622802734
 70
   192
  0
VERTEX
  5
296
  8
0
 10
116.4826354980469
 20
-6.051078796386719
 30
26.0
 70
   192
  0
VERTEX
  5
297
  8
0
 10
115.0531311035156
 20
-4.940740585327148
 30
26.0
 70
   192
  0
VERTEX
  5
298
  8
0
 10
112.9798202514648
 20
-2.618227005004883
 30
26.5
 70
   192
  0
VERTEX
  5
299
  8
0
 10
112.5609664916992
 20
-0.8686981797218323
 30
26.5
 70
   192
  0
VERTEX
  5
29A
  8
0
 10
118.152587890625
 20
-7.117711544036865
 30
26.14644622802734
 70
   192
  0
VERTEX
  5
29B
  8
0
 10
118.1512832641602
 20
-7.288540840148926
 30
26.5
 70
   192
  0
VERTEX
  5
29C
  8
0
 10
116.4576568603516
 20
-6.636131763458252
 30
26.5
 70
   192
  0
VERTEX
  5
29D
  8
0
 10
118.1193695068359
 20
-6.737466335296631
 30
26.0
 70
   192
  0
VERTEX
  5
29E
  8
0
 10
119.9614868164062
 20
-7.353452682495117
 30
26.14644622802734
 70
   192
  0
VERTEX
  5
29F
  8
0
 10
119.9633331298828
 20
-6.999904155731201
 30
26.0
 70
   192
  0
VERTEX
  5
2A0
  8
0
 10
112.5624084472656
 20
0.9355494976043701
 30
26.5
 70
   192
  0
VERTEX
  5
2A1
  8
0
 10
113.0210189819336
 20
2.695534467697144
 30
26.5
 70
   192
  0
VERTEX
  5
2A2
  8
0
 10
113.8754119873047
 20
4.27932071685791
 30
26.5
 70
   192
  0
VERTEX
  5
2A3
  8
0
 10
115.0598068237305
 20
4.956414222717285
 30
26.0
 70
   192
  0
VERTEX
  5
2A4
  8
0
 10
113.8010177612305
 20
-4.231573104858398
 30
26.5
 70
   192
  0
VERTEX
  5
2A5
  8
0
 10
115.0664291381836
 20
5.61073637008667
 30
26.5
 70
   192
  0
VERTEX
  5
2A6
  8
0
 10
116.5581893920898
 20
6.634473323822021
 30
26.5
 70
   192
  0
VERTEX
  5
2A7
  8
0
 10
118.1374359130859
 20
-6.731865406036377
 30
42.0
 70
   192
  0
VERTEX
  5
2A8
  8
0
 10
115.04931640625
 20
-4.909968852996826
 30
42.0
 70
   192
  0
VERTEX
  5
2A9
  8
0
 10
116.4926528930664
 20
-6.027756690979004
 30
42.0
 70
   192
  0
VERTEX
  5
2AA
  8
0
 10
113.9360198974609
 20
-3.455017566680908
 30
42.0
 70
   192
  0
VERTEX
  5
2AB
  8
0
 10
113.2430953979492
 20
-1.779441595077515
 30
42.0
 70
   192
  0
VERTEX
  5
2AC
  8
0
 10
118.2250823974609
 20
6.79148530960083
 30
42.0
 70
   192
  0
VERTEX
  5
2AD
  8
0
 10
113.0064086914062
 20
0.0318209789693356
 30
42.0
 70
   192
  0
VERTEX
  5
2AE
  8
0
 10
116.5208511352539
 20
6.099141120910645
 30
42.0
 70
   192
  0
VERTEX
  5
2AF
  8
0
 10
113.9623413085938
 20
3.547810316085815
 30
42.0
 70
   192
  0
VERTEX
  5
2B0
  8
0
 10
113.258659362793
 20
1.852951407432556
 30
42.0
 70
   192
  0
VERTEX
  5
2B1
  8
0
 10
115.0692367553711
 20
4.986177921295166
 30
42.0
 70
   192
  0
VERTEX
  5
2B2
  8
0
 10
116.0669021606445
 20
-6.213333606719971
 30
41.85355377197266
 70
   192
  0
VERTEX
  5
2B3
  8
0
 10
114.0831909179688
 20
-4.366477012634277
 30
41.85355377197266
 70
   192
  0
VERTEX
  5
2B4
  8
0
 10
112.5556945800781
 20
-0.8859480023384094
 30
41.5
 70
   192
  0
VERTEX
  5
2B5
  8
0
 10
113.0016937255859
 20
-2.64810848236084
 30
41.5
 70
   192
  0
VERTEX
  5
2B6
  8
0
 10
112.8135223388672
 20
-1.558630466461182
 30
41.85355377197266
 70
   192
  0
VERTEX
  5
2B7
  8
0
 10
118.1347961425781
 20
-7.113069534301758
 30
41.85355377197266
 70
   192
  0
VERTEX
  5
2B8
  8
0
 10
116.50927734375
 20
-6.60922384262085
 30
41.5
 70
   192
  0
VERTEX
  5
2B9
  8
0
 10
113.825813293457
 20
4.269228935241699
 30
41.5
 70
   192
  0
VERTEX
  5
2BA
  8
0
 10
112.9965362548828
 20
2.661671161651611
 30
41.5
 70
   192
  0
VERTEX
  5
2BB
  8
0
 10
112.838508605957
 20
1.669662117958069
 30
41.85355377197266
 70
   192
  0
VERTEX
  5
2BC
  8
0
 10
112.5670700073242
 20
0.9162677526473999
 30
41.5
 70
   192
  0
VERTEX
  5
2BD
  8
0
 10
115.0196685791016
 20
5.633180618286133
 30
41.5
 70
   192
  0
VERTEX
  5
2BE
  8
0
 10
114.1514739990234
 20
4.457522869110107
 30
41.85355377197266
 70
   192
  0
VERTEX
  5
2BF
  8
0
 10
116.1635360717773
 20
6.273458480834961
 30
41.85355377197266
 70
   192
  0
VERTEX
  5
2C0
  8
0
 10
118.2451019287109
 20
7.141083717346191
 30
41.85355377197266
 70
   192
  0
VERTEX
  5
2C1
  8
0
 10
116.4951324462891
 20
6.656243801116943
 30
41.5
 70
   192
  0
VERTEX
  5
2C2
  8
0
 10
118.1910247802734
 20
7.298516273498535
 30
41.5
 70
   192
  0
VERTEX
  5
2C3
  8
0
 10
115.0259399414062
 20
-5.575650691986084
 30
41.5
 70
   192
  0
VERTEX
  5
2C4
  8
0
 10
113.8447418212891
 20
-4.236846446990967
 30
41.5
 70
   192
  0
VERTEX
  5
2C5
  8
0
 10
118.1515121459961
 20
-7.252705097198486
 30
41.5
 70
   192
  0
VERTEX
  5
2C6
  8
0
 10
123.9175491333008
 20
6.223149299621582
 30
26.14644622802734
 70
   192
  0
VERTEX
  5
2C7
  8
0
 10
121.8778686523438
 20
6.739113807678223
 30
26.0
 70
   192
  0
VERTEX
  5
2C8
  8
0
 10
121.847412109375
 20
7.117711544036865
 30
26.14644622802734
 70
   192
  0
VERTEX
  5
2C9
  8
0
 10
125.9058685302734
 20
4.381258487701416
 30
26.14644622802734
 70
   192
  0
VERTEX
  5
2CA
  8
0
 10
127.1825561523438
 20
1.576595544815063
 30
26.14644622802734
 70
   192
  0
VERTEX
  5
2CB
  8
0
 10
126.0655364990234
 20
3.490107297897339
 30
26.0
 70
   192
  0
VERTEX
  5
2CC
  8
0
 10
127.165641784668
 20
-1.651749491691589
 30
26.14644622802734
 70
   192
  0
VERTEX
  5
2CD
  8
0
 10
125.8596496582031
 20
-4.44288444519043
 30
26.14644622802734
 70
   192
  0
VERTEX
  5
2CE
  8
0
 10
124.9430389404297
 20
-4.952147960662842
 30
26.0
 70
   192
  0
VERTEX
  5
2CF
  8
0
 10
123.8521423339844
 20
-6.263845920562744
 30
26.14644622802734
 70
   192
  0
VERTEX
  5
2D0
  8
0
 10
123.4863204956055
 20
-6.060347557067871
 30
26.0
 70
   192
  0
VERTEX
  5
2D1
  8
0
 10
126.752815246582
 20
-1.844570636749268
 30
26.0
 70
   192
  0
VERTEX
  5
2D2
  8
0
 10
126.0568771362305
 20
-3.496152400970459
 30
26.0
 70
   192
  0
VERTEX
  5
2D3
  8
0
 10
121.7727508544922
 20
-7.136673450469971
 30
26.14644622802734
 70
   192
  0
VERTEX
  5
2D4
  8
0
 10
121.8071746826172
 20
-6.758415699005127
 30
26.0
 70
   192
  0
VERTEX
  5
2D5
  8
0
 10
123.5149230957031
 20
6.052009582519531
 30
26.0
 70
   192
  0
VERTEX
  5
2D6
  8
0
 10
124.9478149414062
 20
4.938591480255127
 30
26.0
 70
   192
  0
VERTEX
  5
2D7
  8
0
 10
126.9916000366211
 20
0.0047448398545384
 30
26.0
 70
   192
  0
VERTEX
  5
2D8
  8
0
 10
126.7622680664062
 20
1.793529033660889
 30
26.0
 70
   192
  0
VERTEX
  5
2D9
  8
0
 10
121.8652038574219
 20
7.113069534301758
 30
41.85355377197266
 70
   192
  0
VERTEX
  5
2DA
  8
0
 10
120.0541687011719
 20
6.999790191650391
 30
42.0
 70
   192
  0
VERTEX
  5
2DB
  8
0
 10
121.8974685668945
 20
6.732742786407471
 30
42.0
 70
   192
  0
VERTEX
  5
2DC
  8
0
 10
127.161491394043
 20
-1.669662117958069
 30
41.85355377197266
 70
   192
  0
VERTEX
  5
2DD
  8
0
 10
126.7494125366211
 20
-1.855277538299561
 30
42.0
 70
   192
  0
VERTEX
  5
2DE
  8
0
 10
125.8485260009766
 20
-4.457522869110107
 30
41.85355377197266
 70
   192
  0
VERTEX
  5
2DF
  8
0
 10
127.0034637451172
 20
-2.661671161651611
 30
41.5
 70
   192
  0
VERTEX
  5
2E0
  8
0
 10
127.4329299926758
 20
-0.9162677526473999
 30
41.5
 70
   192
  0
VERTEX
  5
2E1
  8
0
 10
123.4722061157227
 20
-6.069719314575195
 30
42.0
 70
   192
  0
VERTEX
  5
2E2
  8
0
 10
123.8364639282227
 20
-6.273458480834961
 30
41.85355377197266
 70
   192
  0
VERTEX
  5
2E3
  8
0
 10
124.9277801513672
 20
-4.968751907348633
 30
42.0
 70
   192
  0
VERTEX
  5
2E4
  8
0
 10
124.9803314208984
 20
-5.633180618286133
 30
41.5
 70
   192
  0
VERTEX
  5
2E5
  8
0
 10
123.5048675537109
 20
-6.656243801116943
 30
41.5
 70
   192
  0
VERTEX
  5
2E6
  8
0
 10
126.174186706543
 20
-4.269228935241699
 30
41.5
 70
   192
  0
VERTEX
  5
2E7
  8
0
 10
121.8089752197266
 20
-7.298516273498535
 30
41.5
 70
   192
  0
VERTEX
  5
2E8
  8
0
 10
121.7548980712891
 20
-7.141083717346191
 30
41.85355377197266
 70
   192
  0
VERTEX
  5
2E9
  8
0
 10
119.9458312988281
 20
-6.999790191650391
 30
42.0
 70
   192
  0
VERTEX
  5
2EA
  8
0
 10
119.9430999755859
 20
-7.353332996368408
 30
41.85355377197266
 70
   192
  0
VERTEX
  5
2EB
  8
0
 10
121.7930450439453
 20
-6.76130199432373
 30
42.0
 70
   192
  0
VERTEX
  5
2EC
  8
0
 10
120.0
 20
-7.5
 30
41.5
 70
   192
  0
VERTEX
  5
2ED
  8
0
 10
127.1864776611328
 20
1.558630466461182
 30
41.85355377197266
 70
   192
  0
VERTEX
  5
2EE
  8
0
 10
126.9935607910156
 20
-0.0155916614457965
 30
42.0
 70
   192
  0
VERTEX
  5
2EF
  8
0
 10
127.4443054199219
 20
0.8859480023384094
 30
41.5
 70
   192
  0
VERTEX
  5
2F0
  8
0
 10
126.9983062744141
 20
2.64810848236084
 30
41.5
 70
   192
  0
VERTEX
  5
2F1
  8
0
 10
125.9168090820312
 20
4.366477012634277
 30
41.85355377197266
 70
   192
  0
VERTEX
  5
2F2
  8
0
 10
126.1552581787109
 20
4.236846446990967
 30
41.5
 70
   192
  0
VERTEX
  5
2F3
  8
0
 10
124.9740600585938
 20
5.575650691986084
 30
41.5
 70
   192
  0
VERTEX
  5
2F4
  8
0
 10
123.9330978393555
 20
6.213333606719971
 30
41.85355377197266
 70
   192
  0
VERTEX
  5
2F5
  8
0
 10
124.9592132568359
 20
4.92835521697998
 30
42.0
 70
   192
  0
VERTEX
  5
2F6
  8
0
 10
123.49072265625
 20
6.60922384262085
 30
41.5
 70
   192
  0
VERTEX
  5
2F7
  8
0
 10
120.0569000244141
 20
7.353332996368408
 30
41.85355377197266
 70
   192
  0
VERTEX
  5
2F8
  8
0
 10
121.8484878540039
 20
7.252705097198486
 30
41.5
 70
   192
  0
VERTEX
  5
2F9
  8
0
 10
120.0580368041992
 20
7.499775409698486
 30
41.5
 70
   192
  0
VERTEX
  5
2FA
  8
0
 10
123.5324859619141
 20
6.042264461517334
 30
42.0
 70
   192
  0
VERTEX
  5
2FB
  8
0
 10
126.0712738037109
 20
3.477442502975464
 30
42.0
 70
   192
  0
VERTEX
  5
2FC
  8
0
 10
126.7672805786133
 20
1.771901845932007
 30
42.0
 70
   192
  0
VERTEX
  5
2FD
  8
0
 10
126.0468826293945
 20
-3.509478569030762
 30
42.0
 70
   192
  0
VERTEX
  5
2FE
  8
0
 10
127.4343795776367
 20
-0.9076504707336426
 30
26.5
 70
   192
  0
VERTEX
  5
2FF
  8
0
 10
120.0
 20
7.5
 30
26.5
 70
   192
  0
VERTEX
  5
300
  8
0
 10
121.8317337036133
 20
7.256823539733887
 30
26.5
 70
   192
  0
VERTEX
  5
301
  8
0
 10
127.0063705444336
 20
-2.654961347579956
 30
26.5
 70
   192
  0
VERTEX
  5
302
  8
0
 10
126.1767349243164
 20
-4.263984203338623
 30
26.5
 70
   192
  0
VERTEX
  5
303
  8
0
 10
124.9833755493164
 20
-5.629831314086914
 30
26.5
 70
   192
  0
VERTEX
  5
304
  8
0
 10
123.5075378417969
 20
-6.654594898223877
 30
26.5
 70
   192
  0
VERTEX
  5
305
  8
0
 10
121.8105163574219
 20
-7.298124313354492
 30
26.5
 70
   192
  0
VERTEX
  5
306
  8
0
 10
120.0
 20
-7.5
 30
26.5
 70
   192
  0
VERTEX
  5
307
  8
0
 10
127.4423904418945
 20
0.8965800404548645
 30
26.5
 70
   192
  0
VERTEX
  5
308
  8
0
 10
126.9930038452148
 20
2.658942937850952
 30
26.5
 70
   192
  0
VERTEX
  5
309
  8
0
 10
126.1469192504883
 20
4.247182846069336
 30
26.5
 70
   192
  0
VERTEX
  5
30A
  8
0
 10
124.962890625
 20
5.584818363189697
 30
26.5
 70
   192
  0
VERTEX
  5
30B
  8
0
 10
123.4765167236328
 20
6.616354942321777
 30
26.5
 70
   192
  0
VERTEX
  5
30C
  8
0
 10
118.2272491455078
 20
7.136673450469971
 30
26.14644622802734
 70
   192
  0
VERTEX
  5
30D
  8
0
 10
116.1478576660156
 20
6.263845920562744
 30
26.14644622802734
 70
   192
  0
VERTEX
  5
30E
  8
0
 10
118.206298828125
 20
7.266318321228027
 30
26.5
 70
   192
  0
VERTEX
  5
30F
  8
0
 10
114.9872055053711
 20
-5.603652000427246
 30
26.5
 70
   192
  0
VERTEX
  5
310
  8
0
 10
114.0941314697266
 20
-4.381258487701416
 30
26.14644622802734
 70
   192
  0
VERTEX
  5
311
  8
0
 10
116.0824508666992
 20
-6.223149299621582
 30
26.14644622802734
 70
   192
  0
VERTEX
  5
312
  8
0
 10
120.0366668701172
 20
6.999904155731201
 30
26.0
 70
   192
  0
VERTEX
  5
313
  8
0
 10
118.190055847168
 20
6.756797313690186
 30
26.0
 70
   192
  0
VERTEX
  5
314
  8
0
 10
120.0385131835938
 20
7.353452682495117
 30
26.14644622802734
 70
   192
  0
VERTEX
  5
315
  8
0
 10
113.9443588256836
 20
3.494347333908081
 30
26.0
 70
   192
  0
VERTEX
  5
316
  8
0
 10
113.245964050293
 20
1.83839476108551
 30
26.0
 70
   192
  0
VERTEX
  5
317
  8
0
 10
114.1403503417969
 20
4.44288444519043
 30
26.14644622802734
 70
   192
  0
VERTEX
  5
318
  8
0
 10
116.5126266479492
 20
6.061017990112305
 30
26.0
 70
   192
  0
VERTEX
  5
319
  8
0
 10
113.9374389648438
 20
-3.492613077163696
 30
26.0
 70
   192
  0
VERTEX
  5
31A
  8
0
 10
112.8174438476562
 20
-1.576595544815063
 30
26.14644622802734
 70
   192
  0
VERTEX
  5
31B
  8
0
 10
113.2371673583984
 20
-1.788818001747131
 30
26.0
 70
   192
  0
VERTEX
  5
31C
  8
0
 10
113.0064239501953
 20
-0.0018958916189149
 30
26.0
 70
   192
  0
VERTEX
  5
31D
  8
0
 10
112.834358215332
 20
1.651749491691589
 30
26.14644622802734
 70
   192
  0
VERTEX
  5
31E
  8
0
 10
116.4826354980469
 20
-6.051078796386719
 30
26.0
 70
   192
  0
VERTEX
  5
31F
  8
0
 10
115.0531311035156
 20
-4.940740585327148
 30
26.0
 70
   192
  0
VERTEX
  5
320
  8
0
 10
112.9798202514648
 20
-2.618227005004883
 30
26.5
 70
   192
  0
VERTEX
  5
321
  8
0
 10
112.5609664916992
 20
-0.8686981797218323
 30
26.5
 70
   192
  0
VERTEX
  5
322
  8
0
 10
118.152587890625
 20
-7.117711544036865
 30
26.14644622802734
 70
   192
  0
VERTEX
  5
323
  8
0
 10
118.1512832641602
 20
-7.288540840148926
 30
26.5
 70
   192
  0
VERTEX
  5
324
  8
0
 10
116.4576568603516
 20
-6.636131763458252
 30
26.5
 70
   192
  0
VERTEX
  5
325
  8
0
 10
118.1193695068359
 20
-6.737466335296631
 30
26.0
 70
   192
  0
VERTEX
  5
326
  8
0
 10
119.9614868164062
 20
-7.353452682495117
 30
26.14644622802734
 70
   192
  0
VERTEX
  5
327
  8
0
 10
119.9633331298828
 20
-6.999904155731201
 30
26.0
 70
   192
  0
VERTEX
  5
328
  8
0
 10
112.5624084472656
 20
0.9355494976043701
 30
26.5
 70
   192
  0
VERTEX
  5
329
  8
0
 10
113.0210189819336
 20
2.695534467697144
 30
26.5
 70
   192
  0
VERTEX
  5
32A
  8
0
 10
113.8754119873047
 20
4.27932071685791
 30
26.5
 70
   192
  0
VERTEX
  5
32B
  8
0
 10
115.0598068237305
 20
4.956414222717285
 30
26.0
 70
   192
  0
VERTEX
  5
32C
  8
0
 10
113.8010177612305
 20
-4.231573104858398
 30
26.5
 70
   192
  0
VERTEX
  5
32D
  8
0
 10
115.0664291381836
 20
5.61073637008667
 30
26.5
 70
   192
  0
VERTEX
  5
32E
  8
0
 10
116.5581893920898
 20
6.634473323822021
 30
26.5
 70
   192
  0
VERTEX
  5
32F
  8
0
 10
124.9950485229492
 20
4.921777725219727
 30
26.0
 70
   192
  0
VERTEX
  5
330
  8
0
 10
121.8628921508789
 20
6.767882347106934
 30
26.0
 70
   192
  0
VERTEX
  5
331
  8
0
 10
123.5579986572266
 20
6.053482532501221
 30
26.0
 70
   192
  0
VERTEX
  5
332
  8
0
 10
126.0186386108398
 20
-3.533411741256714
 30
26.0
 70
   192
  0
VERTEX
  5
333
  8
0
 10
123.4288330078125
 20
-6.072759628295898
 30
26.0
 70
   192
  0
VERTEX
  5
334
  8
0
 10
126.9934158325195
 20
-0.0589291378855705
 30
26.0
 70
   192
  0
VERTEX
  5
335
  8
0
 10
126.0831909179688
 20
3.469168186187744
 30
26.0
 70
   192
  0
VERTEX
  5
336
  8
0
 10
126.7648162841797
 20
1.765321135520935
 30
26.0
 70
   192
  0
VERTEX
  5
337
  8
0
 10
126.7332458496094
 20
-1.866968035697937
 30
26.0
 70
   192
  0
VERTEX
  5
338
  8
0
 10
124.8865585327148
 20
-4.973794937133789
 30
26.0
 70
   192
  0
VERTEX
  5
339
  8
0
 10
121.7750549316406
 20
-6.755466938018799
 30
26.0
 70
   192
  0
VERTEX
  5
33A
  8
0
 10
123.9175491333008
 20
6.223149299621582
 30
26.14644622802734
 70
   192
  0
VERTEX
  5
33B
  8
0
 10
121.847412109375
 20
7.117711544036865
 30
26.14644622802734
 70
   192
  0
VERTEX
  5
33C
  8
0
 10
125.9058685302734
 20
4.381258487701416
 30
26.14644622802734
 70
   192
  0
VERTEX
  5
33D
  8
0
 10
127.1825561523438
 20
1.576595544815063
 30
26.14644622802734
 70
   192
  0
VERTEX
  5
33E
  8
0
 10
127.165641784668
 20
-1.651749491691589
 30
26.14644622802734
 70
   192
  0
VERTEX
  5
33F
  8
0
 10
125.8596496582031
 20
-4.44288444519043
 30
26.14644622802734
 70
   192
  0
VERTEX
  5
340
  8
0
 10
123.8521423339844
 20
-6.263845920562744
 30
26.14644622802734
 70
   192
  0
VERTEX
  5
341
  8
0
 10
121.7727508544922
 20
-7.136673450469971
 30
26.14644622802734
 70
   192
  0
VERTEX
  5
342
  8
0
 10
118.1345977783203
 20
-7.284299373626709
 30
41.5
 70
   192
  0
VERTEX
  5
343
  8
0
 10
116.443733215332
 20
-6.628922939300537
 30
41.5
 70
   192
  0
VERTEX
  5
344
  8
0
 10
112.9761428833008
 20
-2.607396841049194
 30
41.5
 70
   192
  0
VERTEX
  5
345
  8
0
 10
112.5601959228516
 20
-0.8587223291397095
 30
41.5
 70
   192
  0
VERTEX
  5
346
  8
0
 10
113.7929611206055
 20
-4.22132396697998
 30
41.5
 70
   192
  0
VERTEX
  5
347
  8
0
 10
113.0223922729492
 20
2.702183961868286
 30
41.5
 70
   192
  0
VERTEX
  5
348
  8
0
 10
112.5627746582031
 20
0.9435274600982666
 30
41.5
 70
   192
  0
VERTEX
  5
349
  8
0
 10
115.0692291259766
 20
5.613974094390869
 30
41.5
 70
   192
  0
VERTEX
  5
34A
  8
0
 10
113.8777160644531
 20
4.284350395202637
 30
41.5
 70
   192
  0
VERTEX
  5
34B
  8
0
 10
116.5605316162109
 20
6.636037826538086
 30
41.5
 70
   192
  0
VERTEX
  5
34C
  8
0
 10
118.2076873779297
 20
7.266791820526123
 30
41.5
 70
   192
  0
VERTEX
  5
34D
  8
0
 10
114.9762268066406
 20
-5.594472885131836
 30
41.5
 70
   192
  0
VERTEX
  5
34E
  8
0
 10
116.0669021606445
 20
-6.213333606719971
 30
41.85355377197266
 70
   192
  0
VERTEX
  5
34F
  8
0
 10
115.0398559570312
 20
-4.926203727722168
 30
42.0
 70
   192
  0
VERTEX
  5
350
  8
0
 10
114.0831909179688
 20
-4.366477012634277
 30
41.85355377197266
 70
   192
  0
VERTEX
  5
351
  8
0
 10
112.8135223388672
 20
-1.558630466461182
 30
41.85355377197266
 70
   192
  0
VERTEX
  5
352
  8
0
 10
118.1347961425781
 20
-7.113069534301758
 30
41.85355377197266
 70
   192
  0
VERTEX
  5
353
  8
0
 10
118.1052856445312
 20
-6.734396934509277
 30
42.0
 70
   192
  0
VERTEX
  5
354
  8
0
 10
112.838508605957
 20
1.669662117958069
 30
41.85355377197266
 70
   192
  0
VERTEX
  5
355
  8
0
 10
114.1514739990234
 20
4.457522869110107
 30
41.85355377197266
 70
   192
  0
VERTEX
  5
356
  8
0
 10
116.1635360717773
 20
6.273458480834961
 30
41.85355377197266
 70
   192
  0
VERTEX
  5
357
  8
0
 10
116.5288467407227
 20
6.069046497344971
 30
42.0
 70
   192
  0
VERTEX
  5
358
  8
0
 10
118.2451019287109
 20
7.141083717346191
 30
41.85355377197266
 70
   192
  0
VERTEX
  5
359
  8
0
 10
118.2097320556641
 20
6.762913227081299
 30
42.0
 70
   192
  0
VERTEX
  5
35A
  8
0
 10
113.2518157958984
 20
1.861450433731079
 30
42.0
 70
   192
  0
VERTEX
  5
35B
  8
0
 10
115.0693588256836
 20
4.964492797851562
 30
42.0
 70
   192
  0
VERTEX
  5
35C
  8
0
 10
113.0084075927734
 20
0.0127377798780799
 30
42.0
 70
   192
  0
VERTEX
  5
35D
  8
0
 10
116.4699554443359
 20
-6.043201446533203
 30
42.0
 70
   192
  0
VERTEX
  5
35E
  8
0
 10
113.9257583618164
 20
-3.474929571151733
 30
42.0
 70
   192
  0
VERTEX
  5
35F
  8
0
 10
113.233268737793
 20
-1.776614189147949
 30
42.0
 70
   192
  0
VERTEX
  5
360
  8
0
 10
113.9518890380859
 20
3.511286735534668
 30
42.0
 70
   192
  0
VERTEX
  5
361
  8
0
 62
    43
 10
0.0
 20
0.0
 30
0.0
 70
   128
 71
     3
 72
     2
 73
     1
  0
VERTEX
  5
362
  8
0
 62
    43
 10
0.0
 20
0.0
 30
0.0
 70
   128
 71
     6
 72
     5
 73
     4
  0
VERTEX
  5
363
  8
0
 62
    43
 10
0.0
 20
0.0
 30
0.0
 70
   128
 71
     4
 72
     8
 73
     7
  0
VERTEX
  5
364
  8
0
 62
    43
 10
0.0
 20
0.0
 30
0.0
 70
   128
 71
    11
 72
    10
 73
     9
  0
VERTEX
  5
365
  8
0
 62
    43
 10
0.0
 20
0.0
 30
0.0
 70
   128
 71
    12
 72
    10
 73
     6
  0
VERTEX
  5
366
  8
0
 62
    43
 10
0.0
 20
0.0
 30
0.0
 70
   128
 71
    10
 72
    12
 73
    13
  0
VERTEX
  5
367
  8
0
 62
    43
 10
0.0
 20
0.0
 30
0.0
 70
   128
 71
     6
 72
     4
 73
    14
  0
VERTEX
  5
368
  8
0
 62
    43
 10
0.0
 20
0.0
 30
0.0
 70
   128
 71
    15
 72
    10
 73
    13
  0
VERTEX
  5
369
  8
0
 62
    43
 10
0.0
 20
0.0
 30
0.0
 70
   128
 71
    14
 72
     4
 73
     7
  0
VERTEX
  5
36A
  8
0
 62
    43
 10
0.0
 20
0.0
 30
0.0
 70
   128
 71
    16
 72
     9
 73
    10
  0
VERTEX
  5
36B
  8
0
 62
    43
 10
0.0
 20
0.0
 30
0.0
 70
   128
 71
    19
 72
    18
 73
    17
  0
VERTEX
  5
36C
  8
0
 62
    43
 10
0.0
 20
0.0
 30
0.0
 70
   128
 71
    16
 72
    10
 73
    15
  0
VERTEX
  5
36D
  8
0
 62
    43
 10
0.0
 20
0.0
 30
0.0
 70
   128
 71
    20
 72
    16
 73
    15
  0
VERTEX
  5
36E
  8
0
 62
    43
 10
0.0
 20
0.0
 30
0.0
 70
   128
 71
     4
 72
    21
 73
     8
  0
VERTEX
  5
36F
  8
0
 62
    43
 10
0.0
 20
0.0
 30
0.0
 70
   128
 71
     4
 72
     5
 73
    22
  0
VERTEX
  5
370
  8
0
 62
    43
 10
0.0
 20
0.0
 30
0.0
 70
   128
 71
    21
 72
    23
 73
     8
  0
VERTEX
  5
371
  8
0
 62
    43
 10
0.0
 20
0.0
 30
0.0
 70
   128
 71
    24
 72
    23
 73
    21
  0
VERTEX
  5
372
  8
0
 62
    43
 10
0.0
 20
0.0
 30
0.0
 70
   128
 71
    25
 72
    24
 73
    21
  0
VERTEX
  5
373
  8
0
 62
    43
 10
0.0
 20
0.0
 30
0.0
 70
   128
 71
    25
 72
    27
 73
    26
  0
VERTEX
  5
374
  8
0
 62
    43
 10
0.0
 20
0.0
 30
0.0
 70
   128
 71
    24
 72
    25
 73
    26
  0
VERTEX
  5
375
  8
0
 62
    43
 10
0.0
 20
0.0
 30
0.0
 70
   128
 71
    29
 72
    28
 73
    25
  0
VERTEX
  5
376
  8
0
 62
    43
 10
0.0
 20
0.0
 30
0.0
 70
   128
 71
    25
 72
    28
 73
    27
  0
VERTEX
  5
377
  8
0
 62
    43
 10
0.0
 20
0.0
 30
0.0
 70
   128
 71
    30
 72
    27
 73
    28
  0
VERTEX
  5
378
  8
0
 62
    43
 10
0.0
 20
0.0
 30
0.0
 70
   128
 71
     1
 72
    30
 73
    28
  0
VERTEX
  5
379
  8
0
 62
    43
 10
0.0
 20
0.0
 30
0.0
 70
   128
 71
     1
 72
     2
 73
    31
  0
VERTEX
  5
37A
  8
0
 62
    43
 10
0.0
 20
0.0
 30
0.0
 70
   128
 71
     1
 72
    31
 73
    32
  0
VERTEX
  5
37B
  8
0
 62
    43
 10
0.0
 20
0.0
 30
0.0
 70
   128
 71
    31
 72
    33
 73
    32
  0
VERTEX
  5
37C
  8
0
 62
    43
 10
0.0
 20
0.0
 30
0.0
 70
   128
 71
    34
 72
     3
 73
    28
  0
VERTEX
  5
37D
  8
0
 62
    43
 10
0.0
 20
0.0
 30
0.0
 70
   128
 71
     1
 72
    32
 73
    30
  0
VERTEX
  5
37E
  8
0
 62
    43
 10
0.0
 20
0.0
 30
0.0
 70
   128
 71
     1
 72
    28
 73
     3
  0
VERTEX
  5
37F
  8
0
 62
    43
 10
0.0
 20
0.0
 30
0.0
 70
   128
 71
    34
 72
    28
 73
    29
  0
VERTEX
  5
380
  8
0
 62
    43
 10
0.0
 20
0.0
 30
0.0
 70
   128
 71
    25
 72
    35
 73
    29
  0
VERTEX
  5
381
  8
0
 62
    43
 10
0.0
 20
0.0
 30
0.0
 70
   128
 71
    21
 72
    36
 73
    35
  0
VERTEX
  5
382
  8
0
 62
    43
 10
0.0
 20
0.0
 30
0.0
 70
   128
 71
    25
 72
    21
 73
    35
  0
VERTEX
  5
383
  8
0
 62
    43
 10
0.0
 20
0.0
 30
0.0
 70
   128
 71
    36
 72
    21
 73
    22
  0
VERTEX
  5
384
  8
0
 62
    43
 10
0.0
 20
0.0
 30
0.0
 70
   128
 71
    21
 72
     4
 73
    22
  0
VERTEX
  5
385
  8
0
 62
    43
 10
0.0
 20
0.0
 30
0.0
 70
   128
 71
     6
 72
    37
 73
     5
  0
VERTEX
  5
386
  8
0
 62
    43
 10
0.0
 20
0.0
 30
0.0
 70
   128
 71
    37
 72
     6
 73
    11
  0
VERTEX
  5
387
  8
0
 62
    43
 10
0.0
 20
0.0
 30
0.0
 70
   128
 71
     6
 72
    14
 73
    12
  0
VERTEX
  5
388
  8
0
 62
    43
 10
0.0
 20
0.0
 30
0.0
 70
   128
 71
     6
 72
    10
 73
    11
  0
VERTEX
  5
389
  8
0
 62
    43
 10
0.0
 20
0.0
 30
0.0
 70
   128
 71
    16
 72
    19
 73
     9
  0
VERTEX
  5
38A
  8
0
 62
    43
 10
0.0
 20
0.0
 30
0.0
 70
   128
 71
    16
 72
    18
 73
    19
  0
VERTEX
  5
38B
  8
0
 62
    43
 10
0.0
 20
0.0
 30
0.0
 70
   128
 71
    18
 72
    16
 73
    20
  0
VERTEX
  5
38C
  8
0
 62
    43
 10
0.0
 20
0.0
 30
0.0
 70
   128
 71
     8
 72
    23
 73
    38
  0
VERTEX
  5
38D
  8
0
 62
    43
 10
0.0
 20
0.0
 30
0.0
 70
   128
 71
    40
 72
    33
 73
    39
  0
VERTEX
  5
38E
  8
0
 62
    43
 10
0.0
 20
0.0
 30
0.0
 70
   128
 71
     8
 72
    41
 73
     7
  0
VERTEX
  5
38F
  8
0
 62
    43
 10
0.0
 20
0.0
 30
0.0
 70
   128
 71
    41
 72
     8
 73
    38
  0
VERTEX
  5
390
  8
0
 62
    43
 10
0.0
 20
0.0
 30
0.0
 70
   128
 71
    42
 72
    14
 73
     7
  0
VERTEX
  5
391
  8
0
 62
    43
 10
0.0
 20
0.0
 30
0.0
 70
   128
 71
     7
 72
    41
 73
    42
  0
VERTEX
  5
392
  8
0
 62
    43
 10
0.0
 20
0.0
 30
0.0
 70
   128
 71
    12
 72
    14
 73
    43
  0
VERTEX
  5
393
  8
0
 62
    43
 10
0.0
 20
0.0
 30
0.0
 70
   128
 71
    42
 72
    43
 73
    14
  0
VERTEX
  5
394
  8
0
 62
    43
 10
0.0
 20
0.0
 30
0.0
 70
   128
 71
    12
 72
    44
 73
    13
  0
VERTEX
  5
395
  8
0
 62
    43
 10
0.0
 20
0.0
 30
0.0
 70
   128
 71
    44
 72
    12
 73
    43
  0
VERTEX
  5
396
  8
0
 62
    43
 10
0.0
 20
0.0
 30
0.0
 70
   128
 71
    45
 72
    15
 73
    13
  0
VERTEX
  5
397
  8
0
 62
    43
 10
0.0
 20
0.0
 30
0.0
 70
   128
 71
    13
 72
    44
 73
    45
  0
VERTEX
  5
398
  8
0
 62
    43
 10
0.0
 20
0.0
 30
0.0
 70
   128
 71
    45
 72
    46
 73
    15
  0
VERTEX
  5
399
  8
0
 62
    43
 10
0.0
 20
0.0
 30
0.0
 70
   128
 71
    46
 72
    20
 73
    15
  0
VERTEX
  5
39A
  8
0
 62
    43
 10
0.0
 20
0.0
 30
0.0
 70
   128
 71
    47
 72
    38
 73
    23
  0
VERTEX
  5
39B
  8
0
 62
    43
 10
0.0
 20
0.0
 30
0.0
 70
   128
 71
    24
 72
    48
 73
    47
  0
VERTEX
  5
39C
  8
0
 62
    43
 10
0.0
 20
0.0
 30
0.0
 70
   128
 71
    47
 72
    23
 73
    24
  0
VERTEX
  5
39D
  8
0
 62
    43
 10
0.0
 20
0.0
 30
0.0
 70
   128
 71
    49
 72
    48
 73
    26
  0
VERTEX
  5
39E
  8
0
 62
    43
 10
0.0
 20
0.0
 30
0.0
 70
   128
 71
    24
 72
    26
 73
    48
  0
VERTEX
  5
39F
  8
0
 62
    43
 10
0.0
 20
0.0
 30
0.0
 70
   128
 71
    49
 72
    27
 73
    50
  0
VERTEX
  5
3A0
  8
0
 62
    43
 10
0.0
 20
0.0
 30
0.0
 70
   128
 71
    27
 72
    49
 73
    26
  0
VERTEX
  5
3A1
  8
0
 62
    43
 10
0.0
 20
0.0
 30
0.0
 70
   128
 71
    30
 72
    51
 73
    50
  0
VERTEX
  5
3A2
  8
0
 62
    43
 10
0.0
 20
0.0
 30
0.0
 70
   128
 71
    50
 72
    27
 73
    30
  0
VERTEX
  5
3A3
  8
0
 62
    43
 10
0.0
 20
0.0
 30
0.0
 70
   128
 71
    40
 72
    51
 73
    32
  0
VERTEX
  5
3A4
  8
0
 62
    43
 10
0.0
 20
0.0
 30
0.0
 70
   128
 71
    30
 72
    32
 73
    51
  0
VERTEX
  5
3A5
  8
0
 62
    43
 10
0.0
 20
0.0
 30
0.0
 70
   128
 71
    33
 72
    40
 73
    32
  0
VERTEX
  5
3A6
  8
0
 62
    43
 10
0.0
 20
0.0
 30
0.0
 70
   128
 71
    54
 72
    53
 73
    52
  0
VERTEX
  5
3A7
  8
0
 62
    43
 10
0.0
 20
0.0
 30
0.0
 70
   128
 71
    57
 72
    56
 73
    55
  0
VERTEX
  5
3A8
  8
0
 62
    43
 10
0.0
 20
0.0
 30
0.0
 70
   128
 71
    60
 72
    59
 73
    58
  0
VERTEX
  5
3A9
  8
0
 62
    43
 10
0.0
 20
0.0
 30
0.0
 70
   128
 71
    63
 72
    62
 73
    61
  0
VERTEX
  5
3AA
  8
0
 62
    43
 10
0.0
 20
0.0
 30
0.0
 70
   128
 71
    52
 72
    53
 73
    64
  0
VERTEX
  5
3AB
  8
0
 62
    43
 10
0.0
 20
0.0
 30
0.0
 70
   128
 71
    67
 72
    66
 73
    65
  0
VERTEX
  5
3AC
  8
0
 62
    43
 10
0.0
 20
0.0
 30
0.0
 70
   128
 71
    69
 72
    68
 73
    62
  0
VERTEX
  5
3AD
  8
0
 62
    43
 10
0.0
 20
0.0
 30
0.0
 70
   128
 71
    71
 72
    57
 73
    70
  0
VERTEX
  5
3AE
  8
0
 62
    43
 10
0.0
 20
0.0
 30
0.0
 70
   128
 71
    73
 72
    72
 73
    66
  0
VERTEX
  5
3AF
  8
0
 62
    43
 10
0.0
 20
0.0
 30
0.0
 70
   128
 71
    76
 72
    75
 73
    74
  0
VERTEX
  5
3B0
  8
0
 62
    43
 10
0.0
 20
0.0
 30
0.0
 70
   128
 71
    74
 72
    77
 73
    57
  0
VERTEX
  5
3B1
  8
0
 62
    43
 10
0.0
 20
0.0
 30
0.0
 70
   128
 71
    74
 72
    75
 73
    78
  0
VERTEX
  5
3B2
  8
0
 62
    43
 10
0.0
 20
0.0
 30
0.0
 70
   128
 71
    78
 72
    75
 73
    46
  0
VERTEX
  5
3B3
  8
0
 62
    43
 10
0.0
 20
0.0
 30
0.0
 70
   128
 71
    79
 72
    74
 73
    78
  0
VERTEX
  5
3B4
  8
0
 62
    43
 10
0.0
 20
0.0
 30
0.0
 70
   128
 71
    57
 72
    76
 73
    74
  0
VERTEX
  5
3B5
  8
0
 62
    43
 10
0.0
 20
0.0
 30
0.0
 70
   128
 71
    71
 72
    56
 73
    57
  0
VERTEX
  5
3B6
  8
0
 62
    43
 10
0.0
 20
0.0
 30
0.0
 70
   128
 71
    69
 72
    66
 73
    68
  0
VERTEX
  5
3B7
  8
0
 62
    43
 10
0.0
 20
0.0
 30
0.0
 70
   128
 71
    56
 72
    65
 73
    66
  0
VERTEX
  5
3B8
  8
0
 62
    43
 10
0.0
 20
0.0
 30
0.0
 70
   128
 71
    69
 72
    81
 73
    80
  0
VERTEX
  5
3B9
  8
0
 62
    43
 10
0.0
 20
0.0
 30
0.0
 70
   128
 71
    67
 72
    68
 73
    66
  0
VERTEX
  5
3BA
  8
0
 62
    43
 10
0.0
 20
0.0
 30
0.0
 70
   128
 71
    69
 72
    63
 73
    82
  0
VERTEX
  5
3BB
  8
0
 62
    43
 10
0.0
 20
0.0
 30
0.0
 70
   128
 71
    63
 72
    69
 73
    62
  0
VERTEX
  5
3BC
  8
0
 62
    43
 10
0.0
 20
0.0
 30
0.0
 70
   128
 71
    53
 72
    83
 73
    64
  0
VERTEX
  5
3BD
  8
0
 62
    43
 10
0.0
 20
0.0
 30
0.0
 70
   128
 71
    63
 72
    61
 73
    83
  0
VERTEX
  5
3BE
  8
0
 62
    43
 10
0.0
 20
0.0
 30
0.0
 70
   128
 71
    63
 72
    83
 73
    53
  0
VERTEX
  5
3BF
  8
0
 62
    43
 10
0.0
 20
0.0
 30
0.0
 70
   128
 71
    39
 72
    52
 73
    60
  0
VERTEX
  5
3C0
  8
0
 62
    43
 10
0.0
 20
0.0
 30
0.0
 70
   128
 71
    64
 72
    59
 73
    52
  0
VERTEX
  5
3C1
  8
0
 62
    43
 10
0.0
 20
0.0
 30
0.0
 70
   128
 71
    57
 72
    55
 73
    76
  0
VERTEX
  5
3C2
  8
0
 62
    43
 10
0.0
 20
0.0
 30
0.0
 70
   128
 71
    79
 72
    77
 73
    74
  0
VERTEX
  5
3C3
  8
0
 62
    43
 10
0.0
 20
0.0
 30
0.0
 70
   128
 71
    56
 72
    84
 73
    55
  0
VERTEX
  5
3C4
  8
0
 62
    43
 10
0.0
 20
0.0
 30
0.0
 70
   128
 71
    70
 72
    57
 73
    77
  0
VERTEX
  5
3C5
  8
0
 62
    43
 10
0.0
 20
0.0
 30
0.0
 70
   128
 71
    84
 72
    56
 73
    72
  0
VERTEX
  5
3C6
  8
0
 62
    43
 10
0.0
 20
0.0
 30
0.0
 70
   128
 71
    56
 72
    71
 73
    65
  0
VERTEX
  5
3C7
  8
0
 62
    43
 10
0.0
 20
0.0
 30
0.0
 70
   128
 71
    56
 72
    66
 73
    72
  0
VERTEX
  5
3C8
  8
0
 62
    43
 10
0.0
 20
0.0
 30
0.0
 70
   128
 71
    80
 72
    73
 73
    66
  0
VERTEX
  5
3C9
  8
0
 62
    43
 10
0.0
 20
0.0
 30
0.0
 70
   128
 71
    66
 72
    69
 73
    80
  0
VERTEX
  5
3CA
  8
0
 62
    43
 10
0.0
 20
0.0
 30
0.0
 70
   128
 71
    81
 72
    69
 73
    82
  0
VERTEX
  5
3CB
  8
0
 62
    43
 10
0.0
 20
0.0
 30
0.0
 70
   128
 71
    63
 72
    85
 73
    82
  0
VERTEX
  5
3CC
  8
0
 62
    43
 10
0.0
 20
0.0
 30
0.0
 70
   128
 71
    53
 72
    86
 73
    85
  0
VERTEX
  5
3CD
  8
0
 62
    43
 10
0.0
 20
0.0
 30
0.0
 70
   128
 71
    63
 72
    53
 73
    85
  0
VERTEX
  5
3CE
  8
0
 62
    43
 10
0.0
 20
0.0
 30
0.0
 70
   128
 71
    86
 72
    53
 73
    54
  0
VERTEX
  5
3CF
  8
0
 62
    43
 10
0.0
 20
0.0
 30
0.0
 70
   128
 71
    54
 72
    52
 73
    39
  0
VERTEX
  5
3D0
  8
0
 62
    43
 10
0.0
 20
0.0
 30
0.0
 70
   128
 71
    52
 72
    59
 73
    60
  0
VERTEX
  5
3D1
  8
0
 62
    43
 10
0.0
 20
0.0
 30
0.0
 70
   128
 71
     3
 72
    34
 73
    29
  0
VERTEX
  5
3D2
  8
0
 62
    43
 10
0.0
 20
0.0
 30
0.0
 70
   128
 71
    36
 72
    22
 73
    19
  0
VERTEX
  5
3D3
  8
0
 62
    43
 10
0.0
 20
0.0
 30
0.0
 70
   128
 71
    11
 72
     9
 73
    37
  0
VERTEX
  5
3D4
  8
0
 62
    43
 10
0.0
 20
0.0
 30
0.0
 70
   128
 71
    22
 72
    37
 73
     9
  0
VERTEX
  5
3D5
  8
0
 62
    43
 10
0.0
 20
0.0
 30
0.0
 70
   128
 71
    22
 72
     9
 73
    19
  0
VERTEX
  5
3D6
  8
0
 62
    43
 10
0.0
 20
0.0
 30
0.0
 70
   128
 71
    37
 72
    22
 73
     5
  0
VERTEX
  5
3D7
  8
0
 62
    43
 10
0.0
 20
0.0
 30
0.0
 70
   128
 71
    19
 72
    87
 73
    36
  0
VERTEX
  5
3D8
  8
0
 62
    43
 10
0.0
 20
0.0
 30
0.0
 70
   128
 71
    35
 72
    36
 73
    87
  0
VERTEX
  5
3D9
  8
0
 62
    43
 10
0.0
 20
0.0
 30
0.0
 70
   128
 71
    87
 72
    19
 73
    17
  0
VERTEX
  5
3DA
  8
0
 62
    43
 10
0.0
 20
0.0
 30
0.0
 70
   128
 71
    87
 72
    89
 73
    88
  0
VERTEX
  5
3DB
  8
0
 62
    43
 10
0.0
 20
0.0
 30
0.0
 70
   128
 71
    87
 72
    29
 73
    35
  0
VERTEX
  5
3DC
  8
0
 62
    43
 10
0.0
 20
0.0
 30
0.0
 70
   128
 71
    88
 72
    29
 73
    87
  0
VERTEX
  5
3DD
  8
0
 62
    43
 10
0.0
 20
0.0
 30
0.0
 70
   128
 71
    91
 72
    88
 73
    90
  0
VERTEX
  5
3DE
  8
0
 62
    43
 10
0.0
 20
0.0
 30
0.0
 70
   128
 71
    29
 72
    88
 73
     3
  0
VERTEX
  5
3DF
  8
0
 62
    43
 10
0.0
 20
0.0
 30
0.0
 70
   128
 71
     3
 72
    88
 73
    91
  0
VERTEX
  5
3E0
  8
0
 62
    43
 10
0.0
 20
0.0
 30
0.0
 70
   128
 71
    92
 72
     3
 73
    91
  0
VERTEX
  5
3E1
  8
0
 62
    43
 10
0.0
 20
0.0
 30
0.0
 70
   128
 71
    92
 72
    91
 73
    93
  0
VERTEX
  5
3E2
  8
0
 62
    43
 10
0.0
 20
0.0
 30
0.0
 70
   128
 71
    95
 72
    94
 73
    93
  0
VERTEX
  5
3E3
  8
0
 62
    43
 10
0.0
 20
0.0
 30
0.0
 70
   128
 71
    96
 72
    95
 73
    93
  0
VERTEX
  5
3E4
  8
0
 62
    43
 10
0.0
 20
0.0
 30
0.0
 70
   128
 71
    92
 72
    93
 73
    94
  0
VERTEX
  5
3E5
  8
0
 62
    43
 10
0.0
 20
0.0
 30
0.0
 70
   128
 71
    97
 72
    94
 73
    95
  0
VERTEX
  5
3E6
  8
0
 62
    43
 10
0.0
 20
0.0
 30
0.0
 70
   128
 71
     2
 72
     3
 73
    92
  0
VERTEX
  5
3E7
  8
0
 62
    43
 10
0.0
 20
0.0
 30
0.0
 70
   128
 71
    99
 72
    88
 73
    98
  0
VERTEX
  5
3E8
  8
0
 62
    43
 10
0.0
 20
0.0
 30
0.0
 70
   128
 71
   102
 72
   101
 73
   100
  0
VERTEX
  5
3E9
  8
0
 62
    43
 10
0.0
 20
0.0
 30
0.0
 70
   128
 71
   104
 72
    98
 73
   103
  0
VERTEX
  5
3EA
  8
0
 62
    43
 10
0.0
 20
0.0
 30
0.0
 70
   128
 71
   103
 72
    87
 73
    17
  0
VERTEX
  5
3EB
  8
0
 62
    43
 10
0.0
 20
0.0
 30
0.0
 70
   128
 71
   107
 72
   106
 73
   105
  0
VERTEX
  5
3EC
  8
0
 62
    43
 10
0.0
 20
0.0
 30
0.0
 70
   128
 71
   100
 72
   108
 73
   102
  0
VERTEX
  5
3ED
  8
0
 62
    43
 10
0.0
 20
0.0
 30
0.0
 70
   128
 71
   111
 72
   110
 73
   109
  0
VERTEX
  5
3EE
  8
0
 62
    43
 10
0.0
 20
0.0
 30
0.0
 70
   128
 71
   110
 72
   107
 73
   105
  0
VERTEX
  5
3EF
  8
0
 62
    43
 10
0.0
 20
0.0
 30
0.0
 70
   128
 71
   112
 72
    94
 73
   111
  0
VERTEX
  5
3F0
  8
0
 62
    43
 10
0.0
 20
0.0
 30
0.0
 70
   128
 71
   114
 72
   111
 73
   113
  0
VERTEX
  5
3F1
  8
0
 62
    43
 10
0.0
 20
0.0
 30
0.0
 70
   128
 71
    33
 72
   112
 73
   114
  0
VERTEX
  5
3F2
  8
0
 62
    43
 10
0.0
 20
0.0
 30
0.0
 70
   128
 71
   112
 72
   111
 73
   114
  0
VERTEX
  5
3F3
  8
0
 62
    43
 10
0.0
 20
0.0
 30
0.0
 70
   128
 71
   111
 72
   109
 73
   113
  0
VERTEX
  5
3F4
  8
0
 62
    43
 10
0.0
 20
0.0
 30
0.0
 70
   128
 71
     2
 72
    92
 73
    31
  0
VERTEX
  5
3F5
  8
0
 62
    43
 10
0.0
 20
0.0
 30
0.0
 70
   128
 71
   108
 72
   106
 73
   107
  0
VERTEX
  5
3F6
  8
0
 62
    43
 10
0.0
 20
0.0
 30
0.0
 70
   128
 71
   107
 72
   110
 73
    96
  0
VERTEX
  5
3F7
  8
0
 62
    43
 10
0.0
 20
0.0
 30
0.0
 70
   128
 71
   111
 72
    94
 73
    97
  0
VERTEX
  5
3F8
  8
0
 62
    43
 10
0.0
 20
0.0
 30
0.0
 70
   128
 71
   116
 72
    99
 73
   115
  0
VERTEX
  5
3F9
  8
0
 62
    43
 10
0.0
 20
0.0
 30
0.0
 70
   128
 71
   102
 72
   108
 73
   107
  0
VERTEX
  5
3FA
  8
0
 62
    43
 10
0.0
 20
0.0
 30
0.0
 70
   128
 71
    93
 72
   107
 73
    96
  0
VERTEX
  5
3FB
  8
0
 62
    43
 10
0.0
 20
0.0
 30
0.0
 70
   128
 71
    99
 72
   116
 73
   101
  0
VERTEX
  5
3FC
  8
0
 62
    43
 10
0.0
 20
0.0
 30
0.0
 70
   128
 71
    99
 72
   101
 73
   102
  0
VERTEX
  5
3FD
  8
0
 62
    43
 10
0.0
 20
0.0
 30
0.0
 70
   128
 71
    98
 72
   104
 73
   115
  0
VERTEX
  5
3FE
  8
0
 62
    43
 10
0.0
 20
0.0
 30
0.0
 70
   128
 71
   115
 72
    99
 73
    98
  0
VERTEX
  5
3FF
  8
0
 62
    43
 10
0.0
 20
0.0
 30
0.0
 70
   128
 71
   103
 72
   117
 73
   104
  0
VERTEX
  5
400
  8
0
 62
    43
 10
0.0
 20
0.0
 30
0.0
 70
   128
 71
   117
 72
    18
 73
    20
  0
VERTEX
  5
401
  8
0
 62
    43
 10
0.0
 20
0.0
 30
0.0
 70
   128
 71
   103
 72
    17
 73
    18
  0
VERTEX
  5
402
  8
0
 62
    43
 10
0.0
 20
0.0
 30
0.0
 70
   128
 71
   117
 72
   103
 73
    18
  0
VERTEX
  5
403
  8
0
 62
    43
 10
0.0
 20
0.0
 30
0.0
 70
   128
 71
    89
 72
    87
 73
    98
  0
VERTEX
  5
404
  8
0
 62
    43
 10
0.0
 20
0.0
 30
0.0
 70
   128
 71
   103
 72
    98
 73
    87
  0
VERTEX
  5
405
  8
0
 62
    43
 10
0.0
 20
0.0
 30
0.0
 70
   128
 71
    89
 72
    98
 73
    88
  0
VERTEX
  5
406
  8
0
 62
    43
 10
0.0
 20
0.0
 30
0.0
 70
   128
 71
    99
 72
    90
 73
    88
  0
VERTEX
  5
407
  8
0
 62
    43
 10
0.0
 20
0.0
 30
0.0
 70
   128
 71
   102
 72
    91
 73
    90
  0
VERTEX
  5
408
  8
0
 62
    43
 10
0.0
 20
0.0
 30
0.0
 70
   128
 71
    99
 72
   102
 73
    90
  0
VERTEX
  5
409
  8
0
 62
    43
 10
0.0
 20
0.0
 30
0.0
 70
   128
 71
    91
 72
   102
 73
    93
  0
VERTEX
  5
40A
  8
0
 62
    43
 10
0.0
 20
0.0
 30
0.0
 70
   128
 71
   102
 72
   107
 73
    93
  0
VERTEX
  5
40B
  8
0
 62
    43
 10
0.0
 20
0.0
 30
0.0
 70
   128
 71
   110
 72
    95
 73
    96
  0
VERTEX
  5
40C
  8
0
 62
    43
 10
0.0
 20
0.0
 30
0.0
 70
   128
 71
    95
 72
   110
 73
    97
  0
VERTEX
  5
40D
  8
0
 62
    43
 10
0.0
 20
0.0
 30
0.0
 70
   128
 71
   110
 72
   105
 73
   109
  0
VERTEX
  5
40E
  8
0
 62
    43
 10
0.0
 20
0.0
 30
0.0
 70
   128
 71
   110
 72
   111
 73
    97
  0
VERTEX
  5
40F
  8
0
 62
    43
 10
0.0
 20
0.0
 30
0.0
 70
   128
 71
   112
 72
    92
 73
    94
  0
VERTEX
  5
410
  8
0
 62
    43
 10
0.0
 20
0.0
 30
0.0
 70
   128
 71
   112
 72
    31
 73
    92
  0
VERTEX
  5
411
  8
0
 62
    43
 10
0.0
 20
0.0
 30
0.0
 70
   128
 71
    31
 72
   112
 73
    33
  0
VERTEX
  5
412
  8
0
 62
    43
 10
0.0
 20
0.0
 30
0.0
 70
   128
 71
    75
 72
   117
 73
    20
  0
VERTEX
  5
413
  8
0
 62
    43
 10
0.0
 20
0.0
 30
0.0
 70
   128
 71
   104
 72
    76
 73
    55
  0
VERTEX
  5
414
  8
0
 62
    43
 10
0.0
 20
0.0
 30
0.0
 70
   128
 71
   100
 72
   101
 73
    73
  0
VERTEX
  5
415
  8
0
 62
    43
 10
0.0
 20
0.0
 30
0.0
 70
   128
 71
    72
 72
   116
 73
    84
  0
VERTEX
  5
416
  8
0
 62
    43
 10
0.0
 20
0.0
 30
0.0
 70
   128
 71
    82
 72
   106
 73
    81
  0
VERTEX
  5
417
  8
0
 62
    43
 10
0.0
 20
0.0
 30
0.0
 70
   128
 71
    80
 72
    81
 73
   108
  0
VERTEX
  5
418
  8
0
 62
    43
 10
0.0
 20
0.0
 30
0.0
 70
   128
 71
    86
 72
   109
 73
    85
  0
VERTEX
  5
419
  8
0
 62
    43
 10
0.0
 20
0.0
 30
0.0
 70
   128
 71
   105
 72
    85
 73
   109
  0
VERTEX
  5
41A
  8
0
 62
    43
 10
0.0
 20
0.0
 30
0.0
 70
   128
 71
   113
 72
    86
 73
    54
  0
VERTEX
  5
41B
  8
0
 62
    43
 10
0.0
 20
0.0
 30
0.0
 70
   128
 71
    86
 72
   113
 73
   109
  0
VERTEX
  5
41C
  8
0
 62
    43
 10
0.0
 20
0.0
 30
0.0
 70
   128
 71
    54
 72
    39
 73
   114
  0
VERTEX
  5
41D
  8
0
 62
    43
 10
0.0
 20
0.0
 30
0.0
 70
   128
 71
   114
 72
   113
 73
    54
  0
VERTEX
  5
41E
  8
0
 62
    43
 10
0.0
 20
0.0
 30
0.0
 70
   128
 71
   114
 72
    39
 73
    33
  0
VERTEX
  5
41F
  8
0
 62
    43
 10
0.0
 20
0.0
 30
0.0
 70
   128
 71
   106
 72
    82
 73
   105
  0
VERTEX
  5
420
  8
0
 62
    43
 10
0.0
 20
0.0
 30
0.0
 70
   128
 71
    82
 72
    85
 73
   105
  0
VERTEX
  5
421
  8
0
 62
    43
 10
0.0
 20
0.0
 30
0.0
 70
   128
 71
   100
 72
    80
 73
   108
  0
VERTEX
  5
422
  8
0
 62
    43
 10
0.0
 20
0.0
 30
0.0
 70
   128
 71
    81
 72
   106
 73
   108
  0
VERTEX
  5
423
  8
0
 62
    43
 10
0.0
 20
0.0
 30
0.0
 70
   128
 71
    73
 72
   101
 73
    72
  0
VERTEX
  5
424
  8
0
 62
    43
 10
0.0
 20
0.0
 30
0.0
 70
   128
 71
    80
 72
   100
 73
    73
  0
VERTEX
  5
425
  8
0
 62
    43
 10
0.0
 20
0.0
 30
0.0
 70
   128
 71
   116
 72
   115
 73
    84
  0
VERTEX
  5
426
  8
0
 62
    43
 10
0.0
 20
0.0
 30
0.0
 70
   128
 71
   101
 72
   116
 73
    72
  0
VERTEX
  5
427
  8
0
 62
    43
 10
0.0
 20
0.0
 30
0.0
 70
   128
 71
    55
 72
   115
 73
   104
  0
VERTEX
  5
428
  8
0
 62
    43
 10
0.0
 20
0.0
 30
0.0
 70
   128
 71
   115
 72
    55
 73
    84
  0
VERTEX
  5
429
  8
0
 62
    43
 10
0.0
 20
0.0
 30
0.0
 70
   128
 71
    75
 72
    76
 73
   117
  0
VERTEX
  5
42A
  8
0
 62
    43
 10
0.0
 20
0.0
 30
0.0
 70
   128
 71
   117
 72
    76
 73
   104
  0
VERTEX
  5
42B
  8
0
 62
    43
 10
0.0
 20
0.0
 30
0.0
 70
   128
 71
    46
 72
    75
 73
    20
  0
VERTEX
  5
42C
  8
0
 62
    43
 10
0.0
 20
0.0
 30
0.0
 70
   128
 71
   120
 72
   119
 73
   118
  0
VERTEX
  5
42D
  8
0
 62
    43
 10
0.0
 20
0.0
 30
0.0
 70
   128
 71
   118
 72
   121
 73
    50
  0
VERTEX
  5
42E
  8
0
 62
    43
 10
0.0
 20
0.0
 30
0.0
 70
   128
 71
    50
 72
    51
 73
   118
  0
VERTEX
  5
42F
  8
0
 62
    43
 10
0.0
 20
0.0
 30
0.0
 70
   128
 71
    40
 72
    39
 73
    60
  0
VERTEX
  5
430
  8
0
 62
    43
 10
0.0
 20
0.0
 30
0.0
 70
   128
 71
   121
 72
   123
 73
   122
  0
VERTEX
  5
431
  8
0
 62
    43
 10
0.0
 20
0.0
 30
0.0
 70
   128
 71
   125
 72
    42
 73
   124
  0
VERTEX
  5
432
  8
0
 62
    43
 10
0.0
 20
0.0
 30
0.0
 70
   128
 71
    41
 72
    38
 73
   124
  0
VERTEX
  5
433
  8
0
 62
    43
 10
0.0
 20
0.0
 30
0.0
 70
   128
 71
   128
 72
   127
 73
   126
  0
VERTEX
  5
434
  8
0
 62
    43
 10
0.0
 20
0.0
 30
0.0
 70
   128
 71
   130
 72
   125
 73
   129
  0
VERTEX
  5
435
  8
0
 62
    43
 10
0.0
 20
0.0
 30
0.0
 70
   128
 71
   131
 72
   127
 73
   128
  0
VERTEX
  5
436
  8
0
 62
    43
 10
0.0
 20
0.0
 30
0.0
 70
   128
 71
   127
 72
   131
 73
    45
  0
VERTEX
  5
437
  8
0
 62
    43
 10
0.0
 20
0.0
 30
0.0
 70
   128
 71
   131
 72
   128
 73
   132
  0
VERTEX
  5
438
  8
0
 62
    43
 10
0.0
 20
0.0
 30
0.0
 70
   128
 71
    78
 72
   132
 73
    79
  0
VERTEX
  5
439
  8
0
 62
    43
 10
0.0
 20
0.0
 30
0.0
 70
   128
 71
    46
 72
   131
 73
    78
  0
VERTEX
  5
43A
  8
0
 62
    43
 10
0.0
 20
0.0
 30
0.0
 70
   128
 71
   130
 72
   126
 73
   125
  0
VERTEX
  5
43B
  8
0
 62
    43
 10
0.0
 20
0.0
 30
0.0
 70
   128
 71
   127
 72
   125
 73
   126
  0
VERTEX
  5
43C
  8
0
 62
    43
 10
0.0
 20
0.0
 30
0.0
 70
   128
 71
   134
 72
   118
 73
   133
  0
VERTEX
  5
43D
  8
0
 62
    43
 10
0.0
 20
0.0
 30
0.0
 70
   128
 71
   124
 72
   122
 73
   135
  0
VERTEX
  5
43E
  8
0
 62
    43
 10
0.0
 20
0.0
 30
0.0
 70
   128
 71
   125
 72
   124
 73
   129
  0
VERTEX
  5
43F
  8
0
 62
    43
 10
0.0
 20
0.0
 30
0.0
 70
   128
 71
   129
 72
   124
 73
   135
  0
VERTEX
  5
440
  8
0
 62
    43
 10
0.0
 20
0.0
 30
0.0
 70
   128
 71
   136
 72
   122
 73
   123
  0
VERTEX
  5
441
  8
0
 62
    43
 10
0.0
 20
0.0
 30
0.0
 70
   128
 71
   136
 72
   135
 73
   122
  0
VERTEX
  5
442
  8
0
 62
    43
 10
0.0
 20
0.0
 30
0.0
 70
   128
 71
    47
 72
    48
 73
   122
  0
VERTEX
  5
443
  8
0
 62
    43
 10
0.0
 20
0.0
 30
0.0
 70
   128
 71
   121
 72
   118
 73
   134
  0
VERTEX
  5
444
  8
0
 62
    43
 10
0.0
 20
0.0
 30
0.0
 70
   128
 71
   118
 72
    51
 73
   120
  0
VERTEX
  5
445
  8
0
 62
    43
 10
0.0
 20
0.0
 30
0.0
 70
   128
 71
    58
 72
   120
 73
    60
  0
VERTEX
  5
446
  8
0
 62
    43
 10
0.0
 20
0.0
 30
0.0
 70
   128
 71
   120
 72
    40
 73
    60
  0
VERTEX
  5
447
  8
0
 62
    43
 10
0.0
 20
0.0
 30
0.0
 70
   128
 71
    58
 72
   119
 73
   120
  0
VERTEX
  5
448
  8
0
 62
    43
 10
0.0
 20
0.0
 30
0.0
 70
   128
 71
   120
 72
    51
 73
    40
  0
VERTEX
  5
449
  8
0
 62
    43
 10
0.0
 20
0.0
 30
0.0
 70
   128
 71
   121
 72
    49
 73
    50
  0
VERTEX
  5
44A
  8
0
 62
    43
 10
0.0
 20
0.0
 30
0.0
 70
   128
 71
   133
 72
   118
 73
   119
  0
VERTEX
  5
44B
  8
0
 62
    43
 10
0.0
 20
0.0
 30
0.0
 70
   128
 71
    49
 72
   121
 73
    48
  0
VERTEX
  5
44C
  8
0
 62
    43
 10
0.0
 20
0.0
 30
0.0
 70
   128
 71
   121
 72
   134
 73
   123
  0
VERTEX
  5
44D
  8
0
 62
    43
 10
0.0
 20
0.0
 30
0.0
 70
   128
 71
   121
 72
   122
 73
    48
  0
VERTEX
  5
44E
  8
0
 62
    43
 10
0.0
 20
0.0
 30
0.0
 70
   128
 71
    38
 72
    47
 73
   122
  0
VERTEX
  5
44F
  8
0
 62
    43
 10
0.0
 20
0.0
 30
0.0
 70
   128
 71
   122
 72
   124
 73
    38
  0
VERTEX
  5
450
  8
0
 62
    43
 10
0.0
 20
0.0
 30
0.0
 70
   128
 71
    41
 72
   124
 73
    42
  0
VERTEX
  5
451
  8
0
 62
    43
 10
0.0
 20
0.0
 30
0.0
 70
   128
 71
   125
 72
    43
 73
    42
  0
VERTEX
  5
452
  8
0
 62
    43
 10
0.0
 20
0.0
 30
0.0
 70
   128
 71
   127
 72
    44
 73
    43
  0
VERTEX
  5
453
  8
0
 62
    43
 10
0.0
 20
0.0
 30
0.0
 70
   128
 71
   125
 72
   127
 73
    43
  0
VERTEX
  5
454
  8
0
 62
    43
 10
0.0
 20
0.0
 30
0.0
 70
   128
 71
    44
 72
   127
 73
    45
  0
VERTEX
  5
455
  8
0
 62
    43
 10
0.0
 20
0.0
 30
0.0
 70
   128
 71
    45
 72
   131
 73
    46
  0
VERTEX
  5
456
  8
0
 62
    43
 10
0.0
 20
0.0
 30
0.0
 70
   128
 71
   131
 72
   132
 73
    78
  0
VERTEX
  5
457
  8
0
 62
    43
 10
0.0
 20
0.0
 30
0.0
 70
   128
 71
   133
 72
   119
 73
   134
  0
VERTEX
  5
458
  8
0
 62
    43
 10
0.0
 20
0.0
 30
0.0
 70
   128
 71
   135
 72
   128
 73
   130
  0
VERTEX
  5
459
  8
0
 62
    43
 10
0.0
 20
0.0
 30
0.0
 70
   128
 71
   136
 72
   123
 73
   134
  0
VERTEX
  5
45A
  8
0
 62
    43
 10
0.0
 20
0.0
 30
0.0
 70
   128
 71
   129
 72
   135
 73
   130
  0
VERTEX
  5
45B
  8
0
 62
    43
 10
0.0
 20
0.0
 30
0.0
 70
   128
 71
   130
 72
   128
 73
   126
  0
VERTEX
  5
45C
  8
0
 62
    43
 10
0.0
 20
0.0
 30
0.0
 70
   128
 71
   128
 72
   135
 73
   132
  0
VERTEX
  5
45D
  8
0
 62
    43
 10
0.0
 20
0.0
 30
0.0
 70
   128
 71
   136
 72
   132
 73
   135
  0
VERTEX
  5
45E
  8
0
 62
    43
 10
0.0
 20
0.0
 30
0.0
 70
   128
 71
   136
 72
    77
 73
   132
  0
VERTEX
  5
45F
  8
0
 62
    43
 10
0.0
 20
0.0
 30
0.0
 70
   128
 71
   132
 72
    77
 73
    79
  0
VERTEX
  5
460
  8
0
 62
    43
 10
0.0
 20
0.0
 30
0.0
 70
   128
 71
    70
 72
    77
 73
    71
  0
VERTEX
  5
461
  8
0
 62
    43
 10
0.0
 20
0.0
 30
0.0
 70
   128
 71
   134
 72
    77
 73
   136
  0
VERTEX
  5
462
  8
0
 62
    43
 10
0.0
 20
0.0
 30
0.0
 70
   128
 71
   134
 72
    71
 73
    77
  0
VERTEX
  5
463
  8
0
 62
    43
 10
0.0
 20
0.0
 30
0.0
 70
   128
 71
   119
 72
    65
 73
    71
  0
VERTEX
  5
464
  8
0
 62
    43
 10
0.0
 20
0.0
 30
0.0
 70
   128
 71
    71
 72
   134
 73
   119
  0
VERTEX
  5
465
  8
0
 62
    43
 10
0.0
 20
0.0
 30
0.0
 70
   128
 71
    65
 72
    59
 73
    67
  0
VERTEX
  5
466
  8
0
 62
    43
 10
0.0
 20
0.0
 30
0.0
 70
   128
 71
    64
 72
    68
 73
    59
  0
VERTEX
  5
467
  8
0
 62
    43
 10
0.0
 20
0.0
 30
0.0
 70
   128
 71
    65
 72
   119
 73
    59
  0
VERTEX
  5
468
  8
0
 62
    43
 10
0.0
 20
0.0
 30
0.0
 70
   128
 71
    64
 72
    61
 73
    68
  0
VERTEX
  5
469
  8
0
 62
    43
 10
0.0
 20
0.0
 30
0.0
 70
   128
 71
    61
 72
    62
 73
    68
  0
VERTEX
  5
46A
  8
0
 62
    43
 10
0.0
 20
0.0
 30
0.0
 70
   128
 71
    59
 72
    68
 73
    67
  0
VERTEX
  5
46B
  8
0
 62
    43
 10
0.0
 20
0.0
 30
0.0
 70
   128
 71
    64
 72
    83
 73
    61
  0
VERTEX
  5
46C
  8
0
 62
    43
 10
0.0
 20
0.0
 30
0.0
 70
   128
 71
   119
 72
    58
 73
    59
  0
VERTEX
  5
46D
  8
0
 62
    43
 10
0.0
 20
0.0
 30
0.0
 70
   128
 71
   139
 72
   138
 73
   137
  0
VERTEX
  5
46E
  8
0
 62
    43
 10
0.0
 20
0.0
 30
0.0
 70
   128
 71
   142
 72
   141
 73
   140
  0
VERTEX
  5
46F
  8
0
 62
    43
 10
0.0
 20
0.0
 30
0.0
 70
   128
 71
   140
 72
   144
 73
   143
  0
VERTEX
  5
470
  8
0
 62
    43
 10
0.0
 20
0.0
 30
0.0
 70
   128
 71
   147
 72
   146
 73
   145
  0
VERTEX
  5
471
  8
0
 62
    43
 10
0.0
 20
0.0
 30
0.0
 70
   128
 71
   148
 72
   146
 73
   142
  0
VERTEX
  5
472
  8
0
 62
    43
 10
0.0
 20
0.0
 30
0.0
 70
   128
 71
   146
 72
   148
 73
   149
  0
VERTEX
  5
473
  8
0
 62
    43
 10
0.0
 20
0.0
 30
0.0
 70
   128
 71
   142
 72
   140
 73
   150
  0
VERTEX
  5
474
  8
0
 62
    43
 10
0.0
 20
0.0
 30
0.0
 70
   128
 71
   151
 72
   146
 73
   149
  0
VERTEX
  5
475
  8
0
 62
    43
 10
0.0
 20
0.0
 30
0.0
 70
   128
 71
   150
 72
   140
 73
   143
  0
VERTEX
  5
476
  8
0
 62
    43
 10
0.0
 20
0.0
 30
0.0
 70
   128
 71
   152
 72
   145
 73
   146
  0
VERTEX
  5
477
  8
0
 62
    43
 10
0.0
 20
0.0
 30
0.0
 70
   128
 71
   155
 72
   154
 73
   153
  0
VERTEX
  5
478
  8
0
 62
    43
 10
0.0
 20
0.0
 30
0.0
 70
   128
 71
   152
 72
   146
 73
   151
  0
VERTEX
  5
479
  8
0
 62
    43
 10
0.0
 20
0.0
 30
0.0
 70
   128
 71
   156
 72
   152
 73
   151
  0
VERTEX
  5
47A
  8
0
 62
    43
 10
0.0
 20
0.0
 30
0.0
 70
   128
 71
   140
 72
   157
 73
   144
  0
VERTEX
  5
47B
  8
0
 62
    43
 10
0.0
 20
0.0
 30
0.0
 70
   128
 71
   140
 72
   141
 73
   158
  0
VERTEX
  5
47C
  8
0
 62
    43
 10
0.0
 20
0.0
 30
0.0
 70
   128
 71
   157
 72
   159
 73
   144
  0
VERTEX
  5
47D
  8
0
 62
    43
 10
0.0
 20
0.0
 30
0.0
 70
   128
 71
   160
 72
   159
 73
   157
  0
VERTEX
  5
47E
  8
0
 62
    43
 10
0.0
 20
0.0
 30
0.0
 70
   128
 71
   161
 72
   160
 73
   157
  0
VERTEX
  5
47F
  8
0
 62
    43
 10
0.0
 20
0.0
 30
0.0
 70
   128
 71
   161
 72
   163
 73
   162
  0
VERTEX
  5
480
  8
0
 62
    43
 10
0.0
 20
0.0
 30
0.0
 70
   128
 71
   160
 72
   161
 73
   162
  0
VERTEX
  5
481
  8
0
 62
    43
 10
0.0
 20
0.0
 30
0.0
 70
   128
 71
   165
 72
   164
 73
   161
  0
VERTEX
  5
482
  8
0
 62
    43
 10
0.0
 20
0.0
 30
0.0
 70
   128
 71
   161
 72
   164
 73
   163
  0
VERTEX
  5
483
  8
0
 62
    43
 10
0.0
 20
0.0
 30
0.0
 70
   128
 71
   166
 72
   163
 73
   164
  0
VERTEX
  5
484
  8
0
 62
    43
 10
0.0
 20
0.0
 30
0.0
 70
   128
 71
   137
 72
   166
 73
   164
  0
VERTEX
  5
485
  8
0
 62
    43
 10
0.0
 20
0.0
 30
0.0
 70
   128
 71
   137
 72
   138
 73
   167
  0
VERTEX
  5
486
  8
0
 62
    43
 10
0.0
 20
0.0
 30
0.0
 70
   128
 71
   137
 72
   167
 73
   168
  0
VERTEX
  5
487
  8
0
 62
    43
 10
0.0
 20
0.0
 30
0.0
 70
   128
 71
   167
 72
   169
 73
   168
  0
VERTEX
  5
488
  8
0
 62
    43
 10
0.0
 20
0.0
 30
0.0
 70
   128
 71
   170
 72
   139
 73
   164
  0
VERTEX
  5
489
  8
0
 62
    43
 10
0.0
 20
0.0
 30
0.0
 70
   128
 71
   137
 72
   168
 73
   166
  0
VERTEX
  5
48A
  8
0
 62
    43
 10
0.0
 20
0.0
 30
0.0
 70
   128
 71
   137
 72
   164
 73
   139
  0
VERTEX
  5
48B
  8
0
 62
    43
 10
0.0
 20
0.0
 30
0.0
 70
   128
 71
   170
 72
   164
 73
   165
  0
VERTEX
  5
48C
  8
0
 62
    43
 10
0.0
 20
0.0
 30
0.0
 70
   128
 71
   161
 72
   171
 73
   165
  0
VERTEX
  5
48D
  8
0
 62
    43
 10
0.0
 20
0.0
 30
0.0
 70
   128
 71
   157
 72
   172
 73
   171
  0
VERTEX
  5
48E
  8
0
 62
    43
 10
0.0
 20
0.0
 30
0.0
 70
   128
 71
   161
 72
   157
 73
   171
  0
VERTEX
  5
48F
  8
0
 62
    43
 10
0.0
 20
0.0
 30
0.0
 70
   128
 71
   172
 72
   157
 73
   158
  0
VERTEX
  5
490
  8
0
 62
    43
 10
0.0
 20
0.0
 30
0.0
 70
   128
 71
   157
 72
   140
 73
   158
  0
VERTEX
  5
491
  8
0
 62
    43
 10
0.0
 20
0.0
 30
0.0
 70
   128
 71
   142
 72
   173
 73
   141
  0
VERTEX
  5
492
  8
0
 62
    43
 10
0.0
 20
0.0
 30
0.0
 70
   128
 71
   173
 72
   142
 73
   147
  0
VERTEX
  5
493
  8
0
 62
    43
 10
0.0
 20
0.0
 30
0.0
 70
   128
 71
   142
 72
   150
 73
   148
  0
VERTEX
  5
494
  8
0
 62
    43
 10
0.0
 20
0.0
 30
0.0
 70
   128
 71
   142
 72
   146
 73
   147
  0
VERTEX
  5
495
  8
0
 62
    43
 10
0.0
 20
0.0
 30
0.0
 70
   128
 71
   152
 72
   155
 73
   145
  0
VERTEX
  5
496
  8
0
 62
    43
 10
0.0
 20
0.0
 30
0.0
 70
   128
 71
   152
 72
   154
 73
   155
  0
VERTEX
  5
497
  8
0
 62
    43
 10
0.0
 20
0.0
 30
0.0
 70
   128
 71
   154
 72
   152
 73
   156
  0
VERTEX
  5
498
  8
0
 62
    43
 10
0.0
 20
0.0
 30
0.0
 70
   128
 71
   144
 72
   159
 73
   174
  0
VERTEX
  5
499
  8
0
 62
    43
 10
0.0
 20
0.0
 30
0.0
 70
   128
 71
   176
 72
   169
 73
   175
  0
VERTEX
  5
49A
  8
0
 62
    43
 10
0.0
 20
0.0
 30
0.0
 70
   128
 71
   144
 72
   177
 73
   143
  0
VERTEX
  5
49B
  8
0
 62
    43
 10
0.0
 20
0.0
 30
0.0
 70
   128
 71
   177
 72
   144
 73
   174
  0
VERTEX
  5
49C
  8
0
 62
    43
 10
0.0
 20
0.0
 30
0.0
 70
   128
 71
   178
 72
   150
 73
   143
  0
VERTEX
  5
49D
  8
0
 62
    43
 10
0.0
 20
0.0
 30
0.0
 70
   128
 71
   143
 72
   177
 73
   178
  0
VERTEX
  5
49E
  8
0
 62
    43
 10
0.0
 20
0.0
 30
0.0
 70
   128
 71
   148
 72
   150
 73
   179
  0
VERTEX
  5
49F
  8
0
 62
    43
 10
0.0
 20
0.0
 30
0.0
 70
   128
 71
   178
 72
   179
 73
   150
  0
VERTEX
  5
4A0
  8
0
 62
    43
 10
0.0
 20
0.0
 30
0.0
 70
   128
 71
   148
 72
   180
 73
   149
  0
VERTEX
  5
4A1
  8
0
 62
    43
 10
0.0
 20
0.0
 30
0.0
 70
   128
 71
   180
 72
   148
 73
   179
  0
VERTEX
  5
4A2
  8
0
 62
    43
 10
0.0
 20
0.0
 30
0.0
 70
   128
 71
   181
 72
   151
 73
   149
  0
VERTEX
  5
4A3
  8
0
 62
    43
 10
0.0
 20
0.0
 30
0.0
 70
   128
 71
   149
 72
   180
 73
   181
  0
VERTEX
  5
4A4
  8
0
 62
    43
 10
0.0
 20
0.0
 30
0.0
 70
   128
 71
   181
 72
   182
 73
   151
  0
VERTEX
  5
4A5
  8
0
 62
    43
 10
0.0
 20
0.0
 30
0.0
 70
   128
 71
   182
 72
   156
 73
   151
  0
VERTEX
  5
4A6
  8
0
 62
    43
 10
0.0
 20
0.0
 30
0.0
 70
   128
 71
   183
 72
   174
 73
   159
  0
VERTEX
  5
4A7
  8
0
 62
    43
 10
0.0
 20
0.0
 30
0.0
 70
   128
 71
   160
 72
   184
 73
   183
  0
VERTEX
  5
4A8
  8
0
 62
    43
 10
0.0
 20
0.0
 30
0.0
 70
   128
 71
   183
 72
   159
 73
   160
  0
VERTEX
  5
4A9
  8
0
 62
    43
 10
0.0
 20
0.0
 30
0.0
 70
   128
 71
   185
 72
   184
 73
   162
  0
VERTEX
  5
4AA
  8
0
 62
    43
 10
0.0
 20
0.0
 30
0.0
 70
   128
 71
   160
 72
   162
 73
   184
  0
VERTEX
  5
4AB
  8
0
 62
    43
 10
0.0
 20
0.0
 30
0.0
 70
   128
 71
   185
 72
   163
 73
   186
  0
VERTEX
  5
4AC
  8
0
 62
    43
 10
0.0
 20
0.0
 30
0.0
 70
   128
 71
   163
 72
   185
 73
   162
  0
VERTEX
  5
4AD
  8
0
 62
    43
 10
0.0
 20
0.0
 30
0.0
 70
   128
 71
   166
 72
   187
 73
   186
  0
VERTEX
  5
4AE
  8
0
 62
    43
 10
0.0
 20
0.0
 30
0.0
 70
   128
 71
   186
 72
   163
 73
   166
  0
VERTEX
  5
4AF
  8
0
 62
    43
 10
0.0
 20
0.0
 30
0.0
 70
   128
 71
   176
 72
   187
 73
   168
  0
VERTEX
  5
4B0
  8
0
 62
    43
 10
0.0
 20
0.0
 30
0.0
 70
   128
 71
   166
 72
   168
 73
   187
  0
VERTEX
  5
4B1
  8
0
 62
    43
 10
0.0
 20
0.0
 30
0.0
 70
   128
 71
   169
 72
   176
 73
   168
  0
VERTEX
  5
4B2
  8
0
 62
    43
 10
0.0
 20
0.0
 30
0.0
 70
   128
 71
   190
 72
   189
 73
   188
  0
VERTEX
  5
4B3
  8
0
 62
    43
 10
0.0
 20
0.0
 30
0.0
 70
   128
 71
   193
 72
   192
 73
   191
  0
VERTEX
  5
4B4
  8
0
 62
    43
 10
0.0
 20
0.0
 30
0.0
 70
   128
 71
   196
 72
   195
 73
   194
  0
VERTEX
  5
4B5
  8
0
 62
    43
 10
0.0
 20
0.0
 30
0.0
 70
   128
 71
   199
 72
   198
 73
   197
  0
VERTEX
  5
4B6
  8
0
 62
    43
 10
0.0
 20
0.0
 30
0.0
 70
   128
 71
   188
 72
   189
 73
   200
  0
VERTEX
  5
4B7
  8
0
 62
    43
 10
0.0
 20
0.0
 30
0.0
 70
   128
 71
   203
 72
   202
 73
   201
  0
VERTEX
  5
4B8
  8
0
 62
    43
 10
0.0
 20
0.0
 30
0.0
 70
   128
 71
   205
 72
   204
 73
   198
  0
VERTEX
  5
4B9
  8
0
 62
    43
 10
0.0
 20
0.0
 30
0.0
 70
   128
 71
   207
 72
   193
 73
   206
  0
VERTEX
  5
4BA
  8
0
 62
    43
 10
0.0
 20
0.0
 30
0.0
 70
   128
 71
   209
 72
   208
 73
   202
  0
VERTEX
  5
4BB
  8
0
 62
    43
 10
0.0
 20
0.0
 30
0.0
 70
   128
 71
   212
 72
   211
 73
   210
  0
VERTEX
  5
4BC
  8
0
 62
    43
 10
0.0
 20
0.0
 30
0.0
 70
   128
 71
   210
 72
   213
 73
   193
  0
VERTEX
  5
4BD
  8
0
 62
    43
 10
0.0
 20
0.0
 30
0.0
 70
   128
 71
   210
 72
   211
 73
   214
  0
VERTEX
  5
4BE
  8
0
 62
    43
 10
0.0
 20
0.0
 30
0.0
 70
   128
 71
   214
 72
   211
 73
   182
  0
VERTEX
  5
4BF
  8
0
 62
    43
 10
0.0
 20
0.0
 30
0.0
 70
   128
 71
   215
 72
   210
 73
   214
  0
VERTEX
  5
4C0
  8
0
 62
    43
 10
0.0
 20
0.0
 30
0.0
 70
   128
 71
   193
 72
   212
 73
   210
  0
VERTEX
  5
4C1
  8
0
 62
    43
 10
0.0
 20
0.0
 30
0.0
 70
   128
 71
   207
 72
   192
 73
   193
  0
VERTEX
  5
4C2
  8
0
 62
    43
 10
0.0
 20
0.0
 30
0.0
 70
   128
 71
   205
 72
   202
 73
   204
  0
VERTEX
  5
4C3
  8
0
 62
    43
 10
0.0
 20
0.0
 30
0.0
 70
   128
 71
   192
 72
   201
 73
   202
  0
VERTEX
  5
4C4
  8
0
 62
    43
 10
0.0
 20
0.0
 30
0.0
 70
   128
 71
   205
 72
   217
 73
   216
  0
VERTEX
  5
4C5
  8
0
 62
    43
 10
0.0
 20
0.0
 30
0.0
 70
   128
 71
   203
 72
   204
 73
   202
  0
VERTEX
  5
4C6
  8
0
 62
    43
 10
0.0
 20
0.0
 30
0.0
 70
   128
 71
   205
 72
   199
 73
   218
  0
VERTEX
  5
4C7
  8
0
 62
    43
 10
0.0
 20
0.0
 30
0.0
 70
   128
 71
   199
 72
   205
 73
   198
  0
VERTEX
  5
4C8
  8
0
 62
    43
 10
0.0
 20
0.0
 30
0.0
 70
   128
 71
   189
 72
   219
 73
   200
  0
VERTEX
  5
4C9
  8
0
 62
    43
 10
0.0
 20
0.0
 30
0.0
 70
   128
 71
   199
 72
   197
 73
   219
  0
VERTEX
  5
4CA
  8
0
 62
    43
 10
0.0
 20
0.0
 30
0.0
 70
   128
 71
   199
 72
   219
 73
   189
  0
VERTEX
  5
4CB
  8
0
 62
    43
 10
0.0
 20
0.0
 30
0.0
 70
   128
 71
   175
 72
   188
 73
   196
  0
VERTEX
  5
4CC
  8
0
 62
    43
 10
0.0
 20
0.0
 30
0.0
 70
   128
 71
   200
 72
   195
 73
   188
  0
VERTEX
  5
4CD
  8
0
 62
    43
 10
0.0
 20
0.0
 30
0.0
 70
   128
 71
   193
 72
   191
 73
   212
  0
VERTEX
  5
4CE
  8
0
 62
    43
 10
0.0
 20
0.0
 30
0.0
 70
   128
 71
   215
 72
   213
 73
   210
  0
VERTEX
  5
4CF
  8
0
 62
    43
 10
0.0
 20
0.0
 30
0.0
 70
   128
 71
   192
 72
   220
 73
   191
  0
VERTEX
  5
4D0
  8
0
 62
    43
 10
0.0
 20
0.0
 30
0.0
 70
   128
 71
   206
 72
   193
 73
   213
  0
VERTEX
  5
4D1
  8
0
 62
    43
 10
0.0
 20
0.0
 30
0.0
 70
   128
 71
   220
 72
   192
 73
   208
  0
VERTEX
  5
4D2
  8
0
 62
    43
 10
0.0
 20
0.0
 30
0.0
 70
   128
 71
   192
 72
   207
 73
   201
  0
VERTEX
  5
4D3
  8
0
 62
    43
 10
0.0
 20
0.0
 30
0.0
 70
   128
 71
   192
 72
   202
 73
   208
  0
VERTEX
  5
4D4
  8
0
 62
    43
 10
0.0
 20
0.0
 30
0.0
 70
   128
 71
   216
 72
   209
 73
   202
  0
VERTEX
  5
4D5
  8
0
 62
    43
 10
0.0
 20
0.0
 30
0.0
 70
   128
 71
   202
 72
   205
 73
   216
  0
VERTEX
  5
4D6
  8
0
 62
    43
 10
0.0
 20
0.0
 30
0.0
 70
   128
 71
   217
 72
   205
 73
   218
  0
VERTEX
  5
4D7
  8
0
 62
    43
 10
0.0
 20
0.0
 30
0.0
 70
   128
 71
   199
 72
   221
 73
   218
  0
VERTEX
  5
4D8
  8
0
 62
    43
 10
0.0
 20
0.0
 30
0.0
 70
   128
 71
   189
 72
   222
 73
   221
  0
VERTEX
  5
4D9
  8
0
 62
    43
 10
0.0
 20
0.0
 30
0.0
 70
   128
 71
   199
 72
   189
 73
   221
  0
VERTEX
  5
4DA
  8
0
 62
    43
 10
0.0
 20
0.0
 30
0.0
 70
   128
 71
   222
 72
   189
 73
   190
  0
VERTEX
  5
4DB
  8
0
 62
    43
 10
0.0
 20
0.0
 30
0.0
 70
   128
 71
   190
 72
   188
 73
   175
  0
VERTEX
  5
4DC
  8
0
 62
    43
 10
0.0
 20
0.0
 30
0.0
 70
   128
 71
   188
 72
   195
 73
   196
  0
VERTEX
  5
4DD
  8
0
 62
    43
 10
0.0
 20
0.0
 30
0.0
 70
   128
 71
   225
 72
   224
 73
   223
  0
VERTEX
  5
4DE
  8
0
 62
    43
 10
0.0
 20
0.0
 30
0.0
 70
   128
 71
   228
 72
   227
 73
   226
  0
VERTEX
  5
4DF
  8
0
 62
    43
 10
0.0
 20
0.0
 30
0.0
 70
   128
 71
   230
 72
   229
 73
   223
  0
VERTEX
  5
4E0
  8
0
 62
    43
 10
0.0
 20
0.0
 30
0.0
 70
   128
 71
   231
 72
   228
 73
   226
  0
VERTEX
  5
4E1
  8
0
 62
    43
 10
0.0
 20
0.0
 30
0.0
 70
   128
 71
   226
 72
   227
 73
   232
  0
VERTEX
  5
4E2
  8
0
 62
    43
 10
0.0
 20
0.0
 30
0.0
 70
   128
 71
   227
 72
   228
 73
   233
  0
VERTEX
  5
4E3
  8
0
 62
    43
 10
0.0
 20
0.0
 30
0.0
 70
   128
 71
   230
 72
   233
 73
   228
  0
VERTEX
  5
4E4
  8
0
 62
    43
 10
0.0
 20
0.0
 30
0.0
 70
   128
 71
   230
 72
   213
 73
   233
  0
VERTEX
  5
4E5
  8
0
 62
    43
 10
0.0
 20
0.0
 30
0.0
 70
   128
 71
   233
 72
   213
 73
   215
  0
VERTEX
  5
4E6
  8
0
 62
    43
 10
0.0
 20
0.0
 30
0.0
 70
   128
 71
   206
 72
   213
 73
   207
  0
VERTEX
  5
4E7
  8
0
 62
    43
 10
0.0
 20
0.0
 30
0.0
 70
   128
 71
   223
 72
   213
 73
   230
  0
VERTEX
  5
4E8
  8
0
 62
    43
 10
0.0
 20
0.0
 30
0.0
 70
   128
 71
   223
 72
   207
 73
   213
  0
VERTEX
  5
4E9
  8
0
 62
    43
 10
0.0
 20
0.0
 30
0.0
 70
   128
 71
   224
 72
   201
 73
   207
  0
VERTEX
  5
4EA
  8
0
 62
    43
 10
0.0
 20
0.0
 30
0.0
 70
   128
 71
   207
 72
   223
 73
   224
  0
VERTEX
  5
4EB
  8
0
 62
    43
 10
0.0
 20
0.0
 30
0.0
 70
   128
 71
   201
 72
   195
 73
   203
  0
VERTEX
  5
4EC
  8
0
 62
    43
 10
0.0
 20
0.0
 30
0.0
 70
   128
 71
   200
 72
   204
 73
   195
  0
VERTEX
  5
4ED
  8
0
 62
    43
 10
0.0
 20
0.0
 30
0.0
 70
   128
 71
   201
 72
   224
 73
   195
  0
VERTEX
  5
4EE
  8
0
 62
    43
 10
0.0
 20
0.0
 30
0.0
 70
   128
 71
   200
 72
   197
 73
   204
  0
VERTEX
  5
4EF
  8
0
 62
    43
 10
0.0
 20
0.0
 30
0.0
 70
   128
 71
   197
 72
   198
 73
   204
  0
VERTEX
  5
4F0
  8
0
 62
    43
 10
0.0
 20
0.0
 30
0.0
 70
   128
 71
   195
 72
   204
 73
   203
  0
VERTEX
  5
4F1
  8
0
 62
    43
 10
0.0
 20
0.0
 30
0.0
 70
   128
 71
   200
 72
   219
 73
   197
  0
VERTEX
  5
4F2
  8
0
 62
    43
 10
0.0
 20
0.0
 30
0.0
 70
   128
 71
   224
 72
   194
 73
   195
  0
VERTEX
  5
4F3
  8
0
 62
    43
 10
0.0
 20
0.0
 30
0.0
 70
   128
 71
   235
 72
   224
 73
   234
  0
VERTEX
  5
4F4
  8
0
 62
    43
 10
0.0
 20
0.0
 30
0.0
 70
   128
 71
   234
 72
   236
 73
   186
  0
VERTEX
  5
4F5
  8
0
 62
    43
 10
0.0
 20
0.0
 30
0.0
 70
   128
 71
   186
 72
   187
 73
   234
  0
VERTEX
  5
4F6
  8
0
 62
    43
 10
0.0
 20
0.0
 30
0.0
 70
   128
 71
   176
 72
   175
 73
   196
  0
VERTEX
  5
4F7
  8
0
 62
    43
 10
0.0
 20
0.0
 30
0.0
 70
   128
 71
   236
 72
   229
 73
   237
  0
VERTEX
  5
4F8
  8
0
 62
    43
 10
0.0
 20
0.0
 30
0.0
 70
   128
 71
   239
 72
   178
 73
   238
  0
VERTEX
  5
4F9
  8
0
 62
    43
 10
0.0
 20
0.0
 30
0.0
 70
   128
 71
   177
 72
   174
 73
   238
  0
VERTEX
  5
4FA
  8
0
 62
    43
 10
0.0
 20
0.0
 30
0.0
 70
   128
 71
   227
 72
   240
 73
   232
  0
VERTEX
  5
4FB
  8
0
 62
    43
 10
0.0
 20
0.0
 30
0.0
 70
   128
 71
   226
 72
   239
 73
   231
  0
VERTEX
  5
4FC
  8
0
 62
    43
 10
0.0
 20
0.0
 30
0.0
 70
   128
 71
   241
 72
   240
 73
   227
  0
VERTEX
  5
4FD
  8
0
 62
    43
 10
0.0
 20
0.0
 30
0.0
 70
   128
 71
   240
 72
   241
 73
   181
  0
VERTEX
  5
4FE
  8
0
 62
    43
 10
0.0
 20
0.0
 30
0.0
 70
   128
 71
   241
 72
   227
 73
   233
  0
VERTEX
  5
4FF
  8
0
 62
    43
 10
0.0
 20
0.0
 30
0.0
 70
   128
 71
   214
 72
   233
 73
   215
  0
VERTEX
  5
500
  8
0
 62
    43
 10
0.0
 20
0.0
 30
0.0
 70
   128
 71
   182
 72
   241
 73
   214
  0
VERTEX
  5
501
  8
0
 62
    43
 10
0.0
 20
0.0
 30
0.0
 70
   128
 71
   226
 72
   232
 73
   239
  0
VERTEX
  5
502
  8
0
 62
    43
 10
0.0
 20
0.0
 30
0.0
 70
   128
 71
   240
 72
   239
 73
   232
  0
VERTEX
  5
503
  8
0
 62
    43
 10
0.0
 20
0.0
 30
0.0
 70
   128
 71
   223
 72
   234
 73
   225
  0
VERTEX
  5
504
  8
0
 62
    43
 10
0.0
 20
0.0
 30
0.0
 70
   128
 71
   238
 72
   237
 73
   228
  0
VERTEX
  5
505
  8
0
 62
    43
 10
0.0
 20
0.0
 30
0.0
 70
   128
 71
   239
 72
   238
 73
   231
  0
VERTEX
  5
506
  8
0
 62
    43
 10
0.0
 20
0.0
 30
0.0
 70
   128
 71
   231
 72
   238
 73
   228
  0
VERTEX
  5
507
  8
0
 62
    43
 10
0.0
 20
0.0
 30
0.0
 70
   128
 71
   230
 72
   237
 73
   229
  0
VERTEX
  5
508
  8
0
 62
    43
 10
0.0
 20
0.0
 30
0.0
 70
   128
 71
   230
 72
   228
 73
   237
  0
VERTEX
  5
509
  8
0
 62
    43
 10
0.0
 20
0.0
 30
0.0
 70
   128
 71
   183
 72
   184
 73
   237
  0
VERTEX
  5
50A
  8
0
 62
    43
 10
0.0
 20
0.0
 30
0.0
 70
   128
 71
   236
 72
   234
 73
   223
  0
VERTEX
  5
50B
  8
0
 62
    43
 10
0.0
 20
0.0
 30
0.0
 70
   128
 71
   234
 72
   187
 73
   235
  0
VERTEX
  5
50C
  8
0
 62
    43
 10
0.0
 20
0.0
 30
0.0
 70
   128
 71
   194
 72
   235
 73
   196
  0
VERTEX
  5
50D
  8
0
 62
    43
 10
0.0
 20
0.0
 30
0.0
 70
   128
 71
   235
 72
   176
 73
   196
  0
VERTEX
  5
50E
  8
0
 62
    43
 10
0.0
 20
0.0
 30
0.0
 70
   128
 71
   194
 72
   224
 73
   235
  0
VERTEX
  5
50F
  8
0
 62
    43
 10
0.0
 20
0.0
 30
0.0
 70
   128
 71
   235
 72
   187
 73
   176
  0
VERTEX
  5
510
  8
0
 62
    43
 10
0.0
 20
0.0
 30
0.0
 70
   128
 71
   236
 72
   185
 73
   186
  0
VERTEX
  5
511
  8
0
 62
    43
 10
0.0
 20
0.0
 30
0.0
 70
   128
 71
   225
 72
   234
 73
   224
  0
VERTEX
  5
512
  8
0
 62
    43
 10
0.0
 20
0.0
 30
0.0
 70
   128
 71
   185
 72
   236
 73
   184
  0
VERTEX
  5
513
  8
0
 62
    43
 10
0.0
 20
0.0
 30
0.0
 70
   128
 71
   236
 72
   223
 73
   229
  0
VERTEX
  5
514
  8
0
 62
    43
 10
0.0
 20
0.0
 30
0.0
 70
   128
 71
   236
 72
   237
 73
   184
  0
VERTEX
  5
515
  8
0
 62
    43
 10
0.0
 20
0.0
 30
0.0
 70
   128
 71
   174
 72
   183
 73
   237
  0
VERTEX
  5
516
  8
0
 62
    43
 10
0.0
 20
0.0
 30
0.0
 70
   128
 71
   237
 72
   238
 73
   174
  0
VERTEX
  5
517
  8
0
 62
    43
 10
0.0
 20
0.0
 30
0.0
 70
   128
 71
   177
 72
   238
 73
   178
  0
VERTEX
  5
518
  8
0
 62
    43
 10
0.0
 20
0.0
 30
0.0
 70
   128
 71
   239
 72
   179
 73
   178
  0
VERTEX
  5
519
  8
0
 62
    43
 10
0.0
 20
0.0
 30
0.0
 70
   128
 71
   240
 72
   180
 73
   179
  0
VERTEX
  5
51A
  8
0
 62
    43
 10
0.0
 20
0.0
 30
0.0
 70
   128
 71
   239
 72
   240
 73
   179
  0
VERTEX
  5
51B
  8
0
 62
    43
 10
0.0
 20
0.0
 30
0.0
 70
   128
 71
   180
 72
   240
 73
   181
  0
VERTEX
  5
51C
  8
0
 62
    43
 10
0.0
 20
0.0
 30
0.0
 70
   128
 71
   181
 72
   241
 73
   182
  0
VERTEX
  5
51D
  8
0
 62
    43
 10
0.0
 20
0.0
 30
0.0
 70
   128
 71
   241
 72
   233
 73
   214
  0
VERTEX
  5
51E
  8
0
 62
    43
 10
0.0
 20
0.0
 30
0.0
 70
   128
 71
   211
 72
   242
 73
   156
  0
VERTEX
  5
51F
  8
0
 62
    43
 10
0.0
 20
0.0
 30
0.0
 70
   128
 71
   243
 72
   212
 73
   191
  0
VERTEX
  5
520
  8
0
 62
    43
 10
0.0
 20
0.0
 30
0.0
 70
   128
 71
   245
 72
   244
 73
   209
  0
VERTEX
  5
521
  8
0
 62
    43
 10
0.0
 20
0.0
 30
0.0
 70
   128
 71
   208
 72
   246
 73
   220
  0
VERTEX
  5
522
  8
0
 62
    43
 10
0.0
 20
0.0
 30
0.0
 70
   128
 71
   218
 72
   247
 73
   217
  0
VERTEX
  5
523
  8
0
 62
    43
 10
0.0
 20
0.0
 30
0.0
 70
   128
 71
   216
 72
   217
 73
   248
  0
VERTEX
  5
524
  8
0
 62
    43
 10
0.0
 20
0.0
 30
0.0
 70
   128
 71
   222
 72
   249
 73
   221
  0
VERTEX
  5
525
  8
0
 62
    43
 10
0.0
 20
0.0
 30
0.0
 70
   128
 71
   250
 72
   221
 73
   249
  0
VERTEX
  5
526
  8
0
 62
    43
 10
0.0
 20
0.0
 30
0.0
 70
   128
 71
   251
 72
   222
 73
   190
  0
VERTEX
  5
527
  8
0
 62
    43
 10
0.0
 20
0.0
 30
0.0
 70
   128
 71
   222
 72
   251
 73
   249
  0
VERTEX
  5
528
  8
0
 62
    43
 10
0.0
 20
0.0
 30
0.0
 70
   128
 71
   190
 72
   175
 73
   252
  0
VERTEX
  5
529
  8
0
 62
    43
 10
0.0
 20
0.0
 30
0.0
 70
   128
 71
   252
 72
   251
 73
   190
  0
VERTEX
  5
52A
  8
0
 62
    43
 10
0.0
 20
0.0
 30
0.0
 70
   128
 71
   252
 72
   175
 73
   169
  0
VERTEX
  5
52B
  8
0
 62
    43
 10
0.0
 20
0.0
 30
0.0
 70
   128
 71
   247
 72
   218
 73
   250
  0
VERTEX
  5
52C
  8
0
 62
    43
 10
0.0
 20
0.0
 30
0.0
 70
   128
 71
   218
 72
   221
 73
   250
  0
VERTEX
  5
52D
  8
0
 62
    43
 10
0.0
 20
0.0
 30
0.0
 70
   128
 71
   245
 72
   216
 73
   248
  0
VERTEX
  5
52E
  8
0
 62
    43
 10
0.0
 20
0.0
 30
0.0
 70
   128
 71
   217
 72
   247
 73
   248
  0
VERTEX
  5
52F
  8
0
 62
    43
 10
0.0
 20
0.0
 30
0.0
 70
   128
 71
   209
 72
   244
 73
   208
  0
VERTEX
  5
530
  8
0
 62
    43
 10
0.0
 20
0.0
 30
0.0
 70
   128
 71
   216
 72
   245
 73
   209
  0
VERTEX
  5
531
  8
0
 62
    43
 10
0.0
 20
0.0
 30
0.0
 70
   128
 71
   246
 72
   253
 73
   220
  0
VERTEX
  5
532
  8
0
 62
    43
 10
0.0
 20
0.0
 30
0.0
 70
   128
 71
   244
 72
   246
 73
   208
  0
VERTEX
  5
533
  8
0
 62
    43
 10
0.0
 20
0.0
 30
0.0
 70
   128
 71
   191
 72
   253
 73
   243
  0
VERTEX
  5
534
  8
0
 62
    43
 10
0.0
 20
0.0
 30
0.0
 70
   128
 71
   253
 72
   191
 73
   220
  0
VERTEX
  5
535
  8
0
 62
    43
 10
0.0
 20
0.0
 30
0.0
 70
   128
 71
   211
 72
   212
 73
   242
  0
VERTEX
  5
536
  8
0
 62
    43
 10
0.0
 20
0.0
 30
0.0
 70
   128
 71
   242
 72
   212
 73
   243
  0
VERTEX
  5
537
  8
0
 62
    43
 10
0.0
 20
0.0
 30
0.0
 70
   128
 71
   182
 72
   211
 73
   156
  0
VERTEX
  5
538
  8
0
 62
    43
 10
0.0
 20
0.0
 30
0.0
 70
   128
 71
   256
 72
   255
 73
   254
  0
VERTEX
  5
539
  8
0
 62
    43
 10
0.0
 20
0.0
 30
0.0
 70
   128
 71
   257
 72
   244
 73
   245
  0
VERTEX
  5
53A
  8
0
 62
    43
 10
0.0
 20
0.0
 30
0.0
 70
   128
 71
   243
 72
   254
 73
   258
  0
VERTEX
  5
53B
  8
0
 62
    43
 10
0.0
 20
0.0
 30
0.0
 70
   128
 71
   258
 72
   259
 73
   153
  0
VERTEX
  5
53C
  8
0
 62
    43
 10
0.0
 20
0.0
 30
0.0
 70
   128
 71
   260
 72
   247
 73
   250
  0
VERTEX
  5
53D
  8
0
 62
    43
 10
0.0
 20
0.0
 30
0.0
 70
   128
 71
   245
 72
   248
 73
   257
  0
VERTEX
  5
53E
  8
0
 62
    43
 10
0.0
 20
0.0
 30
0.0
 70
   128
 71
   262
 72
   261
 73
   249
  0
VERTEX
  5
53F
  8
0
 62
    43
 10
0.0
 20
0.0
 30
0.0
 70
   128
 71
   261
 72
   260
 73
   250
  0
VERTEX
  5
540
  8
0
 62
    43
 10
0.0
 20
0.0
 30
0.0
 70
   128
 71
   264
 72
   263
 73
   262
  0
VERTEX
  5
541
  8
0
 62
    43
 10
0.0
 20
0.0
 30
0.0
 70
   128
 71
   252
 72
   262
 73
   251
  0
VERTEX
  5
542
  8
0
 62
    43
 10
0.0
 20
0.0
 30
0.0
 70
   128
 71
   169
 72
   264
 73
   252
  0
VERTEX
  5
543
  8
0
 62
    43
 10
0.0
 20
0.0
 30
0.0
 70
   128
 71
   264
 72
   262
 73
   252
  0
VERTEX
  5
544
  8
0
 62
    43
 10
0.0
 20
0.0
 30
0.0
 70
   128
 71
   262
 72
   249
 73
   251
  0
VERTEX
  5
545
  8
0
 62
    43
 10
0.0
 20
0.0
 30
0.0
 70
   128
 71
   138
 72
   265
 73
   167
  0
VERTEX
  5
546
  8
0
 62
    43
 10
0.0
 20
0.0
 30
0.0
 70
   128
 71
   248
 72
   247
 73
   260
  0
VERTEX
  5
547
  8
0
 62
    43
 10
0.0
 20
0.0
 30
0.0
 70
   128
 71
   260
 72
   261
 73
   266
  0
VERTEX
  5
548
  8
0
 62
    43
 10
0.0
 20
0.0
 30
0.0
 70
   128
 71
   262
 72
   263
 73
   267
  0
VERTEX
  5
549
  8
0
 62
    43
 10
0.0
 20
0.0
 30
0.0
 70
   128
 71
   246
 72
   256
 73
   253
  0
VERTEX
  5
54A
  8
0
 62
    43
 10
0.0
 20
0.0
 30
0.0
 70
   128
 71
   257
 72
   248
 73
   260
  0
VERTEX
  5
54B
  8
0
 62
    43
 10
0.0
 20
0.0
 30
0.0
 70
   128
 71
   268
 72
   260
 73
   266
  0
VERTEX
  5
54C
  8
0
 62
    43
 10
0.0
 20
0.0
 30
0.0
 70
   128
 71
   256
 72
   246
 73
   244
  0
VERTEX
  5
54D
  8
0
 62
    43
 10
0.0
 20
0.0
 30
0.0
 70
   128
 71
   256
 72
   244
 73
   257
  0
VERTEX
  5
54E
  8
0
 62
    43
 10
0.0
 20
0.0
 30
0.0
 70
   128
 71
   254
 72
   243
 73
   253
  0
VERTEX
  5
54F
  8
0
 62
    43
 10
0.0
 20
0.0
 30
0.0
 70
   128
 71
   253
 72
   256
 73
   254
  0
VERTEX
  5
550
  8
0
 62
    43
 10
0.0
 20
0.0
 30
0.0
 70
   128
 71
   258
 72
   242
 73
   243
  0
VERTEX
  5
551
  8
0
 62
    43
 10
0.0
 20
0.0
 30
0.0
 70
   128
 71
   242
 72
   154
 73
   156
  0
VERTEX
  5
552
  8
0
 62
    43
 10
0.0
 20
0.0
 30
0.0
 70
   128
 71
   258
 72
   153
 73
   154
  0
VERTEX
  5
553
  8
0
 62
    43
 10
0.0
 20
0.0
 30
0.0
 70
   128
 71
   242
 72
   258
 73
   154
  0
VERTEX
  5
554
  8
0
 62
    43
 10
0.0
 20
0.0
 30
0.0
 70
   128
 71
   269
 72
   259
 73
   254
  0
VERTEX
  5
555
  8
0
 62
    43
 10
0.0
 20
0.0
 30
0.0
 70
   128
 71
   258
 72
   254
 73
   259
  0
VERTEX
  5
556
  8
0
 62
    43
 10
0.0
 20
0.0
 30
0.0
 70
   128
 71
   269
 72
   254
 73
   255
  0
VERTEX
  5
557
  8
0
 62
    43
 10
0.0
 20
0.0
 30
0.0
 70
   128
 71
   256
 72
   270
 73
   255
  0
VERTEX
  5
558
  8
0
 62
    43
 10
0.0
 20
0.0
 30
0.0
 70
   128
 71
   257
 72
   271
 73
   270
  0
VERTEX
  5
559
  8
0
 62
    43
 10
0.0
 20
0.0
 30
0.0
 70
   128
 71
   256
 72
   257
 73
   270
  0
VERTEX
  5
55A
  8
0
 62
    43
 10
0.0
 20
0.0
 30
0.0
 70
   128
 71
   271
 72
   257
 73
   268
  0
VERTEX
  5
55B
  8
0
 62
    43
 10
0.0
 20
0.0
 30
0.0
 70
   128
 71
   257
 72
   260
 73
   268
  0
VERTEX
  5
55C
  8
0
 62
    43
 10
0.0
 20
0.0
 30
0.0
 70
   128
 71
   261
 72
   272
 73
   266
  0
VERTEX
  5
55D
  8
0
 62
    43
 10
0.0
 20
0.0
 30
0.0
 70
   128
 71
   272
 72
   261
 73
   267
  0
VERTEX
  5
55E
  8
0
 62
    43
 10
0.0
 20
0.0
 30
0.0
 70
   128
 71
   261
 72
   250
 73
   249
  0
VERTEX
  5
55F
  8
0
 62
    43
 10
0.0
 20
0.0
 30
0.0
 70
   128
 71
   261
 72
   262
 73
   267
  0
VERTEX
  5
560
  8
0
 62
    43
 10
0.0
 20
0.0
 30
0.0
 70
   128
 71
   264
 72
   265
 73
   263
  0
VERTEX
  5
561
  8
0
 62
    43
 10
0.0
 20
0.0
 30
0.0
 70
   128
 71
   264
 72
   167
 73
   265
  0
VERTEX
  5
562
  8
0
 62
    43
 10
0.0
 20
0.0
 30
0.0
 70
   128
 71
   167
 72
   264
 73
   169
  0
VERTEX
  5
563
  8
0
 62
    43
 10
0.0
 20
0.0
 30
0.0
 70
   128
 71
   139
 72
   170
 73
   165
  0
VERTEX
  5
564
  8
0
 62
    43
 10
0.0
 20
0.0
 30
0.0
 70
   128
 71
   172
 72
   158
 73
   155
  0
VERTEX
  5
565
  8
0
 62
    43
 10
0.0
 20
0.0
 30
0.0
 70
   128
 71
   147
 72
   145
 73
   173
  0
VERTEX
  5
566
  8
0
 62
    43
 10
0.0
 20
0.0
 30
0.0
 70
   128
 71
   158
 72
   173
 73
   145
  0
VERTEX
  5
567
  8
0
 62
    43
 10
0.0
 20
0.0
 30
0.0
 70
   128
 71
   158
 72
   145
 73
   155
  0
VERTEX
  5
568
  8
0
 62
    43
 10
0.0
 20
0.0
 30
0.0
 70
   128
 71
   173
 72
   158
 73
   141
  0
VERTEX
  5
569
  8
0
 62
    43
 10
0.0
 20
0.0
 30
0.0
 70
   128
 71
   155
 72
   259
 73
   172
  0
VERTEX
  5
56A
  8
0
 62
    43
 10
0.0
 20
0.0
 30
0.0
 70
   128
 71
   171
 72
   172
 73
   259
  0
VERTEX
  5
56B
  8
0
 62
    43
 10
0.0
 20
0.0
 30
0.0
 70
   128
 71
   259
 72
   155
 73
   153
  0
VERTEX
  5
56C
  8
0
 62
    43
 10
0.0
 20
0.0
 30
0.0
 70
   128
 71
   259
 72
   269
 73
   255
  0
VERTEX
  5
56D
  8
0
 62
    43
 10
0.0
 20
0.0
 30
0.0
 70
   128
 71
   259
 72
   165
 73
   171
  0
VERTEX
  5
56E
  8
0
 62
    43
 10
0.0
 20
0.0
 30
0.0
 70
   128
 71
   255
 72
   165
 73
   259
  0
VERTEX
  5
56F
  8
0
 62
    43
 10
0.0
 20
0.0
 30
0.0
 70
   128
 71
   271
 72
   255
 73
   270
  0
VERTEX
  5
570
  8
0
 62
    43
 10
0.0
 20
0.0
 30
0.0
 70
   128
 71
   165
 72
   255
 73
   139
  0
VERTEX
  5
571
  8
0
 62
    43
 10
0.0
 20
0.0
 30
0.0
 70
   128
 71
   139
 72
   255
 73
   271
  0
VERTEX
  5
572
  8
0
 62
    43
 10
0.0
 20
0.0
 30
0.0
 70
   128
 71
   265
 72
   139
 73
   271
  0
VERTEX
  5
573
  8
0
 62
    43
 10
0.0
 20
0.0
 30
0.0
 70
   128
 71
   265
 72
   271
 73
   268
  0
VERTEX
  5
574
  8
0
 62
    43
 10
0.0
 20
0.0
 30
0.0
 70
   128
 71
   272
 72
   263
 73
   268
  0
VERTEX
  5
575
  8
0
 62
    43
 10
0.0
 20
0.0
 30
0.0
 70
   128
 71
   266
 72
   272
 73
   268
  0
VERTEX
  5
576
  8
0
 62
    43
 10
0.0
 20
0.0
 30
0.0
 70
   128
 71
   265
 72
   268
 73
   263
  0
VERTEX
  5
577
  8
0
 62
    43
 10
0.0
 20
0.0
 30
0.0
 70
   128
 71
   267
 72
   263
 73
   272
  0
VERTEX
  5
578
  8
0
 62
    43
 10
0.0
 20
0.0
 30
0.0
 70
   128
 71
   138
 72
   139
 73
   265
  0
SEQEND
  5
579
  8
0
 62
    43
  0
ENDBLK
  5
57C
  8
0
  0
BLOCK
  8
0
  2
M907096
 70
     0
 10
0.0
 20
0.0
 30
0.0
  3
M907096
  1

  0
POLYLINE
  5
57E
  8
0
 62
    43
 66
     1
 10
0.0
 20
0.0
 30
0.0
 70
    64
 71
   120
 72
   192
  0
VERTEX
  5
57F
  8
0
 10
-2.999000072479248
 20
-31.95371055603027
 30
7.370261192321777
 70
   192
  0
VERTEX
  5
580
  8
0
 10
11.03489971160889
 20
-31.47662544250488
 30
7.260220050811768
 70
   192
  0
VERTEX
  5
581
  8
0
 10
-2.999000072479248
 20
-29.45617866516113
 30
14.30601024627686
 70
   192
  0
VERTEX
  5
582
  8
0
 10
11.03489971160889
 20
-32.33370208740234
 30
0.000000000000016
 70
   192
  0
VERTEX
  5
583
  8
0
 10
-2.999000072479248
 20
-32.82377624511719
 30
-0.0000000000000094
 70
   192
  0
VERTEX
  5
584
  8
0
 10
11.03489971160889
 20
-29.01638412475586
 30
14.09241485595703
 70
   192
  0
VERTEX
  5
585
  8
0
 10
-2.999000072479248
 20
-25.52795219421387
 30
20.47175407409668
 70
   192
  0
VERTEX
  5
586
  8
0
 10
11.03489971160889
 20
-25.14680862426758
 30
20.16610145568848
 70
   192
  0
VERTEX
  5
587
  8
0
 10
11.03489971160889
 20
-20.04515075683594
 30
25.24874877929688
 70
   192
  0
VERTEX
  5
588
  8
0
 10
-2.999000072479248
 20
-20.34897041320801
 30
25.63143920898438
 70
   192
  0
VERTEX
  5
589
  8
0
 10
-2.999000072479248
 20
-14.11463165283203
 30
29.53889274597168
 70
   192
  0
VERTEX
  5
58A
  8
0
 10
11.03489971160889
 20
-13.90389347076416
 30
29.09786224365234
 70
   192
  0
VERTEX
  5
58B
  8
0
 10
11.03489971160889
 20
-7.19868803024292
 30
31.47146224975586
 70
   192
  0
VERTEX
  5
58C
  8
0
 10
-2.999000072479248
 20
-7.307796955108643
 30
31.9484691619873
 70
   192
  0
VERTEX
  5
58D
  8
0
 10
11.03489971160889
 20
-0.000000000000004
 30
32.33370208740234
 70
   192
  0
VERTEX
  5
58E
  8
0
 10
-2.999000072479248
 20
-0.000000000000004
 30
32.82377624511719
 70
   192
  0
VERTEX
  5
58F
  8
0
 10
-2.999000072479248
 20
-31.99623870849609
 30
-7.243216991424561
 70
   192
  0
VERTEX
  5
590
  8
0
 10
11.03489971160889
 20
-31.51852035522461
 30
-7.135072708129883
 70
   192
  0
VERTEX
  5
591
  8
0
 10
-2.999000072479248
 20
-29.58697128295898
 30
-14.18874931335449
 70
   192
  0
VERTEX
  5
592
  8
0
 10
11.03489971160889
 20
-29.14522361755371
 30
-13.97690391540527
 70
   192
  0
VERTEX
  5
593
  8
0
 10
11.03489971160889
 20
-25.33219528198242
 30
-20.17394638061523
 70
   192
  0
VERTEX
  5
594
  8
0
 10
-2.999000072479248
 20
-25.71615028381348
 30
-20.4797191619873
 70
   192
  0
VERTEX
  5
595
  8
0
 10
-2.999000072479248
 20
-20.53364562988281
 30
-25.7000904083252
 70
   192
  0
VERTEX
  5
596
  8
0
 10
11.03489971160889
 20
-20.22706985473633
 30
-25.31637573242188
 70
   192
  0
VERTEX
  5
597
  8
0
 10
-2.999000072479248
 20
-14.32688903808594
 30
-29.62048721313477
 70
   192
  0
VERTEX
  5
598
  8
0
 10
11.03489971160889
 20
-14.11298179626465
 30
-29.1782398223877
 70
   192
  0
VERTEX
  5
599
  8
0
 10
11.03489971160889
 20
-7.247307300567627
 30
-31.5762996673584
 70
   192
  0
VERTEX
  5
59A
  8
0
 10
-2.999000072479248
 20
-7.357153415679932
 30
-32.05489349365234
 70
   192
  0
VERTEX
  5
59B
  8
0
 10
11.03489971160889
 20
0.0
 30
-32.33370208740234
 70
   192
  0
VERTEX
  5
59C
  8
0
 10
-2.999000072479248
 20
0.0
 30
-32.82377624511719
 70
   192
  0
VERTEX
  5
59D
  8
0
 10
12.0
 20
0.0
 30
31.33431053161621
 70
   192
  0
VERTEX
  5
59E
  8
0
 10
11.71933937072754
 20
-7.030749320983887
 30
31.24777603149414
 70
   192
  0
VERTEX
  5
59F
  8
0
 10
12.0
 20
-7.075583934783936
 30
30.51096153259277
 70
   192
  0
VERTEX
  5
5A0
  8
0
 10
11.71933937072754
 20
-32.02896881103516
 30
0.0000000000000014
 70
   192
  0
VERTEX
  5
5A1
  8
0
 10
12.0
 20
-30.55545616149902
 30
-6.852054595947266
 70
   192
  0
VERTEX
  5
5A2
  8
0
 10
12.0
 20
-31.33431053161621
 30
0.0000000000000195
 70
   192
  0
VERTEX
  5
5A3
  8
0
 10
11.71933937072754
 20
-29.5652027130127
 30
-12.31883430480957
 70
   192
  0
VERTEX
  5
5A4
  8
0
 10
12.0
 20
-28.2485523223877
 30
-13.55508995056152
 70
   192
  0
VERTEX
  5
5A5
  8
0
 10
11.71933937072754
 20
-23.19339179992676
 30
-22.08894538879395
 70
   192
  0
VERTEX
  5
5A6
  8
0
 10
12.0
 20
-24.54708480834961
 30
-19.43851852416992
 70
   192
  0
VERTEX
  5
5A7
  8
0
 10
11.71933937072754
 20
-15.07245635986328
 30
-28.26085472106934
 70
   192
  0
VERTEX
  5
5A8
  8
0
 10
12.0
 20
-13.64985084533691
 30
-28.18525505065918
 70
   192
  0
VERTEX
  5
5A9
  8
0
 10
12.0
 20
-19.5964527130127
 30
-24.44158744812012
 70
   192
  0
VERTEX
  5
5AA
  8
0
 10
12.0
 20
-7.075583934783936
 30
-30.51096153259277
 70
   192
  0
VERTEX
  5
5AB
  8
0
 10
11.71933937072754
 20
-7.030749320983887
 30
-31.24777603149414
 70
   192
  0
VERTEX
  5
5AC
  8
0
 10
11.71933937072754
 20
-0.0000000000000039
 30
-32.02896881103516
 70
   192
  0
VERTEX
  5
5AD
  8
0
 10
12.0
 20
-0.0000000000000038
 30
-31.33431053161621
 70
   192
  0
VERTEX
  5
5AE
  8
0
 10
11.71933937072754
 20
-29.5652027130127
 30
12.31883430480957
 70
   192
  0
VERTEX
  5
5AF
  8
0
 10
12.0
 20
-30.51096153259277
 30
7.075583934783936
 70
   192
  0
VERTEX
  5
5B0
  8
0
 10
12.0
 20
-28.18525505065918
 30
13.64985084533691
 70
   192
  0
VERTEX
  5
5B1
  8
0
 10
11.71933937072754
 20
-23.19339179992676
 30
22.08894538879395
 70
   192
  0
VERTEX
  5
5B2
  8
0
 10
12.0
 20
-24.44158744812012
 30
19.5964527130127
 70
   192
  0
VERTEX
  5
5B3
  8
0
 10
12.0
 20
-19.43851852416992
 30
24.54708480834961
 70
   192
  0
VERTEX
  5
5B4
  8
0
 10
11.71933937072754
 20
-15.07245635986328
 30
28.26085472106934
 70
   192
  0
VERTEX
  5
5B5
  8
0
 10
12.0
 20
-13.55508995056152
 30
28.2485523223877
 70
   192
  0
VERTEX
  5
5B6
  8
0
 10
11.71933937072754
 20
0.0000000000000078
 30
32.02896881103516
 70
   192
  0
VERTEX
  5
5B7
  8
0
 10
12.0
 20
24.36955451965332
 30
19.54279327392578
 70
   192
  0
VERTEX
  5
5B8
  8
0
 10
12.0
 20
6.976186275482178
 30
30.49872207641602
 70
   192
  0
VERTEX
  5
5B9
  8
0
 10
12.0
 20
30.50372695922852
 30
7.035816192626953
 70
   192
  0
VERTEX
  5
5BA
  8
0
 10
12.0
 20
19.42558097839355
 30
24.46834373474121
 70
   192
  0
VERTEX
  5
5BB
  8
0
 10
12.0
 20
19.60187721252441
 30
-24.53388023376465
 70
   192
  0
VERTEX
  5
5BC
  8
0
 10
12.0
 20
24.5492115020752
 30
-19.5503978729248
 70
   192
  0
VERTEX
  5
5BD
  8
0
 10
12.0
 20
28.244384765625
 30
-13.54489707946777
 70
   192
  0
VERTEX
  5
5BE
  8
0
 10
12.0
 20
7.023303031921387
 30
-30.60032081604004
 70
   192
  0
VERTEX
  5
5BF
  8
0
 10
12.0
 20
13.67676830291748
 30
-28.27638053894043
 70
   192
  0
VERTEX
  5
5C0
  8
0
 10
12.0
 20
30.54432487487793
 30
-6.914536952972412
 70
   192
  0
VERTEX
  5
5C1
  8
0
 10
12.0
 20
28.11952590942383
 30
13.65683746337891
 70
   192
  0
VERTEX
  5
5C2
  8
0
 10
12.0
 20
31.33431053161621
 30
-0.0000000000000044
 70
   192
  0
VERTEX
  5
5C3
  8
0
 10
12.0
 20
13.47414302825928
 30
28.198486328125
 70
   192
  0
VERTEX
  5
5C4
  8
0
 10
11.71933937072754
 20
15.07245635986328
 30
-28.26085472106934
 70
   192
  0
VERTEX
  5
5C5
  8
0
 10
11.71933937072754
 20
7.030749320983887
 30
-31.24777603149414
 70
   192
  0
VERTEX
  5
5C6
  8
0
 10
11.71933937072754
 20
23.19339179992676
 30
-22.08894538879395
 70
   192
  0
VERTEX
  5
5C7
  8
0
 10
11.03489971160889
 20
14.11298179626465
 30
-29.1782398223877
 70
   192
  0
VERTEX
  5
5C8
  8
0
 10
11.03489971160889
 20
7.247307300567627
 30
-31.5762996673584
 70
   192
  0
VERTEX
  5
5C9
  8
0
 10
11.71933937072754
 20
29.5652027130127
 30
-12.31883430480957
 70
   192
  0
VERTEX
  5
5CA
  8
0
 10
11.71933937072754
 20
29.5652027130127
 30
12.31883430480957
 70
   192
  0
VERTEX
  5
5CB
  8
0
 10
11.71933937072754
 20
32.02896881103516
 30
-0.0000000000000035
 70
   192
  0
VERTEX
  5
5CC
  8
0
 10
11.71933937072754
 20
23.19339179992676
 30
22.08894538879395
 70
   192
  0
VERTEX
  5
5CD
  8
0
 10
11.03489971160889
 20
20.04515075683594
 30
25.24874877929688
 70
   192
  0
VERTEX
  5
5CE
  8
0
 10
11.03489971160889
 20
25.14680862426758
 30
20.16610145568848
 70
   192
  0
VERTEX
  5
5CF
  8
0
 10
11.71933937072754
 20
15.07245635986328
 30
28.26085472106934
 70
   192
  0
VERTEX
  5
5D0
  8
0
 10
11.03489971160889
 20
7.19868803024292
 30
31.47146224975586
 70
   192
  0
VERTEX
  5
5D1
  8
0
 10
11.71933937072754
 20
7.030749320983887
 30
31.24777603149414
 70
   192
  0
VERTEX
  5
5D2
  8
0
 10
11.03489971160889
 20
31.47662544250488
 30
7.260220050811768
 70
   192
  0
VERTEX
  5
5D3
  8
0
 10
11.03489971160889
 20
29.01638412475586
 30
14.09241485595703
 70
   192
  0
VERTEX
  5
5D4
  8
0
 10
11.03489971160889
 20
20.22706985473633
 30
-25.31637573242188
 70
   192
  0
VERTEX
  5
5D5
  8
0
 10
11.03489971160889
 20
29.14522361755371
 30
-13.97690391540527
 70
   192
  0
VERTEX
  5
5D6
  8
0
 10
11.03489971160889
 20
25.33219528198242
 30
-20.17394638061523
 70
   192
  0
VERTEX
  5
5D7
  8
0
 10
11.03489971160889
 20
31.51852035522461
 30
-7.135072708129883
 70
   192
  0
VERTEX
  5
5D8
  8
0
 10
11.03489971160889
 20
32.33370208740234
 30
0.0000000000000053
 70
   192
  0
VERTEX
  5
5D9
  8
0
 10
11.03489971160889
 20
13.90389347076416
 30
29.09786224365234
 70
   192
  0
VERTEX
  5
5DA
  8
0
 10
-2.999000072479248
 20
7.357153415679932
 30
32.05489349365234
 70
   192
  0
VERTEX
  5
5DB
  8
0
 10
-2.999000072479248
 20
20.53364562988281
 30
25.7000904083252
 70
   192
  0
VERTEX
  5
5DC
  8
0
 10
-2.999000072479248
 20
14.32688903808594
 30
29.62048721313477
 70
   192
  0
VERTEX
  5
5DD
  8
0
 10
-2.999000072479248
 20
31.99623870849609
 30
7.243216991424561
 70
   192
  0
VERTEX
  5
5DE
  8
0
 10
-2.999000072479248
 20
29.58697128295898
 30
14.18874931335449
 70
   192
  0
VERTEX
  5
5DF
  8
0
 10
-2.999000072479248
 20
25.71615028381348
 30
20.4797191619873
 70
   192
  0
VERTEX
  5
5E0
  8
0
 10
-2.999000072479248
 20
29.45617866516113
 30
-14.30601024627686
 70
   192
  0
VERTEX
  5
5E1
  8
0
 10
-2.999000072479248
 20
31.95371055603027
 30
-7.370261192321777
 70
   192
  0
VERTEX
  5
5E2
  8
0
 10
-2.999000072479248
 20
32.82377624511719
 30
-0.0000000000000053
 70
   192
  0
VERTEX
  5
5E3
  8
0
 10
-2.999000072479248
 20
20.34897041320801
 30
-25.63143920898438
 70
   192
  0
VERTEX
  5
5E4
  8
0
 10
-2.999000072479248
 20
25.52795219421387
 30
-20.47175407409668
 70
   192
  0
VERTEX
  5
5E5
  8
0
 10
-2.999000072479248
 20
14.11463165283203
 30
-29.53889274597168
 70
   192
  0
VERTEX
  5
5E6
  8
0
 10
-2.999000072479248
 20
7.307796955108643
 30
-31.9484691619873
 70
   192
  0
VERTEX
  5
5E7
  8
0
 10
-3.0
 20
23.20991516113281
 30
23.20991516113281
 70
   192
  0
VERTEX
  5
5E8
  8
0
 10
-3.0
 20
-12.55274295806885
 30
-30.32871055603027
 70
   192
  0
VERTEX
  5
5E9
  8
0
 10
-3.0
 20
-23.20991516113281
 30
-23.20991516113281
 70
   192
  0
VERTEX
  5
5EA
  8
0
 10
-3.0
 20
30.32871055603027
 30
-12.55274295806885
 70
   192
  0
VERTEX
  5
5EB
  8
0
 10
-3.0
 20
12.55274295806885
 30
-30.32871055603027
 70
   192
  0
VERTEX
  5
5EC
  8
0
 10
-3.0
 20
32.82381057739258
 30
0.0
 70
   192
  0
VERTEX
  5
5ED
  8
0
 10
-3.0
 20
23.20991516113281
 30
-23.20991516113281
 70
   192
  0
VERTEX
  5
5EE
  8
0
 10
-3.0
 20
0.0
 30
-32.82381057739258
 70
   192
  0
VERTEX
  5
5EF
  8
0
 10
-3.0
 20
30.32871055603027
 30
12.55274295806885
 70
   192
  0
VERTEX
  5
5F0
  8
0
 10
-3.0
 20
0.0000000000000138
 30
32.82381057739258
 70
   192
  0
VERTEX
  5
5F1
  8
0
 10
-3.0
 20
12.55274295806885
 30
30.32871055603027
 70
   192
  0
VERTEX
  5
5F2
  8
0
 10
-3.0
 20
-30.32871055603027
 30
-12.55274295806885
 70
   192
  0
VERTEX
  5
5F3
  8
0
 10
-3.0
 20
-12.55274295806885
 30
30.32871055603027
 70
   192
  0
VERTEX
  5
5F4
  8
0
 10
-3.0
 20
-30.32871055603027
 30
12.55274295806885
 70
   192
  0
VERTEX
  5
5F5
  8
0
 10
-3.0
 20
-23.20991516113281
 30
23.20991516113281
 70
   192
  0
VERTEX
  5
5F6
  8
0
 10
-3.0
 20
-32.82381057739258
 30
0.0000000000000382
 70
   192
  0
VERTEX
  5
5F7
  8
0
 62
    43
 10
0.0
 20
0.0
 30
0.0
 70
   128
 71
     3
 72
     2
 73
     1
  0
VERTEX
  5
5F8
  8
0
 62
    43
 10
0.0
 20
0.0
 30
0.0
 70
   128
 71
     5
 72
     1
 73
     4
  0
VERTEX
  5
5F9
  8
0
 62
    43
 10
0.0
 20
0.0
 30
0.0
 70
   128
 71
     6
 72
     2
 73
     3
  0
VERTEX
  5
5FA
  8
0
 62
    43
 10
0.0
 20
0.0
 30
0.0
 70
   128
 71
     6
 72
     3
 73
     7
  0
VERTEX
  5
5FB
  8
0
 62
    43
 10
0.0
 20
0.0
 30
0.0
 70
   128
 71
     8
 72
     6
 73
     7
  0
VERTEX
  5
5FC
  8
0
 62
    43
 10
0.0
 20
0.0
 30
0.0
 70
   128
 71
    10
 72
     9
 73
     8
  0
VERTEX
  5
5FD
  8
0
 62
    43
 10
0.0
 20
0.0
 30
0.0
 70
   128
 71
     7
 72
    10
 73
     8
  0
VERTEX
  5
5FE
  8
0
 62
    43
 10
0.0
 20
0.0
 30
0.0
 70
   128
 71
    11
 72
     9
 73
    10
  0
VERTEX
  5
5FF
  8
0
 62
    43
 10
0.0
 20
0.0
 30
0.0
 70
   128
 71
     9
 72
    11
 73
    12
  0
VERTEX
  5
600
  8
0
 62
    43
 10
0.0
 20
0.0
 30
0.0
 70
   128
 71
    12
 72
    14
 73
    13
  0
VERTEX
  5
601
  8
0
 62
    43
 10
0.0
 20
0.0
 30
0.0
 70
   128
 71
    12
 72
    11
 73
    14
  0
VERTEX
  5
602
  8
0
 62
    43
 10
0.0
 20
0.0
 30
0.0
 70
   128
 71
    16
 72
    15
 73
    13
  0
VERTEX
  5
603
  8
0
 62
    43
 10
0.0
 20
0.0
 30
0.0
 70
   128
 71
     4
 72
     1
 73
     2
  0
VERTEX
  5
604
  8
0
 62
    43
 10
0.0
 20
0.0
 30
0.0
 70
   128
 71
    14
 72
    16
 73
    13
  0
VERTEX
  5
605
  8
0
 62
    43
 10
0.0
 20
0.0
 30
0.0
 70
   128
 71
     5
 72
    18
 73
    17
  0
VERTEX
  5
606
  8
0
 62
    43
 10
0.0
 20
0.0
 30
0.0
 70
   128
 71
    18
 72
     5
 73
     4
  0
VERTEX
  5
607
  8
0
 62
    43
 10
0.0
 20
0.0
 30
0.0
 70
   128
 71
    20
 72
    19
 73
    17
  0
VERTEX
  5
608
  8
0
 62
    43
 10
0.0
 20
0.0
 30
0.0
 70
   128
 71
    17
 72
    18
 73
    20
  0
VERTEX
  5
609
  8
0
 62
    43
 10
0.0
 20
0.0
 30
0.0
 70
   128
 71
    22
 72
    19
 73
    21
  0
VERTEX
  5
60A
  8
0
 62
    43
 10
0.0
 20
0.0
 30
0.0
 70
   128
 71
    20
 72
    21
 73
    19
  0
VERTEX
  5
60B
  8
0
 62
    43
 10
0.0
 20
0.0
 30
0.0
 70
   128
 71
    22
 72
    24
 73
    23
  0
VERTEX
  5
60C
  8
0
 62
    43
 10
0.0
 20
0.0
 30
0.0
 70
   128
 71
    24
 72
    22
 73
    21
  0
VERTEX
  5
60D
  8
0
 62
    43
 10
0.0
 20
0.0
 30
0.0
 70
   128
 71
    26
 72
    25
 73
    23
  0
VERTEX
  5
60E
  8
0
 62
    43
 10
0.0
 20
0.0
 30
0.0
 70
   128
 71
    23
 72
    24
 73
    26
  0
VERTEX
  5
60F
  8
0
 62
    43
 10
0.0
 20
0.0
 30
0.0
 70
   128
 71
    28
 72
    25
 73
    27
  0
VERTEX
  5
610
  8
0
 62
    43
 10
0.0
 20
0.0
 30
0.0
 70
   128
 71
    26
 72
    27
 73
    25
  0
VERTEX
  5
611
  8
0
 62
    43
 10
0.0
 20
0.0
 30
0.0
 70
   128
 71
    29
 72
    28
 73
    27
  0
VERTEX
  5
612
  8
0
 62
    43
 10
0.0
 20
0.0
 30
0.0
 70
   128
 71
    30
 72
    28
 73
    29
  0
VERTEX
  5
613
  8
0
 62
    43
 10
0.0
 20
0.0
 30
0.0
 70
   128
 71
    33
 72
    32
 73
    31
  0
VERTEX
  5
614
  8
0
 62
    43
 10
0.0
 20
0.0
 30
0.0
 70
   128
 71
    36
 72
    35
 73
    34
  0
VERTEX
  5
615
  8
0
 62
    43
 10
0.0
 20
0.0
 30
0.0
 70
   128
 71
    35
 72
    38
 73
    37
  0
VERTEX
  5
616
  8
0
 62
    43
 10
0.0
 20
0.0
 30
0.0
 70
   128
 71
    37
 72
    38
 73
    39
  0
VERTEX
  5
617
  8
0
 62
    43
 10
0.0
 20
0.0
 30
0.0
 70
   128
 71
    39
 72
    24
 73
    21
  0
VERTEX
  5
618
  8
0
 62
    43
 10
0.0
 20
0.0
 30
0.0
 70
   128
 71
    40
 72
    39
 73
    38
  0
VERTEX
  5
619
  8
0
 62
    43
 10
0.0
 20
0.0
 30
0.0
 70
   128
 71
    43
 72
    42
 73
    41
  0
VERTEX
  5
61A
  8
0
 62
    43
 10
0.0
 20
0.0
 30
0.0
 70
   128
 71
    43
 72
    39
 73
    40
  0
VERTEX
  5
61B
  8
0
 62
    43
 10
0.0
 20
0.0
 30
0.0
 70
   128
 71
    45
 72
    42
 73
    44
  0
VERTEX
  5
61C
  8
0
 62
    43
 10
0.0
 20
0.0
 30
0.0
 70
   128
 71
    41
 72
    39
 73
    43
  0
VERTEX
  5
61D
  8
0
 62
    43
 10
0.0
 20
0.0
 30
0.0
 70
   128
 71
    41
 72
    42
 73
    45
  0
VERTEX
  5
61E
  8
0
 62
    43
 10
0.0
 20
0.0
 30
0.0
 70
   128
 71
    44
 72
    47
 73
    46
  0
VERTEX
  5
61F
  8
0
 62
    43
 10
0.0
 20
0.0
 30
0.0
 70
   128
 71
    27
 72
    41
 73
    45
  0
VERTEX
  5
620
  8
0
 62
    43
 10
0.0
 20
0.0
 30
0.0
 70
   128
 71
    37
 72
    34
 73
    35
  0
VERTEX
  5
621
  8
0
 62
    43
 10
0.0
 20
0.0
 30
0.0
 70
   128
 71
    37
 72
    20
 73
    18
  0
VERTEX
  5
622
  8
0
 62
    43
 10
0.0
 20
0.0
 30
0.0
 70
   128
 71
    45
 72
    46
 73
    29
  0
VERTEX
  5
623
  8
0
 62
    43
 10
0.0
 20
0.0
 30
0.0
 70
   128
 71
    49
 72
    34
 73
    48
  0
VERTEX
  5
624
  8
0
 62
    43
 10
0.0
 20
0.0
 30
0.0
 70
   128
 71
    50
 72
    49
 73
    48
  0
VERTEX
  5
625
  8
0
 62
    43
 10
0.0
 20
0.0
 30
0.0
 70
   128
 71
    49
 72
    36
 73
    34
  0
VERTEX
  5
626
  8
0
 62
    43
 10
0.0
 20
0.0
 30
0.0
 70
   128
 71
    52
 72
    48
 73
    51
  0
VERTEX
  5
627
  8
0
 62
    43
 10
0.0
 20
0.0
 30
0.0
 70
   128
 71
    48
 72
    52
 73
    50
  0
VERTEX
  5
628
  8
0
 62
    43
 10
0.0
 20
0.0
 30
0.0
 70
   128
 71
    54
 72
    53
 73
    51
  0
VERTEX
  5
629
  8
0
 62
    43
 10
0.0
 20
0.0
 30
0.0
 70
   128
 71
     6
 72
    51
 73
    48
  0
VERTEX
  5
62A
  8
0
 62
    43
 10
0.0
 20
0.0
 30
0.0
 70
   128
 71
    55
 72
    53
 73
    54
  0
VERTEX
  5
62B
  8
0
 62
    43
 10
0.0
 20
0.0
 30
0.0
 70
   128
 71
    54
 72
    51
 73
     9
  0
VERTEX
  5
62C
  8
0
 62
    43
 10
0.0
 20
0.0
 30
0.0
 70
   128
 71
    33
 72
    54
 73
    32
  0
VERTEX
  5
62D
  8
0
 62
    43
 10
0.0
 20
0.0
 30
0.0
 70
   128
 71
    54
 72
    33
 73
    55
  0
VERTEX
  5
62E
  8
0
 62
    43
 10
0.0
 20
0.0
 30
0.0
 70
   128
 71
    32
 72
    56
 73
    31
  0
VERTEX
  5
62F
  8
0
 62
    43
 10
0.0
 20
0.0
 30
0.0
 70
   128
 71
    12
 72
    32
 73
    54
  0
VERTEX
  5
630
  8
0
 62
    43
 10
0.0
 20
0.0
 30
0.0
 70
   128
 71
    56
 72
    13
 73
    15
  0
VERTEX
  5
631
  8
0
 62
    43
 10
0.0
 20
0.0
 30
0.0
 70
   128
 71
    32
 72
    13
 73
    56
  0
VERTEX
  5
632
  8
0
 62
    43
 10
0.0
 20
0.0
 30
0.0
 70
   128
 71
    13
 72
    32
 73
    12
  0
VERTEX
  5
633
  8
0
 62
    43
 10
0.0
 20
0.0
 30
0.0
 70
   128
 71
    54
 72
     9
 73
    12
  0
VERTEX
  5
634
  8
0
 62
    43
 10
0.0
 20
0.0
 30
0.0
 70
   128
 71
    51
 72
     8
 73
     9
  0
VERTEX
  5
635
  8
0
 62
    43
 10
0.0
 20
0.0
 30
0.0
 70
   128
 71
     8
 72
    51
 73
     6
  0
VERTEX
  5
636
  8
0
 62
    43
 10
0.0
 20
0.0
 30
0.0
 70
   128
 71
    51
 72
    53
 73
    52
  0
VERTEX
  5
637
  8
0
 62
    43
 10
0.0
 20
0.0
 30
0.0
 70
   128
 71
    48
 72
     2
 73
     6
  0
VERTEX
  5
638
  8
0
 62
    43
 10
0.0
 20
0.0
 30
0.0
 70
   128
 71
    34
 72
     4
 73
     2
  0
VERTEX
  5
639
  8
0
 62
    43
 10
0.0
 20
0.0
 30
0.0
 70
   128
 71
    34
 72
    18
 73
     4
  0
VERTEX
  5
63A
  8
0
 62
    43
 10
0.0
 20
0.0
 30
0.0
 70
   128
 71
    48
 72
    34
 73
     2
  0
VERTEX
  5
63B
  8
0
 62
    43
 10
0.0
 20
0.0
 30
0.0
 70
   128
 71
    34
 72
    37
 73
    18
  0
VERTEX
  5
63C
  8
0
 62
    43
 10
0.0
 20
0.0
 30
0.0
 70
   128
 71
    20
 72
    37
 73
    21
  0
VERTEX
  5
63D
  8
0
 62
    43
 10
0.0
 20
0.0
 30
0.0
 70
   128
 71
    37
 72
    39
 73
    21
  0
VERTEX
  5
63E
  8
0
 62
    43
 10
0.0
 20
0.0
 30
0.0
 70
   128
 71
    41
 72
    26
 73
    24
  0
VERTEX
  5
63F
  8
0
 62
    43
 10
0.0
 20
0.0
 30
0.0
 70
   128
 71
    39
 72
    41
 73
    24
  0
VERTEX
  5
640
  8
0
 62
    43
 10
0.0
 20
0.0
 30
0.0
 70
   128
 71
    26
 72
    41
 73
    27
  0
VERTEX
  5
641
  8
0
 62
    43
 10
0.0
 20
0.0
 30
0.0
 70
   128
 71
    27
 72
    45
 73
    29
  0
VERTEX
  5
642
  8
0
 62
    43
 10
0.0
 20
0.0
 30
0.0
 70
   128
 71
    45
 72
    44
 73
    46
  0
VERTEX
  5
643
  8
0
 62
    43
 10
0.0
 20
0.0
 30
0.0
 70
   128
 71
    53
 72
    55
 73
    33
  0
VERTEX
  5
644
  8
0
 62
    43
 10
0.0
 20
0.0
 30
0.0
 70
   128
 71
    57
 72
    42
 73
    43
  0
VERTEX
  5
645
  8
0
 62
    43
 10
0.0
 20
0.0
 30
0.0
 70
   128
 71
    49
 72
    50
 73
    53
  0
VERTEX
  5
646
  8
0
 62
    43
 10
0.0
 20
0.0
 30
0.0
 70
   128
 71
    50
 72
    52
 73
    53
  0
VERTEX
  5
647
  8
0
 62
    43
 10
0.0
 20
0.0
 30
0.0
 70
   128
 71
    33
 72
    49
 73
    53
  0
VERTEX
  5
648
  8
0
 62
    43
 10
0.0
 20
0.0
 30
0.0
 70
   128
 71
    49
 72
    33
 73
    35
  0
VERTEX
  5
649
  8
0
 62
    43
 10
0.0
 20
0.0
 30
0.0
 70
   128
 71
    36
 72
    49
 73
    35
  0
VERTEX
  5
64A
  8
0
 62
    43
 10
0.0
 20
0.0
 30
0.0
 70
   128
 71
    40
 72
    38
 73
    35
  0
VERTEX
  5
64B
  8
0
 62
    43
 10
0.0
 20
0.0
 30
0.0
 70
   128
 71
    35
 72
    33
 73
    58
  0
VERTEX
  5
64C
  8
0
 62
    43
 10
0.0
 20
0.0
 30
0.0
 70
   128
 71
    42
 72
    59
 73
    44
  0
VERTEX
  5
64D
  8
0
 62
    43
 10
0.0
 20
0.0
 30
0.0
 70
   128
 71
    57
 72
    40
 73
    60
  0
VERTEX
  5
64E
  8
0
 62
    43
 10
0.0
 20
0.0
 30
0.0
 70
   128
 71
    63
 72
    62
 73
    61
  0
VERTEX
  5
64F
  8
0
 62
    43
 10
0.0
 20
0.0
 30
0.0
 70
   128
 71
    64
 72
    44
 73
    59
  0
VERTEX
  5
650
  8
0
 62
    43
 10
0.0
 20
0.0
 30
0.0
 70
   128
 71
    44
 72
    64
 73
    47
  0
VERTEX
  5
651
  8
0
 62
    43
 10
0.0
 20
0.0
 30
0.0
 70
   128
 71
    65
 72
    64
 73
    61
  0
VERTEX
  5
652
  8
0
 62
    43
 10
0.0
 20
0.0
 30
0.0
 70
   128
 71
    61
 72
    66
 73
    63
  0
VERTEX
  5
653
  8
0
 62
    43
 10
0.0
 20
0.0
 30
0.0
 70
   128
 71
    66
 72
    64
 73
    59
  0
VERTEX
  5
654
  8
0
 62
    43
 10
0.0
 20
0.0
 30
0.0
 70
   128
 71
    64
 72
    66
 73
    61
  0
VERTEX
  5
655
  8
0
 62
    43
 10
0.0
 20
0.0
 30
0.0
 70
   128
 71
    59
 72
    57
 73
    67
  0
VERTEX
  5
656
  8
0
 62
    43
 10
0.0
 20
0.0
 30
0.0
 70
   128
 71
    68
 72
    66
 73
    59
  0
VERTEX
  5
657
  8
0
 62
    43
 10
0.0
 20
0.0
 30
0.0
 70
   128
 71
    57
 72
    43
 73
    40
  0
VERTEX
  5
658
  8
0
 62
    43
 10
0.0
 20
0.0
 30
0.0
 70
   128
 71
    42
 72
    57
 73
    59
  0
VERTEX
  5
659
  8
0
 62
    43
 10
0.0
 20
0.0
 30
0.0
 70
   128
 71
    40
 72
    69
 73
    60
  0
VERTEX
  5
65A
  8
0
 62
    43
 10
0.0
 20
0.0
 30
0.0
 70
   128
 71
    58
 72
    69
 73
    35
  0
VERTEX
  5
65B
  8
0
 62
    43
 10
0.0
 20
0.0
 30
0.0
 70
   128
 71
    40
 72
    35
 73
    69
  0
VERTEX
  5
65C
  8
0
 62
    43
 10
0.0
 20
0.0
 30
0.0
 70
   128
 71
    33
 72
    31
 73
    58
  0
VERTEX
  5
65D
  8
0
 62
    43
 10
0.0
 20
0.0
 30
0.0
 70
   128
 71
    71
 72
    64
 73
    70
  0
VERTEX
  5
65E
  8
0
 62
    43
 10
0.0
 20
0.0
 30
0.0
 70
   128
 71
    72
 72
    70
 73
    61
  0
VERTEX
  5
65F
  8
0
 62
    43
 10
0.0
 20
0.0
 30
0.0
 70
   128
 71
    70
 72
    73
 73
    71
  0
VERTEX
  5
660
  8
0
 62
    43
 10
0.0
 20
0.0
 30
0.0
 70
   128
 71
    74
 72
    29
 73
    46
  0
VERTEX
  5
661
  8
0
 62
    43
 10
0.0
 20
0.0
 30
0.0
 70
   128
 71
    75
 72
    62
 73
    63
  0
VERTEX
  5
662
  8
0
 62
    43
 10
0.0
 20
0.0
 30
0.0
 70
   128
 71
    67
 72
    76
 73
    59
  0
VERTEX
  5
663
  8
0
 62
    43
 10
0.0
 20
0.0
 30
0.0
 70
   128
 71
    77
 72
    75
 73
    66
  0
VERTEX
  5
664
  8
0
 62
    43
 10
0.0
 20
0.0
 30
0.0
 70
   128
 71
    78
 72
    57
 73
    60
  0
VERTEX
  5
665
  8
0
 62
    43
 10
0.0
 20
0.0
 30
0.0
 70
   128
 71
    80
 72
    78
 73
    79
  0
VERTEX
  5
666
  8
0
 62
    43
 10
0.0
 20
0.0
 30
0.0
 70
   128
 71
    83
 72
    82
 73
    81
  0
VERTEX
  5
667
  8
0
 62
    43
 10
0.0
 20
0.0
 30
0.0
 70
   128
 71
    60
 72
    69
 73
    81
  0
VERTEX
  5
668
  8
0
 62
    43
 10
0.0
 20
0.0
 30
0.0
 70
   128
 71
    58
 72
    31
 73
    56
  0
VERTEX
  5
669
  8
0
 62
    43
 10
0.0
 20
0.0
 30
0.0
 70
   128
 71
    69
 72
    83
 73
    81
  0
VERTEX
  5
66A
  8
0
 62
    43
 10
0.0
 20
0.0
 30
0.0
 70
   128
 71
    83
 72
    56
 73
    15
  0
VERTEX
  5
66B
  8
0
 62
    43
 10
0.0
 20
0.0
 30
0.0
 70
   128
 71
    58
 72
    83
 73
    69
  0
VERTEX
  5
66C
  8
0
 62
    43
 10
0.0
 20
0.0
 30
0.0
 70
   128
 71
    78
 72
    67
 73
    57
  0
VERTEX
  5
66D
  8
0
 62
    43
 10
0.0
 20
0.0
 30
0.0
 70
   128
 71
    81
 72
    78
 73
    60
  0
VERTEX
  5
66E
  8
0
 62
    43
 10
0.0
 20
0.0
 30
0.0
 70
   128
 71
    76
 72
    77
 73
    59
  0
VERTEX
  5
66F
  8
0
 62
    43
 10
0.0
 20
0.0
 30
0.0
 70
   128
 71
    78
 72
    76
 73
    67
  0
VERTEX
  5
670
  8
0
 62
    43
 10
0.0
 20
0.0
 30
0.0
 70
   128
 71
    70
 72
    65
 73
    61
  0
VERTEX
  5
671
  8
0
 62
    43
 10
0.0
 20
0.0
 30
0.0
 70
   128
 71
    59
 72
    77
 73
    68
  0
VERTEX
  5
672
  8
0
 62
    43
 10
0.0
 20
0.0
 30
0.0
 70
   128
 71
    85
 72
    84
 73
    76
  0
VERTEX
  5
673
  8
0
 62
    43
 10
0.0
 20
0.0
 30
0.0
 70
   128
 71
    66
 72
    75
 73
    63
  0
VERTEX
  5
674
  8
0
 62
    43
 10
0.0
 20
0.0
 30
0.0
 70
   128
 71
    68
 72
    77
 73
    66
  0
VERTEX
  5
675
  8
0
 62
    43
 10
0.0
 20
0.0
 30
0.0
 70
   128
 71
    75
 72
    72
 73
    62
  0
VERTEX
  5
676
  8
0
 62
    43
 10
0.0
 20
0.0
 30
0.0
 70
   128
 71
    72
 72
    86
 73
    70
  0
VERTEX
  5
677
  8
0
 62
    43
 10
0.0
 20
0.0
 30
0.0
 70
   128
 71
    87
 72
    72
 73
    75
  0
VERTEX
  5
678
  8
0
 62
    43
 10
0.0
 20
0.0
 30
0.0
 70
   128
 71
    65
 72
    70
 73
    64
  0
VERTEX
  5
679
  8
0
 62
    43
 10
0.0
 20
0.0
 30
0.0
 70
   128
 71
    74
 72
    71
 73
    73
  0
VERTEX
  5
67A
  8
0
 62
    43
 10
0.0
 20
0.0
 30
0.0
 70
   128
 71
    47
 72
    71
 73
    46
  0
VERTEX
  5
67B
  8
0
 62
    43
 10
0.0
 20
0.0
 30
0.0
 70
   128
 71
    64
 72
    71
 73
    47
  0
VERTEX
  5
67C
  8
0
 62
    43
 10
0.0
 20
0.0
 30
0.0
 70
   128
 71
    71
 72
    74
 73
    46
  0
VERTEX
  5
67D
  8
0
 62
    43
 10
0.0
 20
0.0
 30
0.0
 70
   128
 71
    70
 72
    86
 73
    73
  0
VERTEX
  5
67E
  8
0
 62
    43
 10
0.0
 20
0.0
 30
0.0
 70
   128
 71
    72
 72
    88
 73
    86
  0
VERTEX
  5
67F
  8
0
 62
    43
 10
0.0
 20
0.0
 30
0.0
 70
   128
 71
    88
 72
    72
 73
    87
  0
VERTEX
  5
680
  8
0
 62
    43
 10
0.0
 20
0.0
 30
0.0
 70
   128
 71
    72
 72
    61
 73
    62
  0
VERTEX
  5
681
  8
0
 62
    43
 10
0.0
 20
0.0
 30
0.0
 70
   128
 71
    75
 72
    89
 73
    87
  0
VERTEX
  5
682
  8
0
 62
    43
 10
0.0
 20
0.0
 30
0.0
 70
   128
 71
    77
 72
    90
 73
    89
  0
VERTEX
  5
683
  8
0
 62
    43
 10
0.0
 20
0.0
 30
0.0
 70
   128
 71
    77
 72
    84
 73
    90
  0
VERTEX
  5
684
  8
0
 62
    43
 10
0.0
 20
0.0
 30
0.0
 70
   128
 71
    75
 72
    77
 73
    89
  0
VERTEX
  5
685
  8
0
 62
    43
 10
0.0
 20
0.0
 30
0.0
 70
   128
 71
    77
 72
    76
 73
    84
  0
VERTEX
  5
686
  8
0
 62
    43
 10
0.0
 20
0.0
 30
0.0
 70
   128
 71
    85
 72
    76
 73
    80
  0
VERTEX
  5
687
  8
0
 62
    43
 10
0.0
 20
0.0
 30
0.0
 70
   128
 71
    76
 72
    78
 73
    80
  0
VERTEX
  5
688
  8
0
 62
    43
 10
0.0
 20
0.0
 30
0.0
 70
   128
 71
    81
 72
    91
 73
    79
  0
VERTEX
  5
689
  8
0
 62
    43
 10
0.0
 20
0.0
 30
0.0
 70
   128
 71
    78
 72
    81
 73
    79
  0
VERTEX
  5
68A
  8
0
 62
    43
 10
0.0
 20
0.0
 30
0.0
 70
   128
 71
    91
 72
    81
 73
    82
  0
VERTEX
  5
68B
  8
0
 62
    43
 10
0.0
 20
0.0
 30
0.0
 70
   128
 71
    82
 72
    83
 73
    15
  0
VERTEX
  5
68C
  8
0
 62
    43
 10
0.0
 20
0.0
 30
0.0
 70
   128
 71
    83
 72
    58
 73
    56
  0
VERTEX
  5
68D
  8
0
 62
    43
 10
0.0
 20
0.0
 30
0.0
 70
   128
 71
    82
 72
    15
 73
    92
  0
VERTEX
  5
68E
  8
0
 62
    43
 10
0.0
 20
0.0
 30
0.0
 70
   128
 71
    94
 72
    93
 73
    91
  0
VERTEX
  5
68F
  8
0
 62
    43
 10
0.0
 20
0.0
 30
0.0
 70
   128
 71
    95
 72
    84
 73
    85
  0
VERTEX
  5
690
  8
0
 62
    43
 10
0.0
 20
0.0
 30
0.0
 70
   128
 71
    80
 72
    97
 73
    96
  0
VERTEX
  5
691
  8
0
 62
    43
 10
0.0
 20
0.0
 30
0.0
 70
   128
 71
    89
 72
    98
 73
    87
  0
VERTEX
  5
692
  8
0
 62
    43
 10
0.0
 20
0.0
 30
0.0
 70
   128
 71
    90
 72
   100
 73
    99
  0
VERTEX
  5
693
  8
0
 62
    43
 10
0.0
 20
0.0
 30
0.0
 70
   128
 71
    88
 72
   101
 73
    86
  0
VERTEX
  5
694
  8
0
 62
    43
 10
0.0
 20
0.0
 30
0.0
 70
   128
 71
    88
 72
    87
 73
   102
  0
VERTEX
  5
695
  8
0
 62
    43
 10
0.0
 20
0.0
 30
0.0
 70
   128
 71
   103
 72
    73
 73
    86
  0
VERTEX
  5
696
  8
0
 62
    43
 10
0.0
 20
0.0
 30
0.0
 70
   128
 71
    86
 72
   101
 73
   103
  0
VERTEX
  5
697
  8
0
 62
    43
 10
0.0
 20
0.0
 30
0.0
 70
   128
 71
    74
 72
    73
 73
   104
  0
VERTEX
  5
698
  8
0
 62
    43
 10
0.0
 20
0.0
 30
0.0
 70
   128
 71
   103
 72
   104
 73
    73
  0
VERTEX
  5
699
  8
0
 62
    43
 10
0.0
 20
0.0
 30
0.0
 70
   128
 71
    74
 72
    30
 73
    29
  0
VERTEX
  5
69A
  8
0
 62
    43
 10
0.0
 20
0.0
 30
0.0
 70
   128
 71
    30
 72
    74
 73
   104
  0
VERTEX
  5
69B
  8
0
 62
    43
 10
0.0
 20
0.0
 30
0.0
 70
   128
 71
    92
 72
    94
 73
    82
  0
VERTEX
  5
69C
  8
0
 62
    43
 10
0.0
 20
0.0
 30
0.0
 70
   128
 71
    98
 72
   102
 73
    87
  0
VERTEX
  5
69D
  8
0
 62
    43
 10
0.0
 20
0.0
 30
0.0
 70
   128
 71
   102
 72
   101
 73
    88
  0
VERTEX
  5
69E
  8
0
 62
    43
 10
0.0
 20
0.0
 30
0.0
 70
   128
 71
    99
 72
    98
 73
    89
  0
VERTEX
  5
69F
  8
0
 62
    43
 10
0.0
 20
0.0
 30
0.0
 70
   128
 71
    99
 72
    89
 73
    90
  0
VERTEX
  5
6A0
  8
0
 62
    43
 10
0.0
 20
0.0
 30
0.0
 70
   128
 71
    84
 72
    95
 73
   100
  0
VERTEX
  5
6A1
  8
0
 62
    43
 10
0.0
 20
0.0
 30
0.0
 70
   128
 71
   100
 72
    90
 73
    84
  0
VERTEX
  5
6A2
  8
0
 62
    43
 10
0.0
 20
0.0
 30
0.0
 70
   128
 71
    96
 72
    95
 73
    85
  0
VERTEX
  5
6A3
  8
0
 62
    43
 10
0.0
 20
0.0
 30
0.0
 70
   128
 71
    97
 72
    80
 73
    79
  0
VERTEX
  5
6A4
  8
0
 62
    43
 10
0.0
 20
0.0
 30
0.0
 70
   128
 71
    85
 72
    80
 73
    96
  0
VERTEX
  5
6A5
  8
0
 62
    43
 10
0.0
 20
0.0
 30
0.0
 70
   128
 71
    15
 72
    16
 73
    92
  0
VERTEX
  5
6A6
  8
0
 62
    43
 10
0.0
 20
0.0
 30
0.0
 70
   128
 71
    93
 72
    79
 73
    91
  0
VERTEX
  5
6A7
  8
0
 62
    43
 10
0.0
 20
0.0
 30
0.0
 70
   128
 71
    79
 72
    93
 73
    97
  0
VERTEX
  5
6A8
  8
0
 62
    43
 10
0.0
 20
0.0
 30
0.0
 70
   128
 71
    91
 72
    82
 73
    94
  0
VERTEX
  5
6A9
  8
0
 62
    43
 10
0.0
 20
0.0
 30
0.0
 70
   128
 71
   107
 72
   106
 73
   105
  0
VERTEX
  5
6AA
  8
0
 62
    43
 10
0.0
 20
0.0
 30
0.0
 70
   128
 71
   110
 72
   109
 73
   108
  0
VERTEX
  5
6AB
  8
0
 62
    43
 10
0.0
 20
0.0
 30
0.0
 70
   128
 71
   111
 72
   108
 73
   109
  0
VERTEX
  5
6AC
  8
0
 62
    43
 10
0.0
 20
0.0
 30
0.0
 70
   128
 71
   110
 72
   113
 73
   112
  0
VERTEX
  5
6AD
  8
0
 62
    43
 10
0.0
 20
0.0
 30
0.0
 70
   128
 71
   112
 72
   109
 73
   110
  0
VERTEX
  5
6AE
  8
0
 62
    43
 10
0.0
 20
0.0
 30
0.0
 70
   128
 71
   116
 72
   115
 73
   114
  0
VERTEX
  5
6AF
  8
0
 62
    43
 10
0.0
 20
0.0
 30
0.0
 70
   128
 71
   119
 72
   118
 73
   117
  0
VERTEX
  5
6B0
  8
0
 62
    43
 10
0.0
 20
0.0
 30
0.0
 70
   128
 71
   117
 72
   118
 73
   120
  0
VERTEX
  5
6B1
  8
0
 62
    43
 10
0.0
 20
0.0
 30
0.0
 70
   128
 71
   114
 72
   117
 73
   120
  0
VERTEX
  5
6B2
  8
0
 62
    43
 10
0.0
 20
0.0
 30
0.0
 70
   128
 71
   115
 72
   116
 73
   107
  0
VERTEX
  5
6B3
  8
0
 62
    43
 10
0.0
 20
0.0
 30
0.0
 70
   128
 71
   114
 72
   120
 73
   116
  0
VERTEX
  5
6B4
  8
0
 62
    43
 10
0.0
 20
0.0
 30
0.0
 70
   128
 71
   113
 72
   105
 73
   106
  0
VERTEX
  5
6B5
  8
0
 62
    43
 10
0.0
 20
0.0
 30
0.0
 70
   128
 71
   105
 72
   115
 73
   107
  0
VERTEX
  5
6B6
  8
0
 62
    43
 10
0.0
 20
0.0
 30
0.0
 70
   128
 71
   106
 72
   112
 73
   113
  0
SEQEND
  5
6B7
  8
0
 62
    43
  0
ENDBLK
  5
6BA
  8
0
  0
BLOCK
  8
0
  2
M901455
 70
     0
 10
0.0
 20
0.0
 30
0.0
  3
M901455
  1

  0
POLYLINE
  5
6BC
  8
0
 62
    43
 66
     1
 10
0.0
 20
0.0
 30
0.0
 70
    64
 71
   400
 72
   758
  0
VERTEX
  5
6BD
  8
0
 10
144.5816040039062
 20
-17.27856826782227
 30
-2.514839172363281
 70
   192
  0
VERTEX
  5
6BE
  8
0
 10
144.5816040039062
 20
-17.45948600769043
 30
0.190509632229805
 70
   192
  0
VERTEX
  5
6BF
  8
0
 10
0.0
 20
-17.46500015258789
 30
0.0000000000000037
 70
   192
  0
VERTEX
  5
6C0
  8
0
 10
0.0
 20
-17.24343109130859
 30
2.746041059494019
 70
   192
  0
VERTEX
  5
6C1
  8
0
 10
144.5816040039062
 20
-17.21786308288574
 30
2.914160490036011
 70
   192
  0
VERTEX
  5
6C2
  8
0
 10
144.5816040039062
 20
-16.54251098632812
 30
5.572963714599609
 70
   192
  0
VERTEX
  5
6C3
  8
0
 10
0.0
 20
-16.59158897399902
 30
5.41409969329834
 70
   192
  0
VERTEX
  5
6C4
  8
0
 10
144.5816040039062
 20
-15.46562957763672
 30
8.08487606048584
 70
   192
  0
VERTEX
  5
6C5
  8
0
 10
0.0
 20
-15.53727912902832
 30
7.936093807220459
 70
   192
  0
VERTEX
  5
6C6
  8
0
 10
0.0
 20
-14.10146236419678
 30
10.2679386138916
 70
   192
  0
VERTEX
  5
6C7
  8
0
 10
144.5816040039062
 20
-14.00533390045166
 30
10.40298080444336
 70
   192
  0
VERTEX
  5
6C8
  8
0
 10
144.5816040039062
 20
-12.20972728729248
 30
12.45836544036865
 70
   192
  0
VERTEX
  5
6C9
  8
0
 10
0.0
 20
-12.31730079650879
 30
12.35069847106934
 70
   192
  0
VERTEX
  5
6CA
  8
0
 10
144.5816040039062
 20
-10.12989902496338
 30
14.20205879211426
 70
   192
  0
VERTEX
  5
6CB
  8
0
 10
0.0
 20
-10.23744201660156
 30
14.12410831451416
 70
   192
  0
VERTEX
  5
6CC
  8
0
 10
0.0
 20
-7.909985542297363
 30
15.5514440536499
 70
   192
  0
VERTEX
  5
6CD
  8
0
 10
144.5816040039062
 20
-7.805327415466309
 30
15.60452651977539
 70
   192
  0
VERTEX
  5
6CE
  8
0
 10
144.5816040039062
 20
-5.289195537567139
 30
16.62978744506836
 70
   192
  0
VERTEX
  5
6CF
  8
0
 10
0.0
 20
-5.37429141998291
 30
16.60120964050293
 70
   192
  0
VERTEX
  5
6D0
  8
0
 10
144.5816040039062
 20
-2.680615901947021
 30
17.25137710571289
 70
   192
  0
VERTEX
  5
6D1
  8
0
 10
0.0
 20
-2.734199285507202
 30
17.24015998840332
 70
   192
  0
VERTEX
  5
6D2
  8
0
 10
0.0
 20
0.0
 30
17.46500015258789
 70
   192
  0
VERTEX
  5
6D3
  8
0
 10
144.5816040039062
 20
0.0000054546094361
 30
17.4638500213623
 70
   192
  0
VERTEX
  5
6D4
  8
0
 10
0.0
 20
-17.24940299987793
 30
-2.72033953666687
 70
   192
  0
VERTEX
  5
6D5
  8
0
 10
0.0
 20
-16.61199760437012
 30
-5.386346817016602
 70
   192
  0
VERTEX
  5
6D6
  8
0
 10
144.5816040039062
 20
-16.6793041229248
 30
-5.175381660461426
 70
   192
  0
VERTEX
  5
6D7
  8
0
 10
0.0
 20
-15.56937694549561
 30
-7.930553436279297
 70
   192
  0
VERTEX
  5
6D8
  8
0
 10
144.5816040039062
 20
-15.66888332366943
 30
-7.733822345733643
 70
   192
  0
VERTEX
  5
6D9
  8
0
 10
0.0
 20
-14.14256954193115
 30
-10.26749610900879
 70
   192
  0
VERTEX
  5
6DA
  8
0
 10
105.4178848266602
 20
-13.92591667175293
 30
-10.53232002258301
 70
   192
  0
VERTEX
  5
6DB
  8
0
 10
107.7159652709961
 20
-14.81880569458008
 30
-9.282256126403809
 70
   192
  0
VERTEX
  5
6DC
  8
0
 10
101.3245162963867
 20
-11.36964797973633
 30
-13.2477388381958
 70
   192
  0
VERTEX
  5
6DD
  8
0
 10
103.269645690918
 20
-12.79608154296875
 30
-11.88435363769531
 70
   192
  0
VERTEX
  5
6DE
  8
0
 10
0.0
 20
-12.36524963378906
 30
-12.35465812683105
 70
   192
  0
VERTEX
  5
6DF
  8
0
 10
99.57482147216797
 20
-9.660477638244629
 30
-14.54174423217773
 70
   192
  0
VERTEX
  5
6E0
  8
0
 10
0.0
 20
-10.27524089813232
 30
-14.14170932769775
 70
   192
  0
VERTEX
  5
6E1
  8
0
 10
0.0
 20
-7.936038970947266
 30
-15.57459163665771
 70
   192
  0
VERTEX
  5
6E2
  8
0
 10
98.06578063964844
 20
-7.65031909942627
 30
-15.69960975646973
 70
   192
  0
VERTEX
  5
6E3
  8
0
 10
0.0
 20
-5.409451007843018
 30
-16.62113952636719
 70
   192
  0
VERTEX
  5
6E4
  8
0
 10
96.8791275024414
 20
-5.329941749572754
 30
-16.63267517089844
 70
   192
  0
VERTEX
  5
6E5
  8
0
 10
96.1098403930664
 20
-2.743199110031128
 30
-17.24642944335938
 70
   192
  0
VERTEX
  5
6E6
  8
0
 10
0.0
 20
-2.740888118743896
 30
-17.2605094909668
 70
   192
  0
VERTEX
  5
6E7
  8
0
 10
0.0
 20
0.0000000000000021
 30
-17.46500015258789
 70
   192
  0
VERTEX
  5
6E8
  8
0
 10
95.83648681640625
 20
0.0000000000000021
 30
-17.46500015258789
 70
   192
  0
VERTEX
  5
6E9
  8
0
 10
144.5816040039062
 20
-3.035135507583618
 30
-17.21219444274902
 70
   192
  0
VERTEX
  5
6EA
  8
0
 10
134.1416320800781
 20
-5.306193828582764
 30
-16.63939094543457
 70
   192
  0
VERTEX
  5
6EB
  8
0
 10
134.8947296142578
 20
-2.730297565460205
 30
-17.24725723266602
 70
   192
  0
VERTEX
  5
6EC
  8
0
 10
144.5816040039062
 20
-5.665695667266846
 30
-16.53522109985352
 70
   192
  0
VERTEX
  5
6ED
  8
0
 10
132.987548828125
 20
-7.62959098815918
 30
-15.71885299682617
 70
   192
  0
VERTEX
  5
6EE
  8
0
 10
144.5816040039062
 20
-8.160386085510254
 30
-15.45742130279541
 70
   192
  0
VERTEX
  5
6EF
  8
0
 10
131.5093688964844
 20
-9.65278148651123
 30
-14.56295490264893
 70
   192
  0
VERTEX
  5
6F0
  8
0
 10
144.5816040039062
 20
-10.46899127960205
 30
-13.99757671356201
 70
   192
  0
VERTEX
  5
6F1
  8
0
 10
129.7818145751953
 20
-11.36319255828857
 30
-13.25893688201904
 70
   192
  0
VERTEX
  5
6F2
  8
0
 10
144.5816040039062
 20
-12.52593517303467
 30
-12.19081974029541
 70
   192
  0
VERTEX
  5
6F3
  8
0
 10
127.8507232666016
 20
-12.78233814239502
 30
-11.89667797088623
 70
   192
  0
VERTEX
  5
6F4
  8
0
 10
125.7493133544922
 20
-13.92640781402588
 30
-10.52263927459717
 70
   192
  0
VERTEX
  5
6F5
  8
0
 10
144.5816040039062
 20
-14.27145385742188
 30
-10.08743858337402
 70
   192
  0
VERTEX
  5
6F6
  8
0
 10
123.4503479003906
 20
-14.78886222839355
 30
-9.256977081298828
 70
   192
  0
VERTEX
  5
6F7
  8
0
 10
120.9188842773438
 20
-15.36395072937012
 30
-8.320531845092773
 70
   192
  0
VERTEX
  5
6F8
  8
0
 10
118.1999969482422
 20
-15.56661415100098
 30
-7.918758392333984
 70
   192
  0
VERTEX
  5
6F9
  8
0
 10
113.0
 20
-15.56661415100098
 30
-7.918758392333984
 70
   192
  0
VERTEX
  5
6FA
  8
0
 10
110.2600402832031
 20
-15.36210536956787
 30
-8.322955131530762
 70
   192
  0
VERTEX
  5
6FB
  8
0
 10
144.5816040039062
 20
-0.3526221215724945
 30
-17.46028900146484
 70
   192
  0
VERTEX
  5
6FC
  8
0
 10
144.5816040039062
 20
-0.0000054546094361
 30
-17.4638500213623
 70
   192
  0
VERTEX
  5
6FD
  8
0
 10
135.1635131835938
 20
0.0000000000000021
 30
-17.46500015258789
 70
   192
  0
VERTEX
  5
6FE
  8
0
 10
99.99462127685547
 20
7.500439167022705
 30
-28.52023506164551
 70
   192
  0
VERTEX
  5
6FF
  8
0
 10
99.72335815429688
 20
7.401913642883301
 30
-17.54158973693848
 70
   192
  0
VERTEX
  5
700
  8
0
 10
101.0185241699219
 20
9.39016056060791
 30
-16.28228569030762
 70
   192
  0
VERTEX
  5
701
  8
0
 10
102.5379791259766
 20
11.09051513671875
 30
-14.85517978668213
 70
   192
  0
VERTEX
  5
702
  8
0
 10
101.49609375
 20
9.653590202331543
 30
-28.52023506164551
 70
   192
  0
VERTEX
  5
703
  8
0
 10
98.06525421142578
 20
2.643808603286743
 30
-19.19759941101074
 70
   192
  0
VERTEX
  5
704
  8
0
 10
98.71361541748047
 20
5.134636878967285
 30
-18.54507827758789
 70
   192
  0
VERTEX
  5
705
  8
0
 10
98.89835357666016
 20
5.122488975524902
 30
-28.52023506164551
 70
   192
  0
VERTEX
  5
706
  8
0
 10
98.22936248779297
 20
2.610421895980835
 30
-28.52023506164551
 70
   192
  0
VERTEX
  5
707
  8
0
 10
97.83618927001953
 20
-0.0000000001498818
 30
-19.43009567260742
 70
   192
  0
VERTEX
  5
708
  8
0
 10
97.99485778808594
 20
-0.0000000001483119
 30
-28.52023506164551
 70
   192
  0
VERTEX
  5
709
  8
0
 10
103.346321105957
 20
11.5040168762207
 30
-28.52023506164551
 70
   192
  0
VERTEX
  5
70A
  8
0
 10
104.2437133789062
 20
12.51147365570068
 30
-13.33870506286621
 70
   192
  0
VERTEX
  5
70B
  8
0
 10
106.1226043701172
 20
13.66276359558105
 30
-11.81368064880371
 70
   192
  0
VERTEX
  5
70C
  8
0
 10
105.4862747192383
 20
13.00280666351318
 30
-28.52023506164551
 70
   192
  0
VERTEX
  5
70D
  8
0
 10
108.1883697509766
 20
14.54424381256104
 30
-10.39055347442627
 70
   192
  0
VERTEX
  5
70E
  8
0
 10
107.8576965332031
 20
14.10997104644775
 30
-28.52023506164551
 70
   192
  0
VERTEX
  5
70F
  8
0
 10
110.3885192871094
 20
14.78736686706543
 30
-28.52023506164551
 70
   192
  0
VERTEX
  5
710
  8
0
 10
110.4792251586914
 20
15.13101768493652
 30
-9.263362884521484
 70
   192
  0
VERTEX
  5
711
  8
0
 10
113.0
 20
15.34952640533447
 30
-8.790668487548828
 70
   192
  0
VERTEX
  5
712
  8
0
 10
113.0
 20
15.00514507293701
 30
-28.52023506164551
 70
   192
  0
VERTEX
  5
713
  8
0
 10
145.5807495117188
 20
16.3863639831543
 30
-1.888701915740967
 70
   192
  0
VERTEX
  5
714
  8
0
 10
145.5807495117188
 20
16.08178329467773
 30
-3.697792768478394
 70
   192
  0
VERTEX
  5
715
  8
0
 10
145.2739715576172
 20
16.3985538482666
 30
-5.144399642944336
 70
   192
  0
VERTEX
  5
716
  8
0
 10
145.2739715576172
 20
8.424720764160156
 30
-14.98003673553467
 70
   192
  0
VERTEX
  5
717
  8
0
 10
144.5816040039062
 20
7.84660816192627
 30
-15.61904335021973
 70
   192
  0
VERTEX
  5
718
  8
0
 10
144.5816040039062
 20
10.18421936035156
 30
-14.20611095428467
 70
   192
  0
VERTEX
  5
719
  8
0
 10
145.2739715576172
 20
11.59907913208008
 30
-12.68222427368164
 70
   192
  0
VERTEX
  5
71A
  8
0
 10
144.5816040039062
 20
12.27722644805908
 30
-12.44125652313232
 70
   192
  0
VERTEX
  5
71B
  8
0
 10
145.2739715576172
 20
14.40604114532471
 30
-9.372481346130371
 70
   192
  0
VERTEX
  5
71C
  8
0
 10
145.5807495117188
 20
7.136787414550781
 30
-14.897141456604
 70
   192
  0
VERTEX
  5
71D
  8
0
 10
145.5807495117188
 20
5.436763763427734
 30
-15.5926399230957
 70
   192
  0
VERTEX
  5
71E
  8
0
 10
145.2739715576172
 20
5.244608879089355
 30
-16.36678123474121
 70
   192
  0
VERTEX
  5
71F
  8
0
 10
145.5807495117188
 20
10.27474880218506
 30
-12.9344482421875
 70
   192
  0
VERTEX
  5
720
  8
0
 10
145.5807495117188
 20
8.774391174316406
 30
-13.98912334442139
 70
   192
  0
VERTEX
  5
721
  8
0
 10
144.5816040039062
 20
5.330663681030273
 30
-16.6462516784668
 70
   192
  0
VERTEX
  5
722
  8
0
 10
144.5816040039062
 20
2.686970472335815
 30
-17.26996994018555
 70
   192
  0
VERTEX
  5
723
  8
0
 10
145.2739715576172
 20
-0.3470283448696136
 30
-17.18304443359375
 70
   192
  0
VERTEX
  5
724
  8
0
 10
145.2739715576172
 20
2.285049200057983
 30
-17.03396606445312
 70
   192
  0
VERTEX
  5
725
  8
0
 10
145.5807495117188
 20
-0.0000248608303082
 30
-16.50935363769531
 70
   192
  0
VERTEX
  5
726
  8
0
 10
145.5807495117188
 20
-0.3333303332328796
 30
-16.50640296936035
 70
   192
  0
VERTEX
  5
727
  8
0
 10
145.5807495117188
 20
1.816057443618774
 30
-16.41786003112793
 70
   192
  0
VERTEX
  5
728
  8
0
 10
145.5807495117188
 20
12.90079402923584
 30
-10.31556034088135
 70
   192
  0
VERTEX
  5
729
  8
0
 10
145.5807495117188
 20
11.66907024383545
 30
-11.68029689788818
 70
   192
  0
VERTEX
  5
72A
  8
0
 10
144.5816040039062
 20
14.06486034393311
 30
-10.37354946136475
 70
   192
  0
VERTEX
  5
72B
  8
0
 10
144.5816040039062
 20
15.50952816009521
 30
-8.048629760742188
 70
   192
  0
VERTEX
  5
72C
  8
0
 10
144.5816040039062
 20
16.57140350341797
 30
-5.511112689971924
 70
   192
  0
VERTEX
  5
72D
  8
0
 10
145.5807495117188
 20
14.87672805786133
 30
-7.163994789123535
 70
   192
  0
VERTEX
  5
72E
  8
0
 10
145.5807495117188
 20
13.97387886047363
 30
-8.790624618530273
 70
   192
  0
VERTEX
  5
72F
  8
0
 10
145.2739715576172
 20
17.18304443359375
 30
-0.3470283448696136
 70
   192
  0
VERTEX
  5
730
  8
0
 10
144.5816040039062
 20
17.22426795959473
 30
-2.863212823867798
 70
   192
  0
VERTEX
  5
731
  8
0
 10
144.5816040039062
 20
17.27319526672363
 30
2.565905809402466
 70
   192
  0
VERTEX
  5
732
  8
0
 10
144.5816040039062
 20
17.45977401733398
 30
-0.1620686948299408
 70
   192
  0
VERTEX
  5
733
  8
0
 10
145.2739715576172
 20
16.5928897857666
 30
4.478105068206787
 70
   192
  0
VERTEX
  5
734
  8
0
 10
145.2739715576172
 20
14.77271270751953
 30
8.783187866210938
 70
   192
  0
VERTEX
  5
735
  8
0
 10
145.5807495117188
 20
14.91755867004395
 30
7.034387588500977
 70
   192
  0
VERTEX
  5
736
  8
0
 10
145.5807495117188
 20
16.41907501220703
 30
1.80688202381134
 70
   192
  0
VERTEX
  5
737
  8
0
 10
145.5807495117188
 20
16.50626373291016
 30
0.000000000000003
 70
   192
  0
VERTEX
  5
738
  8
0
 10
144.5816040039062
 20
12.45879554748535
 30
12.20928859710693
 70
   192
  0
VERTEX
  5
739
  8
0
 10
144.5816040039062
 20
10.41460037231445
 30
13.99462127685547
 70
   192
  0
VERTEX
  5
73A
  8
0
 10
145.2739715576172
 20
12.10167121887207
 30
12.20356369018555
 70
   192
  0
VERTEX
  5
73B
  8
0
 10
144.5816040039062
 20
15.62572479248047
 30
7.770947456359863
 70
   192
  0
VERTEX
  5
73C
  8
0
 10
144.5816040039062
 20
14.21253395080566
 30
10.11806583404541
 70
   192
  0
VERTEX
  5
73D
  8
0
 10
145.2739715576172
 20
5.901149272918701
 30
16.14168167114258
 70
   192
  0
VERTEX
  5
73E
  8
0
 10
144.5816040039062
 20
5.623903751373291
 30
16.51959800720215
 70
   192
  0
VERTEX
  5
73F
  8
0
 10
145.2739715576172
 20
2.970940589904785
 30
16.92781639099121
 70
   192
  0
VERTEX
  5
740
  8
0
 10
145.2739715576172
 20
9.022677421569824
 30
14.62766933441162
 70
   192
  0
VERTEX
  5
741
  8
0
 10
144.5816040039062
 20
8.118821144104004
 30
15.44374084472656
 70
   192
  0
VERTEX
  5
742
  8
0
 10
145.2739715576172
 20
0.3470283448696136
 30
17.18304443359375
 70
   192
  0
VERTEX
  5
743
  8
0
 10
145.5807495117188
 20
0.3333303332328796
 30
16.50640296936035
 70
   192
  0
VERTEX
  5
744
  8
0
 10
145.5807495117188
 20
2.14372444152832
 30
16.3765697479248
 70
   192
  0
VERTEX
  5
745
  8
0
 10
144.5816040039062
 20
3.028406620025635
 30
17.19373321533203
 70
   192
  0
VERTEX
  5
746
  8
0
 10
144.5816040039062
 20
0.3526221215724945
 30
17.46028900146484
 70
   192
  0
VERTEX
  5
747
  8
0
 10
145.5807495117188
 20
3.945573329925537
 30
16.0326976776123
 70
   192
  0
VERTEX
  5
748
  8
0
 10
145.5807495117188
 20
8.973845481872559
 30
13.85063362121582
 70
   192
  0
VERTEX
  5
749
  8
0
 10
145.5807495117188
 20
7.378327369689941
 30
14.76896572113037
 70
   192
  0
VERTEX
  5
74A
  8
0
 10
145.5807495117188
 20
11.79393577575684
 30
11.54503536224365
 70
   192
  0
VERTEX
  5
74B
  8
0
 10
145.5807495117188
 20
10.45292377471924
 30
12.77356052398682
 70
   192
  0
VERTEX
  5
74C
  8
0
 10
145.5807495117188
 20
13.00953960418701
 30
10.14363098144531
 70
   192
  0
VERTEX
  5
74D
  8
0
 10
145.5807495117188
 20
14.04862213134766
 30
8.654874801635742
 70
   192
  0
VERTEX
  5
74E
  8
0
 10
145.5807495117188
 20
15.6076192855835
 30
5.336987018585205
 70
   192
  0
VERTEX
  5
74F
  8
0
 10
144.5816040039062
 20
16.65166664123535
 30
5.23780345916748
 70
   192
  0
VERTEX
  5
750
  8
0
 10
145.5807495117188
 20
5.702526092529297
 30
15.49512004852295
 70
   192
  0
VERTEX
  5
751
  8
0
 10
145.5807495117188
 20
16.10799598693848
 30
3.618154525756836
 70
   192
  0
VERTEX
  5
752
  8
0
 10
145.5807495117188
 20
15.58169746398926
 30
-5.458168983459473
 70
   192
  0
VERTEX
  5
753
  8
0
 10
145.5807495117188
 20
3.651575326919556
 30
-16.10648155212402
 70
   192
  0
VERTEX
  5
754
  8
0
 10
145.8362731933594
 20
8.005278587341309
 30
2.014624118804932
 70
   192
  0
VERTEX
  5
755
  8
0
 10
145.8362731933594
 20
7.200413227081299
 30
4.036984920501709
 70
   192
  0
VERTEX
  5
756
  8
0
 10
145.8362731933594
 20
8.254889488220215
 30
0.0000000000000015
 70
   192
  0
VERTEX
  5
757
  8
0
 10
145.8362731933594
 20
5.837088108062744
 30
5.837088108062744
 70
   192
  0
VERTEX
  5
758
  8
0
 10
145.8362731933594
 20
4.036984920501709
 30
7.200413227081299
 70
   192
  0
VERTEX
  5
759
  8
0
 10
145.8362731933594
 20
-0.000000000000001
 30
8.254889488220215
 70
   192
  0
VERTEX
  5
75A
  8
0
 10
145.9214630126953
 20
0.0
 30
0.0000000000000643
 70
   192
  0
VERTEX
  5
75B
  8
0
 10
145.8362731933594
 20
2.014624118804932
 30
8.005278587341309
 70
   192
  0
VERTEX
  5
75C
  8
0
 10
145.5807495117188
 20
0.0000248608303082
 30
16.50935363769531
 70
   192
  0
VERTEX
  5
75D
  8
0
 10
145.8362731933594
 20
-2.014624118804932
 30
8.005278587341309
 70
   192
  0
VERTEX
  5
75E
  8
0
 10
145.5807495117188
 20
-5.436763763427734
 30
15.5926399230957
 70
   192
  0
VERTEX
  5
75F
  8
0
 10
145.8362731933594
 20
-4.036984920501709
 30
7.200413227081299
 70
   192
  0
VERTEX
  5
760
  8
0
 10
145.5807495117188
 20
-1.816057443618774
 30
16.41786003112793
 70
   192
  0
VERTEX
  5
761
  8
0
 10
145.5807495117188
 20
-3.651575326919556
 30
16.10648155212402
 70
   192
  0
VERTEX
  5
762
  8
0
 10
145.5807495117188
 20
-7.136787414550781
 30
14.897141456604
 70
   192
  0
VERTEX
  5
763
  8
0
 10
145.5807495117188
 20
-8.774391174316406
 30
13.98912334442139
 70
   192
  0
VERTEX
  5
764
  8
0
 10
145.5807495117188
 20
-10.27474880218506
 30
12.9344482421875
 70
   192
  0
VERTEX
  5
765
  8
0
 10
145.5807495117188
 20
-11.66907024383545
 30
11.68029689788818
 70
   192
  0
VERTEX
  5
766
  8
0
 10
145.8362731933594
 20
-5.837088108062744
 30
5.837088108062744
 70
   192
  0
VERTEX
  5
767
  8
0
 10
145.5807495117188
 20
-12.90079402923584
 30
10.31556034088135
 70
   192
  0
VERTEX
  5
768
  8
0
 10
145.8362731933594
 20
-7.200413227081299
 30
4.036984920501709
 70
   192
  0
VERTEX
  5
769
  8
0
 10
145.5807495117188
 20
-13.97387886047363
 30
8.790624618530273
 70
   192
  0
VERTEX
  5
76A
  8
0
 10
145.5807495117188
 20
-15.58169746398926
 30
5.458168983459473
 70
   192
  0
VERTEX
  5
76B
  8
0
 10
145.5807495117188
 20
-16.08178329467773
 30
3.697792768478394
 70
   192
  0
VERTEX
  5
76C
  8
0
 10
145.8362731933594
 20
-8.005278587341309
 30
2.014624118804932
 70
   192
  0
VERTEX
  5
76D
  8
0
 10
145.5807495117188
 20
-14.87672805786133
 30
7.163994789123535
 70
   192
  0
VERTEX
  5
76E
  8
0
 10
145.8362731933594
 20
-8.254889488220215
 30
-0.0000000000000005
 70
   192
  0
VERTEX
  5
76F
  8
0
 10
145.5807495117188
 20
-16.3863639831543
 30
1.888701915740967
 70
   192
  0
VERTEX
  5
770
  8
0
 10
145.5807495117188
 20
-16.50626373291016
 30
-0.000000000000001
 70
   192
  0
VERTEX
  5
771
  8
0
 10
145.8362731933594
 20
-8.005278587341309
 30
-2.014624118804932
 70
   192
  0
VERTEX
  5
772
  8
0
 10
145.5807495117188
 20
-15.6076192855835
 30
-5.336987018585205
 70
   192
  0
VERTEX
  5
773
  8
0
 10
145.8362731933594
 20
-7.200413227081299
 30
-4.036984920501709
 70
   192
  0
VERTEX
  5
774
  8
0
 10
145.5807495117188
 20
-16.41907501220703
 30
-1.80688202381134
 70
   192
  0
VERTEX
  5
775
  8
0
 10
145.5807495117188
 20
-16.10799598693848
 30
-3.618154525756836
 70
   192
  0
VERTEX
  5
776
  8
0
 10
145.5807495117188
 20
-14.91755867004395
 30
-7.034387588500977
 70
   192
  0
VERTEX
  5
777
  8
0
 10
145.5807495117188
 20
-14.04862213134766
 30
-8.654874801635742
 70
   192
  0
VERTEX
  5
778
  8
0
 10
145.5807495117188
 20
-13.00953960418701
 30
-10.14363098144531
 70
   192
  0
VERTEX
  5
779
  8
0
 10
145.5807495117188
 20
-11.79393577575684
 30
-11.54503536224365
 70
   192
  0
VERTEX
  5
77A
  8
0
 10
145.8362731933594
 20
-5.837088108062744
 30
-5.837088108062744
 70
   192
  0
VERTEX
  5
77B
  8
0
 10
145.5807495117188
 20
-10.45292377471924
 30
-12.77356052398682
 70
   192
  0
VERTEX
  5
77C
  8
0
 10
145.8362731933594
 20
-4.036984920501709
 30
-7.200413227081299
 70
   192
  0
VERTEX
  5
77D
  8
0
 10
145.5807495117188
 20
-7.378327369689941
 30
-14.76896572113037
 70
   192
  0
VERTEX
  5
77E
  8
0
 10
145.5807495117188
 20
-8.973845481872559
 30
-13.85063362121582
 70
   192
  0
VERTEX
  5
77F
  8
0
 10
145.8362731933594
 20
0.000000000000002
 30
-8.254889488220215
 70
   192
  0
VERTEX
  5
780
  8
0
 10
145.8362731933594
 20
-2.014624118804932
 30
-8.005278587341309
 70
   192
  0
VERTEX
  5
781
  8
0
 10
145.5807495117188
 20
-5.702526092529297
 30
-15.49512004852295
 70
   192
  0
VERTEX
  5
782
  8
0
 10
145.5807495117188
 20
-3.945573329925537
 30
-16.0326976776123
 70
   192
  0
VERTEX
  5
783
  8
0
 10
145.5807495117188
 20
-2.14372444152832
 30
-16.3765697479248
 70
   192
  0
VERTEX
  5
784
  8
0
 10
145.8362731933594
 20
2.014624118804932
 30
-8.005278587341309
 70
   192
  0
VERTEX
  5
785
  8
0
 10
145.8362731933594
 20
4.036984920501709
 30
-7.200413227081299
 70
   192
  0
VERTEX
  5
786
  8
0
 10
145.8362731933594
 20
5.837088108062744
 30
-5.837088108062744
 70
   192
  0
VERTEX
  5
787
  8
0
 10
145.8362731933594
 20
7.200413227081299
 30
-4.036984920501709
 70
   192
  0
VERTEX
  5
788
  8
0
 10
145.8362731933594
 20
8.005278587341309
 30
-2.014624118804932
 70
   192
  0
VERTEX
  5
789
  8
0
 10
145.2739715576172
 20
-2.970940589904785
 30
-16.92781639099121
 70
   192
  0
VERTEX
  5
78A
  8
0
 10
145.2739715576172
 20
-12.10167121887207
 30
-12.20356369018555
 70
   192
  0
VERTEX
  5
78B
  8
0
 10
145.2739715576172
 20
-5.901149272918701
 30
-16.14168167114258
 70
   192
  0
VERTEX
  5
78C
  8
0
 10
145.2739715576172
 20
-9.022677421569824
 30
-14.62766933441162
 70
   192
  0
VERTEX
  5
78D
  8
0
 10
145.2739715576172
 20
-14.77271270751953
 30
-8.783187866210938
 70
   192
  0
VERTEX
  5
78E
  8
0
 10
145.2739715576172
 20
-17.18304443359375
 30
0.3470283448696136
 70
   192
  0
VERTEX
  5
78F
  8
0
 10
145.2739715576172
 20
-16.5928897857666
 30
-4.478105068206787
 70
   192
  0
VERTEX
  5
790
  8
0
 10
145.2739715576172
 20
-16.3985538482666
 30
5.144399642944336
 70
   192
  0
VERTEX
  5
791
  8
0
 10
145.2739715576172
 20
-14.40604114532471
 30
9.372481346130371
 70
   192
  0
VERTEX
  5
792
  8
0
 10
145.2739715576172
 20
-11.59907913208008
 30
12.68222427368164
 70
   192
  0
VERTEX
  5
793
  8
0
 10
145.2739715576172
 20
-8.424720764160156
 30
14.98003673553467
 70
   192
  0
VERTEX
  5
794
  8
0
 10
145.2739715576172
 20
-5.244608879089355
 30
16.36678123474121
 70
   192
  0
VERTEX
  5
795
  8
0
 10
145.2739715576172
 20
-2.285049200057983
 30
17.03396606445312
 70
   192
  0
VERTEX
  5
796
  8
0
 10
97.43810272216797
 20
-2.53399658203125
 30
-17.82411766052246
 70
   192
  0
VERTEX
  5
797
  8
0
 10
100.9712600708008
 20
-9.321842193603516
 30
-16.32107162475586
 70
   192
  0
VERTEX
  5
798
  8
0
 10
100.1553192138672
 20
-9.247140884399414
 30
-15.04257392883301
 70
   192
  0
VERTEX
  5
799
  8
0
 10
98.94307708740234
 20
-7.218674182891846
 30
-16.25334739685059
 70
   192
  0
VERTEX
  5
79A
  8
0
 10
98.02054595947266
 20
-4.966070175170898
 30
-17.20717620849609
 70
   192
  0
VERTEX
  5
79B
  8
0
 10
98.7121353149414
 20
-5.117974758148193
 30
-18.54496574401855
 70
   192
  0
VERTEX
  5
79C
  8
0
 10
99.7110824584961
 20
-7.364529609680176
 30
-17.55037498474121
 70
   192
  0
VERTEX
  5
79D
  8
0
 10
102.4998397827148
 20
-11.04864406585693
 30
-14.88000106811523
 70
   192
  0
VERTEX
  5
79E
  8
0
 10
101.6149291992188
 20
-11.03317737579346
 30
-13.65191173553467
 70
   192
  0
VERTEX
  5
79F
  8
0
 10
108.2138595581055
 20
-14.56053924560547
 30
-10.3381519317627
 70
   192
  0
VERTEX
  5
7A0
  8
0
 10
104.2685012817383
 20
-12.52410697937012
 30
-13.30310726165771
 70
   192
  0
VERTEX
  5
7A1
  8
0
 10
106.1655578613281
 20
-13.69067573547363
 30
-11.75271987915039
 70
   192
  0
VERTEX
  5
7A2
  8
0
 10
113.0
 20
-15.40847206115723
 30
-8.342364311218262
 70
   192
  0
VERTEX
  5
7A3
  8
0
 10
113.0
 20
-15.34950065612793
 30
-8.790667533874512
 70
   192
  0
VERTEX
  5
7A4
  8
0
 10
110.4926300048828
 20
-15.13331604003906
 30
-9.258508682250977
 70
   192
  0
VERTEX
  5
7A5
  8
0
 10
98.06402587890625
 20
-2.636378526687622
 30
-19.19876861572266
 70
   192
  0
VERTEX
  5
7A6
  8
0
 10
97.23834228515625
 20
0.0000004176159507
 30
-18.03847503662109
 70
   192
  0
VERTEX
  5
7A7
  8
0
 10
113.0
 20
-14.9154634475708
 30
-28.72897529602051
 70
   192
  0
VERTEX
  5
7A8
  8
0
 10
113.0
 20
-14.70519065856934
 30
-28.81500053405762
 70
   192
  0
VERTEX
  5
7A9
  8
0
 10
118.1999969482422
 20
-14.915452003479
 30
-28.72896766662598
 70
   192
  0
VERTEX
  5
7AA
  8
0
 10
118.1999969482422
 20
-14.70519065856934
 30
-28.81500053405762
 70
   192
  0
VERTEX
  5
7AB
  8
0
 10
118.1996383666992
 20
-15.00514507293701
 30
-28.52023506164551
 70
   192
  0
VERTEX
  5
7AC
  8
0
 10
113.0
 20
-15.00514507293701
 30
-28.52023506164551
 70
   192
  0
VERTEX
  5
7AD
  8
0
 10
118.199821472168
 20
-15.17733573913574
 30
-18.65545272827148
 70
   192
  0
VERTEX
  5
7AE
  8
0
 10
118.1999969482422
 20
-15.34952640533447
 30
-8.790668487548828
 70
   192
  0
VERTEX
  5
7AF
  8
0
 10
118.2000122070312
 20
-15.4049825668335
 30
-8.356553077697754
 70
   192
  0
VERTEX
  5
7B0
  8
0
 10
133.7616577148438
 20
0.0000083244767666
 30
-18.03847312927246
 70
   192
  0
VERTEX
  5
7B1
  8
0
 10
132.9398040771484
 20
-2.626381874084473
 30
-19.20134353637695
 70
   192
  0
VERTEX
  5
7B2
  8
0
 10
133.1638031005859
 20
-0.0000000036732486
 30
-19.43009567260742
 70
   192
  0
VERTEX
  5
7B3
  8
0
 10
120.6863708496094
 20
-15.13015365600586
 30
-9.265817642211914
 70
   192
  0
VERTEX
  5
7B4
  8
0
 10
122.9437789916992
 20
-14.54470825195312
 30
-10.39226341247559
 70
   192
  0
VERTEX
  5
7B5
  8
0
 10
133.5657958984375
 20
-2.522967576980591
 30
-17.82647323608398
 70
   192
  0
VERTEX
  5
7B6
  8
0
 10
132.9956665039062
 20
-4.946393489837646
 30
-17.21537971496582
 70
   192
  0
VERTEX
  5
7B7
  8
0
 10
132.3118286132812
 20
-5.094768524169922
 30
-18.56171417236328
 70
   192
  0
VERTEX
  5
7B8
  8
0
 10
132.0913238525391
 20
-7.193161964416504
 30
-16.26869201660156
 70
   192
  0
VERTEX
  5
7B9
  8
0
 10
130.9010620117188
 20
-9.219367980957031
 30
-15.06446075439453
 70
   192
  0
VERTEX
  5
7BA
  8
0
 10
130.0778656005859
 20
-9.317602157592773
 30
-16.34150695800781
 70
   192
  0
VERTEX
  5
7BB
  8
0
 10
131.3325042724609
 20
-7.343431949615479
 30
-17.57699966430664
 70
   192
  0
VERTEX
  5
7BC
  8
0
 10
128.5831298828125
 20
-11.02850723266602
 30
-14.9179220199585
 70
   192
  0
VERTEX
  5
7BD
  8
0
 10
129.4670562744141
 20
-11.00610065460205
 30
-13.67779350280762
 70
   192
  0
VERTEX
  5
7BE
  8
0
 10
124.9164199829102
 20
-13.70397567749023
 30
-11.76385974884033
 70
   192
  0
VERTEX
  5
7BF
  8
0
 10
126.8410339355469
 20
-12.50856876373291
 30
-13.34796333312988
 70
   192
  0
VERTEX
  5
7C0
  8
0
 10
128.5762176513672
 20
11.03603553771973
 30
-14.90054607391357
 70
   192
  0
VERTEX
  5
7C1
  8
0
 10
129.4636688232422
 20
11.00971794128418
 30
-13.67464160919189
 70
   192
  0
VERTEX
  5
7C2
  8
0
 10
130.8978424072266
 20
9.224027633666992
 30
-15.06126689910889
 70
   192
  0
VERTEX
  5
7C3
  8
0
 10
132.994384765625
 20
4.950425148010254
 30
-17.21393585205078
 70
   192
  0
VERTEX
  5
7C4
  8
0
 10
131.3192596435547
 20
7.353016376495361
 30
-17.56123542785645
 70
   192
  0
VERTEX
  5
7C5
  8
0
 10
132.0888366699219
 20
7.198190212249756
 30
-16.26613998413086
 70
   192
  0
VERTEX
  5
7C6
  8
0
 10
130.0756988525391
 20
9.313766479492188
 30
-16.33352661132812
 70
   192
  0
VERTEX
  5
7C7
  8
0
 10
133.3330535888672
 20
7.032041072845459
 30
-15.99866771697998
 70
   192
  0
VERTEX
  5
7C8
  8
0
 10
134.9411010742188
 20
2.496335506439209
 30
-17.28374862670898
 70
   192
  0
VERTEX
  5
7C9
  8
0
 10
133.5654144287109
 20
2.525241851806641
 30
-17.82605171203613
 70
   192
  0
VERTEX
  5
7CA
  8
0
 10
132.3034057617188
 20
5.106930255889893
 30
-18.5514965057373
 70
   192
  0
VERTEX
  5
7CB
  8
0
 10
134.3146057128906
 20
4.852160453796387
 30
-16.78058433532715
 70
   192
  0
VERTEX
  5
7CC
  8
0
 10
132.9393920898438
 20
2.628789901733398
 30
-19.20087242126465
 70
   192
  0
VERTEX
  5
7CD
  8
0
 10
126.8108825683594
 20
12.52478122711182
 30
-13.30759048461914
 70
   192
  0
VERTEX
  5
7CE
  8
0
 10
128.9141540527344
 20
12.05970668792725
 30
-12.6478214263916
 70
   192
  0
VERTEX
  5
7CF
  8
0
 10
122.9393005371094
 20
14.55476951599121
 30
-10.35175037384033
 70
   192
  0
VERTEX
  5
7D0
  8
0
 10
125.120246887207
 20
14.19702243804932
 30
-10.18747997283936
 70
   192
  0
VERTEX
  5
7D1
  8
0
 10
124.9423599243164
 20
13.69286060333252
 30
-11.75664234161377
 70
   192
  0
VERTEX
  5
7D2
  8
0
 10
127.0915145874023
 20
13.24172306060791
 30
-11.40097045898438
 70
   192
  0
VERTEX
  5
7D3
  8
0
 10
122.9893264770508
 20
14.9218635559082
 30
-9.09607982635498
 70
   192
  0
VERTEX
  5
7D4
  8
0
 10
120.6852340698242
 20
15.13035678863525
 30
-9.26540470123291
 70
   192
  0
VERTEX
  5
7D5
  8
0
 10
118.1999969482422
 20
15.34950542449951
 30
-8.790667533874512
 70
   192
  0
VERTEX
  5
7D6
  8
0
 10
120.6784057617188
 20
15.39265823364258
 30
-8.267574310302734
 70
   192
  0
VERTEX
  5
7D7
  8
0
 10
118.1999969482422
 20
15.40847206115723
 30
-8.342364311218262
 70
   192
  0
VERTEX
  5
7D8
  8
0
 10
118.1999969482422
 20
15.56661987304688
 30
-7.918761253356934
 70
   192
  0
VERTEX
  5
7D9
  8
0
 10
132.0773010253906
 20
8.973892211914062
 30
-15.0128173828125
 70
   192
  0
VERTEX
  5
7DA
  8
0
 10
130.5831298828125
 20
10.64310932159424
 30
-13.86942195892334
 70
   192
  0
VERTEX
  5
7DB
  8
0
 10
126.2975006103516
 20
-12.76676368713379
 30
-18.65545272827148
 70
   192
  0
VERTEX
  5
7DC
  8
0
 10
129.5194549560547
 20
-9.938132286071777
 30
-18.65545272827148
 70
   192
  0
VERTEX
  5
7DD
  8
0
 10
131.6833038330078
 20
6.197495460510254
 30
-28.52022743225098
 70
   192
  0
VERTEX
  5
7DE
  8
0
 10
118.1998291015625
 20
15.17733573913574
 30
-18.65545272827148
 70
   192
  0
VERTEX
  5
7DF
  8
0
 10
122.3981475830078
 20
14.389235496521
 30
-28.52022743225098
 70
   192
  0
VERTEX
  5
7E0
  8
0
 10
118.1996536254883
 20
15.00514507293701
 30
-28.52023506164551
 70
   192
  0
VERTEX
  5
7E1
  8
0
 10
126.2439346313477
 20
-12.59717559814453
 30
-28.52022743225098
 70
   192
  0
VERTEX
  5
7E2
  8
0
 10
122.4199447631836
 20
-14.561767578125
 30
-18.65545272827148
 70
   192
  0
VERTEX
  5
7E3
  8
0
 10
122.3981475830078
 20
-14.38923454284668
 30
-28.52022743225098
 70
   192
  0
VERTEX
  5
7E4
  8
0
 10
122.4199523925781
 20
14.56176376342773
 30
-18.65545272827148
 70
   192
  0
VERTEX
  5
7E5
  8
0
 10
126.2975082397461
 20
12.76675701141357
 30
-18.65545272827148
 70
   192
  0
VERTEX
  5
7E6
  8
0
 10
126.2439346313477
 20
12.59717845916748
 30
-28.52022743225098
 70
   192
  0
VERTEX
  5
7E7
  8
0
 10
129.4223785400391
 20
-9.78702449798584
 30
-28.52022743225098
 70
   192
  0
VERTEX
  5
7E8
  8
0
 10
131.6833038330078
 20
-6.19749116897583
 30
-28.52022743225098
 70
   192
  0
VERTEX
  5
7E9
  8
0
 10
132.8564758300781
 20
-2.12094259262085
 30
-28.52022743225098
 70
   192
  0
VERTEX
  5
7EA
  8
0
 10
132.8564758300781
 20
2.120946645736694
 30
-28.52022743225098
 70
   192
  0
VERTEX
  5
7EB
  8
0
 10
129.5194549560547
 20
9.938122749328613
 30
-18.65545272827148
 70
   192
  0
VERTEX
  5
7EC
  8
0
 10
129.4223785400391
 20
9.787027359008789
 30
-28.52022743225098
 70
   192
  0
VERTEX
  5
7ED
  8
0
 10
122.3724060058594
 20
-14.30333709716797
 30
-28.72896575927734
 70
   192
  0
VERTEX
  5
7EE
  8
0
 10
122.2559967041016
 20
-14.1182222366333
 30
-28.81500053405762
 70
   192
  0
VERTEX
  5
7EF
  8
0
 10
129.3540191650391
 20
-9.728988647460938
 30
-28.72896575927734
 70
   192
  0
VERTEX
  5
7F0
  8
0
 10
131.6014556884766
 20
-6.16086483001709
 30
-28.72896575927734
 70
   192
  0
VERTEX
  5
7F1
  8
0
 10
126.1947555541992
 20
-12.52219486236572
 30
-28.72896575927734
 70
   192
  0
VERTEX
  5
7F2
  8
0
 10
132.7676696777344
 20
2.108436822891235
 30
-28.72896575927734
 70
   192
  0
VERTEX
  5
7F3
  8
0
 10
132.5550842285156
 20
2.109764575958252
 30
-28.81500053405762
 70
   192
  0
VERTEX
  5
7F4
  8
0
 10
131.6014556884766
 20
6.160869121551514
 30
-28.72896575927734
 70
   192
  0
VERTEX
  5
7F5
  8
0
 10
132.7676696777344
 20
-2.10843300819397
 30
-28.72896575927734
 70
   192
  0
VERTEX
  5
7F6
  8
0
 10
126.1947479248047
 20
12.52219772338867
 30
-28.72896575927734
 70
   192
  0
VERTEX
  5
7F7
  8
0
 10
129.3540191650391
 20
9.728991508483887
 30
-28.72896575927734
 70
   192
  0
VERTEX
  5
7F8
  8
0
 10
122.3724060058594
 20
14.30333805084229
 30
-28.72896575927734
 70
   192
  0
VERTEX
  5
7F9
  8
0
 10
118.1999969482422
 20
14.91563034057617
 30
-28.72881126403809
 70
   192
  0
VERTEX
  5
7FA
  8
0
 10
122.2562866210938
 20
14.11813926696777
 30
-28.81500053405762
 70
   192
  0
VERTEX
  5
7FB
  8
0
 10
118.1999969482422
 20
14.70519065856934
 30
-28.81500053405762
 70
   192
  0
VERTEX
  5
7FC
  8
0
 10
129.1222229003906
 20
9.676488876342773
 30
-28.81500053405762
 70
   192
  0
VERTEX
  5
7FD
  8
0
 10
131.3742523193359
 20
6.153151035308838
 30
-28.81500053405762
 70
   192
  0
VERTEX
  5
7FE
  8
0
 10
132.5550384521484
 20
-2.11012601852417
 30
-28.81500053405762
 70
   192
  0
VERTEX
  5
7FF
  8
0
 10
125.9973831176758
 20
-12.39975833892822
 30
-28.81500053405762
 70
   192
  0
VERTEX
  5
800
  8
0
 10
129.1219940185547
 20
-9.676751136779785
 30
-28.81500053405762
 70
   192
  0
VERTEX
  5
801
  8
0
 10
131.3741149902344
 20
-6.153464317321777
 30
-28.81500053405762
 70
   192
  0
VERTEX
  5
802
  8
0
 10
125.9976501464844
 20
12.39958477020264
 30
-28.81500053405762
 70
   192
  0
VERTEX
  5
803
  8
0
 10
113.0
 20
14.9154634475708
 30
-28.72897529602051
 70
   192
  0
VERTEX
  5
804
  8
0
 10
113.0
 20
14.70519065856934
 30
-28.81500053405762
 70
   192
  0
VERTEX
  5
805
  8
0
 10
112.9999923706055
 20
15.40498352050781
 30
-8.356553077697754
 70
   192
  0
VERTEX
  5
806
  8
0
 10
113.0
 20
15.56661415100098
 30
-7.918758392333984
 70
   192
  0
VERTEX
  5
807
  8
0
 10
105.4037857055664
 20
13.94951343536377
 30
-10.48903560638428
 70
   192
  0
VERTEX
  5
808
  8
0
 10
103.2776336669922
 20
12.81024932861328
 30
-11.8566837310791
 70
   192
  0
VERTEX
  5
809
  8
0
 10
107.7284927368164
 20
14.81045150756836
 30
-9.235172271728516
 70
   192
  0
VERTEX
  5
80A
  8
0
 10
110.2644882202148
 20
15.36286735534668
 30
-8.306549072265625
 70
   192
  0
VERTEX
  5
80B
  8
0
 10
101.6183700561523
 20
11.0368185043335
 30
-13.64872264862061
 70
   192
  0
VERTEX
  5
80C
  8
0
 10
100.1585922241211
 20
9.251795768737793
 30
-15.03937244415283
 70
   192
  0
VERTEX
  5
80D
  8
0
 10
98.94558715820312
 20
7.22367000579834
 30
-16.25078773498535
 70
   192
  0
VERTEX
  5
80E
  8
0
 10
98.02189636230469
 20
4.970118522644043
 30
-17.20575523376465
 70
   192
  0
VERTEX
  5
80F
  8
0
 10
97.43848419189453
 20
2.536243438720703
 30
-17.82369041442871
 70
   192
  0
VERTEX
  5
810
  8
0
 10
101.3340148925781
 20
11.39024448394775
 30
-13.22575759887695
 70
   192
  0
VERTEX
  5
811
  8
0
 10
99.59283447265625
 20
9.673348426818848
 30
-14.52159118652344
 70
   192
  0
VERTEX
  5
812
  8
0
 10
98.09612274169922
 20
7.652568340301514
 30
-15.67372512817383
 70
   192
  0
VERTEX
  5
813
  8
0
 10
96.90444946289062
 20
5.338757038116455
 30
-16.61141014099121
 70
   192
  0
VERTEX
  5
814
  8
0
 10
96.11007690429688
 20
2.75750994682312
 30
-17.24541664123535
 70
   192
  0
VERTEX
  5
815
  8
0
 10
98.22869110107422
 20
-2.616127729415894
 30
-28.52023506164551
 70
   192
  0
VERTEX
  5
816
  8
0
 10
100.0305938720703
 20
-7.511571407318115
 30
-28.52023506164551
 70
   192
  0
VERTEX
  5
817
  8
0
 10
98.91725158691406
 20
-5.145695209503174
 30
-28.52023506164551
 70
   192
  0
VERTEX
  5
818
  8
0
 10
105.5198135375977
 20
-12.98906517028809
 30
-28.52023506164551
 70
   192
  0
VERTEX
  5
819
  8
0
 10
101.5300445556641
 20
-9.644569396972656
 30
-28.52023506164551
 70
   192
  0
VERTEX
  5
81A
  8
0
 10
107.8895721435547
 20
-14.09270763397217
 30
-28.52023506164551
 70
   192
  0
VERTEX
  5
81B
  8
0
 10
110.3948745727539
 20
-14.76854705810547
 30
-28.52023506164551
 70
   192
  0
VERTEX
  5
81C
  8
0
 10
103.3756942749023
 20
-11.48914051055908
 30
-28.52023506164551
 70
   192
  0
VERTEX
  5
81D
  8
0
 10
110.5312347412109
 20
14.70973300933838
 30
-28.72897529602051
 70
   192
  0
VERTEX
  5
81E
  8
0
 10
107.954216003418
 20
13.81143379211426
 30
-28.81500053405762
 70
   192
  0
VERTEX
  5
81F
  8
0
 10
107.749755859375
 20
13.9608736038208
 30
-28.72897529602051
 70
   192
  0
VERTEX
  5
820
  8
0
 10
101.9287261962891
 20
-9.994897842407227
 30
-28.72897529602051
 70
   192
  0
VERTEX
  5
821
  8
0
 10
103.5721588134766
 20
-11.27990627288818
 30
-28.81500053405762
 70
   192
  0
VERTEX
  5
822
  8
0
 10
104.7896499633789
 20
-12.45235919952393
 30
-28.72897529602051
 70
   192
  0
VERTEX
  5
823
  8
0
 10
110.4196243286133
 20
14.47398376464844
 30
-28.81500053405762
 70
   192
  0
VERTEX
  5
824
  8
0
 10
103.5331039428711
 20
11.24711608886719
 30
-28.81500053405762
 70
   192
  0
VERTEX
  5
825
  8
0
 10
104.7896499633789
 20
12.45235919952393
 30
-28.72897529602051
 70
   192
  0
VERTEX
  5
826
  8
0
 10
105.6498794555664
 20
12.73734760284424
 30
-28.81500053405762
 70
   192
  0
VERTEX
  5
827
  8
0
 10
98.51900482177734
 20
2.561403036117554
 30
-28.81500053405762
 70
   192
  0
VERTEX
  5
828
  8
0
 10
98.260009765625
 20
2.281188488006592
 30
-28.72897529602051
 70
   192
  0
VERTEX
  5
829
  8
0
 10
99.1777572631836
 20
5.016311645507812
 30
-28.81500053405762
 70
   192
  0
VERTEX
  5
82A
  8
0
 10
99.59284210205078
 20
6.535989761352539
 30
-28.72897529602051
 70
   192
  0
VERTEX
  5
82B
  8
0
 10
101.9287261962891
 20
9.994897842407227
 30
-28.72897529602051
 70
   192
  0
VERTEX
  5
82C
  8
0
 10
100.2547225952148
 20
7.33161449432373
 30
-28.81500053405762
 70
   192
  0
VERTEX
  5
82D
  8
0
 10
98.260009765625
 20
-2.281188488006592
 30
-28.72897529602051
 70
   192
  0
VERTEX
  5
82E
  8
0
 10
99.18721771240234
 20
-5.043312072753906
 30
-28.81500053405762
 70
   192
  0
VERTEX
  5
82F
  8
0
 10
99.59284210205078
 20
-6.535989761352539
 30
-28.72897529602051
 70
   192
  0
VERTEX
  5
830
  8
0
 10
98.29942321777344
 20
-0.026706051081419
 30
-28.81500053405762
 70
   192
  0
VERTEX
  5
831
  8
0
 10
100.272331237793
 20
-7.362512588500977
 30
-28.81500053405762
 70
   192
  0
VERTEX
  5
832
  8
0
 10
105.6667327880859
 20
-12.74459362030029
 30
-28.81500053405762
 70
   192
  0
VERTEX
  5
833
  8
0
 10
101.730339050293
 20
-9.446897506713867
 30
-28.81500053405762
 70
   192
  0
VERTEX
  5
834
  8
0
 10
107.749755859375
 20
-13.9608736038208
 30
-28.72897529602051
 70
   192
  0
VERTEX
  5
835
  8
0
 10
107.9752044677734
 20
-13.8204517364502
 30
-28.81500053405762
 70
   192
  0
VERTEX
  5
836
  8
0
 10
110.4196243286133
 20
-14.47398376464844
 30
-28.81500053405762
 70
   192
  0
VERTEX
  5
837
  8
0
 10
110.5312347412109
 20
-14.70973300933838
 30
-28.72897529602051
 70
   192
  0
VERTEX
  5
838
  8
0
 10
98.52366638183594
 20
-2.574695587158203
 30
-28.81500053405762
 70
   192
  0
VERTEX
  5
839
  8
0
 10
101.7261810302734
 20
9.43960189819336
 30
-28.81500053405762
 70
   192
  0
VERTEX
  5
83A
  8
0
 10
0.0
 20
2.740888118743896
 30
17.2605094909668
 70
   192
  0
VERTEX
  5
83B
  8
0
 10
0.0
 20
7.936038970947266
 30
15.57459163665771
 70
   192
  0
VERTEX
  5
83C
  8
0
 10
0.0
 20
5.409451007843018
 30
16.62113952636719
 70
   192
  0
VERTEX
  5
83D
  8
0
 10
0.0
 20
14.14256954193115
 30
10.26749610900879
 70
   192
  0
VERTEX
  5
83E
  8
0
 10
0.0
 20
10.27524089813232
 30
14.14170932769775
 70
   192
  0
VERTEX
  5
83F
  8
0
 10
0.0
 20
12.36524963378906
 30
12.35465812683105
 70
   192
  0
VERTEX
  5
840
  8
0
 10
0.0
 20
17.46500015258789
 30
-0.0000000000000374
 70
   192
  0
VERTEX
  5
841
  8
0
 10
0.0
 20
17.24940299987793
 30
2.72033953666687
 70
   192
  0
VERTEX
  5
842
  8
0
 10
0.0
 20
16.61199760437012
 30
5.386346817016602
 70
   192
  0
VERTEX
  5
843
  8
0
 10
0.0
 20
16.59158897399902
 30
-5.41409969329834
 70
   192
  0
VERTEX
  5
844
  8
0
 10
0.0
 20
17.24343109130859
 30
-2.746041059494019
 70
   192
  0
VERTEX
  5
845
  8
0
 10
0.0
 20
14.10146236419678
 30
-10.2679386138916
 70
   192
  0
VERTEX
  5
846
  8
0
 10
0.0
 20
15.53727912902832
 30
-7.936093807220459
 70
   192
  0
VERTEX
  5
847
  8
0
 10
0.0
 20
5.37429141998291
 30
-16.60120964050293
 70
   192
  0
VERTEX
  5
848
  8
0
 10
0.0
 20
10.23744201660156
 30
-14.12410831451416
 70
   192
  0
VERTEX
  5
849
  8
0
 10
0.0
 20
7.909985542297363
 30
-15.5514440536499
 70
   192
  0
VERTEX
  5
84A
  8
0
 10
0.0
 20
12.31730079650879
 30
-12.35069847106934
 70
   192
  0
VERTEX
  5
84B
  8
0
 10
0.0
 20
2.734199285507202
 30
-17.24015998840332
 70
   192
  0
VERTEX
  5
84C
  8
0
 10
0.0
 20
15.56937694549561
 30
7.930553436279297
 70
   192
  0
VERTEX
  5
84D
  8
0
 62
    43
 10
0.0
 20
0.0
 30
0.0
 70
   128
 71
     3
 72
     2
 73
     1
  0
VERTEX
  5
84E
  8
0
 62
    43
 10
0.0
 20
0.0
 30
0.0
 70
   128
 71
     5
 72
     2
 73
     4
  0
VERTEX
  5
84F
  8
0
 62
    43
 10
0.0
 20
0.0
 30
0.0
 70
   128
 71
     3
 72
     4
 73
     2
  0
VERTEX
  5
850
  8
0
 62
    43
 10
0.0
 20
0.0
 30
0.0
 70
   128
 71
     5
 72
     7
 73
     6
  0
VERTEX
  5
851
  8
0
 62
    43
 10
0.0
 20
0.0
 30
0.0
 70
   128
 71
     7
 72
     5
 73
     4
  0
VERTEX
  5
852
  8
0
 62
    43
 10
0.0
 20
0.0
 30
0.0
 70
   128
 71
     9
 72
     8
 73
     6
  0
VERTEX
  5
853
  8
0
 62
    43
 10
0.0
 20
0.0
 30
0.0
 70
   128
 71
     6
 72
     7
 73
     9
  0
VERTEX
  5
854
  8
0
 62
    43
 10
0.0
 20
0.0
 30
0.0
 70
   128
 71
    11
 72
     8
 73
    10
  0
VERTEX
  5
855
  8
0
 62
    43
 10
0.0
 20
0.0
 30
0.0
 70
   128
 71
     9
 72
    10
 73
     8
  0
VERTEX
  5
856
  8
0
 62
    43
 10
0.0
 20
0.0
 30
0.0
 70
   128
 71
    11
 72
    13
 73
    12
  0
VERTEX
  5
857
  8
0
 62
    43
 10
0.0
 20
0.0
 30
0.0
 70
   128
 71
    13
 72
    11
 73
    10
  0
VERTEX
  5
858
  8
0
 62
    43
 10
0.0
 20
0.0
 30
0.0
 70
   128
 71
    15
 72
    14
 73
    12
  0
VERTEX
  5
859
  8
0
 62
    43
 10
0.0
 20
0.0
 30
0.0
 70
   128
 71
    12
 72
    13
 73
    15
  0
VERTEX
  5
85A
  8
0
 62
    43
 10
0.0
 20
0.0
 30
0.0
 70
   128
 71
    17
 72
    14
 73
    16
  0
VERTEX
  5
85B
  8
0
 62
    43
 10
0.0
 20
0.0
 30
0.0
 70
   128
 71
    15
 72
    16
 73
    14
  0
VERTEX
  5
85C
  8
0
 62
    43
 10
0.0
 20
0.0
 30
0.0
 70
   128
 71
    17
 72
    19
 73
    18
  0
VERTEX
  5
85D
  8
0
 62
    43
 10
0.0
 20
0.0
 30
0.0
 70
   128
 71
    19
 72
    17
 73
    16
  0
VERTEX
  5
85E
  8
0
 62
    43
 10
0.0
 20
0.0
 30
0.0
 70
   128
 71
    21
 72
    20
 73
    18
  0
VERTEX
  5
85F
  8
0
 62
    43
 10
0.0
 20
0.0
 30
0.0
 70
   128
 71
    18
 72
    19
 73
    21
  0
VERTEX
  5
860
  8
0
 62
    43
 10
0.0
 20
0.0
 30
0.0
 70
   128
 71
    21
 72
    22
 73
    20
  0
VERTEX
  5
861
  8
0
 62
    43
 10
0.0
 20
0.0
 30
0.0
 70
   128
 71
    22
 72
    23
 73
    20
  0
VERTEX
  5
862
  8
0
 62
    43
 10
0.0
 20
0.0
 30
0.0
 70
   128
 71
    24
 72
     3
 73
     1
  0
VERTEX
  5
863
  8
0
 62
    43
 10
0.0
 20
0.0
 30
0.0
 70
   128
 71
    24
 72
    26
 73
    25
  0
VERTEX
  5
864
  8
0
 62
    43
 10
0.0
 20
0.0
 30
0.0
 70
   128
 71
    26
 72
    24
 73
     1
  0
VERTEX
  5
865
  8
0
 62
    43
 10
0.0
 20
0.0
 30
0.0
 70
   128
 71
    28
 72
    27
 73
    25
  0
VERTEX
  5
866
  8
0
 62
    43
 10
0.0
 20
0.0
 30
0.0
 70
   128
 71
    25
 72
    26
 73
    28
  0
VERTEX
  5
867
  8
0
 62
    43
 10
0.0
 20
0.0
 30
0.0
 70
   128
 71
    31
 72
    30
 73
    29
  0
VERTEX
  5
868
  8
0
 62
    43
 10
0.0
 20
0.0
 30
0.0
 70
   128
 71
    27
 72
    31
 73
    29
  0
VERTEX
  5
869
  8
0
 62
    43
 10
0.0
 20
0.0
 30
0.0
 70
   128
 71
    34
 72
    33
 73
    32
  0
VERTEX
  5
86A
  8
0
 62
    43
 10
0.0
 20
0.0
 30
0.0
 70
   128
 71
    30
 72
    33
 73
    29
  0
VERTEX
  5
86B
  8
0
 62
    43
 10
0.0
 20
0.0
 30
0.0
 70
   128
 71
    36
 72
    32
 73
    35
  0
VERTEX
  5
86C
  8
0
 62
    43
 10
0.0
 20
0.0
 30
0.0
 70
   128
 71
    36
 72
    34
 73
    32
  0
VERTEX
  5
86D
  8
0
 62
    43
 10
0.0
 20
0.0
 30
0.0
 70
   128
 71
    35
 72
    38
 73
    37
  0
VERTEX
  5
86E
  8
0
 62
    43
 10
0.0
 20
0.0
 30
0.0
 70
   128
 71
    36
 72
    35
 73
    37
  0
VERTEX
  5
86F
  8
0
 62
    43
 10
0.0
 20
0.0
 30
0.0
 70
   128
 71
    40
 72
    39
 73
    38
  0
VERTEX
  5
870
  8
0
 62
    43
 10
0.0
 20
0.0
 30
0.0
 70
   128
 71
    38
 72
    39
 73
    37
  0
VERTEX
  5
871
  8
0
 62
    43
 10
0.0
 20
0.0
 30
0.0
 70
   128
 71
    42
 72
    40
 73
    41
  0
VERTEX
  5
872
  8
0
 62
    43
 10
0.0
 20
0.0
 30
0.0
 70
   128
 71
    40
 72
    42
 73
    39
  0
VERTEX
  5
873
  8
0
 62
    43
 10
0.0
 20
0.0
 30
0.0
 70
   128
 71
    44
 72
    43
 73
    42
  0
VERTEX
  5
874
  8
0
 62
    43
 10
0.0
 20
0.0
 30
0.0
 70
   128
 71
    42
 72
    41
 73
    44
  0
VERTEX
  5
875
  8
0
 62
    43
 10
0.0
 20
0.0
 30
0.0
 70
   128
 71
    47
 72
    46
 73
    45
  0
VERTEX
  5
876
  8
0
 62
    43
 10
0.0
 20
0.0
 30
0.0
 70
   128
 71
    46
 72
    49
 73
    48
  0
VERTEX
  5
877
  8
0
 62
    43
 10
0.0
 20
0.0
 30
0.0
 70
   128
 71
    49
 72
    51
 73
    50
  0
VERTEX
  5
878
  8
0
 62
    43
 10
0.0
 20
0.0
 30
0.0
 70
   128
 71
    51
 72
    53
 73
    52
  0
VERTEX
  5
879
  8
0
 62
    43
 10
0.0
 20
0.0
 30
0.0
 70
   128
 71
    53
 72
    55
 73
    54
  0
VERTEX
  5
87A
  8
0
 62
    43
 10
0.0
 20
0.0
 30
0.0
 70
   128
 71
    58
 72
    57
 73
    56
  0
VERTEX
  5
87B
  8
0
 62
    43
 10
0.0
 20
0.0
 30
0.0
 70
   128
 71
    33
 72
    34
 73
    29
  0
VERTEX
  5
87C
  8
0
 62
    43
 10
0.0
 20
0.0
 30
0.0
 70
   128
 71
    54
 72
    55
 73
    56
  0
VERTEX
  5
87D
  8
0
 62
    43
 10
0.0
 20
0.0
 30
0.0
 70
   128
 71
    28
 72
    58
 73
    59
  0
VERTEX
  5
87E
  8
0
 62
    43
 10
0.0
 20
0.0
 30
0.0
 70
   128
 71
    28
 72
    59
 73
    60
  0
VERTEX
  5
87F
  8
0
 62
    43
 10
0.0
 20
0.0
 30
0.0
 70
   128
 71
    62
 72
    27
 73
    61
  0
VERTEX
  5
880
  8
0
 62
    43
 10
0.0
 20
0.0
 30
0.0
 70
   128
 71
    62
 72
    31
 73
    27
  0
VERTEX
  5
881
  8
0
 62
    43
 10
0.0
 20
0.0
 30
0.0
 70
   128
 71
    61
 72
    27
 73
    28
  0
VERTEX
  5
882
  8
0
 62
    43
 10
0.0
 20
0.0
 30
0.0
 70
   128
 71
    60
 72
    61
 73
    28
  0
VERTEX
  5
883
  8
0
 62
    43
 10
0.0
 20
0.0
 30
0.0
 70
   128
 71
    57
 72
    58
 73
    28
  0
VERTEX
  5
884
  8
0
 62
    43
 10
0.0
 20
0.0
 30
0.0
 70
   128
 71
    56
 72
    57
 73
    54
  0
VERTEX
  5
885
  8
0
 62
    43
 10
0.0
 20
0.0
 30
0.0
 70
   128
 71
    53
 72
    54
 73
    52
  0
VERTEX
  5
886
  8
0
 62
    43
 10
0.0
 20
0.0
 30
0.0
 70
   128
 71
    51
 72
    52
 73
    50
  0
VERTEX
  5
887
  8
0
 62
    43
 10
0.0
 20
0.0
 30
0.0
 70
   128
 71
    49
 72
    50
 73
    48
  0
VERTEX
  5
888
  8
0
 62
    43
 10
0.0
 20
0.0
 30
0.0
 70
   128
 71
    46
 72
    48
 73
    45
  0
VERTEX
  5
889
  8
0
 62
    43
 10
0.0
 20
0.0
 30
0.0
 70
   128
 71
    47
 72
    45
 73
    63
  0
VERTEX
  5
88A
  8
0
 62
    43
 10
0.0
 20
0.0
 30
0.0
 70
   128
 71
    65
 72
    63
 73
    64
  0
VERTEX
  5
88B
  8
0
 62
    43
 10
0.0
 20
0.0
 30
0.0
 70
   128
 71
    63
 72
    65
 73
    47
  0
VERTEX
  5
88C
  8
0
 62
    43
 10
0.0
 20
0.0
 30
0.0
 70
   128
 71
    68
 72
    67
 73
    66
  0
VERTEX
  5
88D
  8
0
 62
    43
 10
0.0
 20
0.0
 30
0.0
 70
   128
 71
    70
 72
    69
 73
    68
  0
VERTEX
  5
88E
  8
0
 62
    43
 10
0.0
 20
0.0
 30
0.0
 70
   128
 71
    73
 72
    72
 73
    71
  0
VERTEX
  5
88F
  8
0
 62
    43
 10
0.0
 20
0.0
 30
0.0
 70
   128
 71
    70
 72
    68
 73
    66
  0
VERTEX
  5
890
  8
0
 62
    43
 10
0.0
 20
0.0
 30
0.0
 70
   128
 71
    71
 72
    74
 73
    73
  0
VERTEX
  5
891
  8
0
 62
    43
 10
0.0
 20
0.0
 30
0.0
 70
   128
 71
    72
 72
    73
 73
    66
  0
VERTEX
  5
892
  8
0
 62
    43
 10
0.0
 20
0.0
 30
0.0
 70
   128
 71
    74
 72
    71
 73
    75
  0
VERTEX
  5
893
  8
0
 62
    43
 10
0.0
 20
0.0
 30
0.0
 70
   128
 71
    75
 72
    76
 73
    74
  0
VERTEX
  5
894
  8
0
 62
    43
 10
0.0
 20
0.0
 30
0.0
 70
   128
 71
    66
 72
    67
 73
    72
  0
VERTEX
  5
895
  8
0
 62
    43
 10
0.0
 20
0.0
 30
0.0
 70
   128
 71
    78
 72
    69
 73
    77
  0
VERTEX
  5
896
  8
0
 62
    43
 10
0.0
 20
0.0
 30
0.0
 70
   128
 71
    70
 72
    77
 73
    69
  0
VERTEX
  5
897
  8
0
 62
    43
 10
0.0
 20
0.0
 30
0.0
 70
   128
 71
    78
 72
    80
 73
    79
  0
VERTEX
  5
898
  8
0
 62
    43
 10
0.0
 20
0.0
 30
0.0
 70
   128
 71
    80
 72
    78
 73
    77
  0
VERTEX
  5
899
  8
0
 62
    43
 10
0.0
 20
0.0
 30
0.0
 70
   128
 71
    82
 72
    81
 73
    79
  0
VERTEX
  5
89A
  8
0
 62
    43
 10
0.0
 20
0.0
 30
0.0
 70
   128
 71
    79
 72
    80
 73
    82
  0
VERTEX
  5
89B
  8
0
 62
    43
 10
0.0
 20
0.0
 30
0.0
 70
   128
 71
    84
 72
    81
 73
    83
  0
VERTEX
  5
89C
  8
0
 62
    43
 10
0.0
 20
0.0
 30
0.0
 70
   128
 71
    82
 72
    83
 73
    81
  0
VERTEX
  5
89D
  8
0
 62
    43
 10
0.0
 20
0.0
 30
0.0
 70
   128
 71
    83
 72
    85
 73
    84
  0
VERTEX
  5
89E
  8
0
 62
    43
 10
0.0
 20
0.0
 30
0.0
 70
   128
 71
    86
 72
    85
 73
    83
  0
VERTEX
  5
89F
  8
0
 62
    43
 10
0.0
 20
0.0
 30
0.0
 70
   128
 71
    89
 72
    88
 73
    87
  0
VERTEX
  5
8A0
  8
0
 62
    43
 10
0.0
 20
0.0
 30
0.0
 70
   128
 71
    92
 72
    91
 73
    90
  0
VERTEX
  5
8A1
  8
0
 62
    43
 10
0.0
 20
0.0
 30
0.0
 70
   128
 71
    95
 72
    94
 73
    93
  0
VERTEX
  5
8A2
  8
0
 62
    43
 10
0.0
 20
0.0
 30
0.0
 70
   128
 71
    93
 72
    92
 73
    90
  0
VERTEX
  5
8A3
  8
0
 62
    43
 10
0.0
 20
0.0
 30
0.0
 70
   128
 71
    98
 72
    97
 73
    96
  0
VERTEX
  5
8A4
  8
0
 62
    43
 10
0.0
 20
0.0
 30
0.0
 70
   128
 71
    90
 72
    98
 73
    96
  0
VERTEX
  5
8A5
  8
0
 62
    43
 10
0.0
 20
0.0
 30
0.0
 70
   128
 71
    90
 72
   100
 73
    99
  0
VERTEX
  5
8A6
  8
0
 62
    43
 10
0.0
 20
0.0
 30
0.0
 70
   128
 71
   102
 72
    98
 73
   101
  0
VERTEX
  5
8A7
  8
0
 62
    43
 10
0.0
 20
0.0
 30
0.0
 70
   128
 71
    98
 72
    91
 73
   101
  0
VERTEX
  5
8A8
  8
0
 62
    43
 10
0.0
 20
0.0
 30
0.0
 70
   128
 71
   104
 72
    64
 73
   103
  0
VERTEX
  5
8A9
  8
0
 62
    43
 10
0.0
 20
0.0
 30
0.0
 70
   128
 71
    64
 72
   104
 73
   102
  0
VERTEX
  5
8AA
  8
0
 62
    43
 10
0.0
 20
0.0
 30
0.0
 70
   128
 71
   102
 72
   104
 73
    98
  0
VERTEX
  5
8AB
  8
0
 62
    43
 10
0.0
 20
0.0
 30
0.0
 70
   128
 71
    91
 72
    98
 73
    90
  0
VERTEX
  5
8AC
  8
0
 62
    43
 10
0.0
 20
0.0
 30
0.0
 70
   128
 71
   103
 72
   106
 73
   105
  0
VERTEX
  5
8AD
  8
0
 62
    43
 10
0.0
 20
0.0
 30
0.0
 70
   128
 71
   105
 72
   107
 73
   103
  0
VERTEX
  5
8AE
  8
0
 62
    43
 10
0.0
 20
0.0
 30
0.0
 70
   128
 71
   103
 72
    64
 73
    63
  0
VERTEX
  5
8AF
  8
0
 62
    43
 10
0.0
 20
0.0
 30
0.0
 70
   128
 71
   108
 72
    95
 73
    93
  0
VERTEX
  5
8B0
  8
0
 62
    43
 10
0.0
 20
0.0
 30
0.0
 70
   128
 71
   109
 72
   108
 73
    93
  0
VERTEX
  5
8B1
  8
0
 62
    43
 10
0.0
 20
0.0
 30
0.0
 70
   128
 71
    95
 72
   110
 73
    94
  0
VERTEX
  5
8B2
  8
0
 62
    43
 10
0.0
 20
0.0
 30
0.0
 70
   128
 71
   111
 72
   110
 73
    95
  0
VERTEX
  5
8B3
  8
0
 62
    43
 10
0.0
 20
0.0
 30
0.0
 70
   128
 71
    89
 72
   111
 73
    95
  0
VERTEX
  5
8B4
  8
0
 62
    43
 10
0.0
 20
0.0
 30
0.0
 70
   128
 71
   112
 72
   111
 73
    89
  0
VERTEX
  5
8B5
  8
0
 62
    43
 10
0.0
 20
0.0
 30
0.0
 70
   128
 71
    95
 72
   114
 73
   113
  0
VERTEX
  5
8B6
  8
0
 62
    43
 10
0.0
 20
0.0
 30
0.0
 70
   128
 71
   116
 72
    89
 73
   115
  0
VERTEX
  5
8B7
  8
0
 62
    43
 10
0.0
 20
0.0
 30
0.0
 70
   128
 71
    89
 72
   116
 73
   112
  0
VERTEX
  5
8B8
  8
0
 62
    43
 10
0.0
 20
0.0
 30
0.0
 70
   128
 71
   118
 72
   115
 73
   117
  0
VERTEX
  5
8B9
  8
0
 62
    43
 10
0.0
 20
0.0
 30
0.0
 70
   128
 71
    89
 72
    87
 73
   115
  0
VERTEX
  5
8BA
  8
0
 62
    43
 10
0.0
 20
0.0
 30
0.0
 70
   128
 71
   121
 72
   120
 73
   119
  0
VERTEX
  5
8BB
  8
0
 62
    43
 10
0.0
 20
0.0
 30
0.0
 70
   128
 71
   115
 72
   123
 73
   122
  0
VERTEX
  5
8BC
  8
0
 62
    43
 10
0.0
 20
0.0
 30
0.0
 70
   128
 71
   126
 72
   125
 73
   124
  0
VERTEX
  5
8BD
  8
0
 62
    43
 10
0.0
 20
0.0
 30
0.0
 70
   128
 71
   128
 72
   127
 73
   120
  0
VERTEX
  5
8BE
  8
0
 62
    43
 10
0.0
 20
0.0
 30
0.0
 70
   128
 71
   131
 72
   130
 73
   129
  0
VERTEX
  5
8BF
  8
0
 62
    43
 10
0.0
 20
0.0
 30
0.0
 70
   128
 71
   133
 72
   132
 73
   129
  0
VERTEX
  5
8C0
  8
0
 62
    43
 10
0.0
 20
0.0
 30
0.0
 70
   128
 71
   136
 72
   135
 73
   134
  0
VERTEX
  5
8C1
  8
0
 62
    43
 10
0.0
 20
0.0
 30
0.0
 70
   128
 71
   134
 72
   137
 73
   131
  0
VERTEX
  5
8C2
  8
0
 62
    43
 10
0.0
 20
0.0
 30
0.0
 70
   128
 71
   134
 72
   138
 73
   137
  0
VERTEX
  5
8C3
  8
0
 62
    43
 10
0.0
 20
0.0
 30
0.0
 70
   128
 71
   134
 72
   131
 73
   136
  0
VERTEX
  5
8C4
  8
0
 62
    43
 10
0.0
 20
0.0
 30
0.0
 70
   128
 71
   137
 72
   130
 73
   131
  0
VERTEX
  5
8C5
  8
0
 62
    43
 10
0.0
 20
0.0
 30
0.0
 70
   128
 71
   131
 72
   129
 73
   139
  0
VERTEX
  5
8C6
  8
0
 62
    43
 10
0.0
 20
0.0
 30
0.0
 70
   128
 71
   141
 72
   132
 73
   140
  0
VERTEX
  5
8C7
  8
0
 62
    43
 10
0.0
 20
0.0
 30
0.0
 70
   128
 71
   143
 72
   126
 73
   142
  0
VERTEX
  5
8C8
  8
0
 62
    43
 10
0.0
 20
0.0
 30
0.0
 70
   128
 71
   133
 72
   125
 73
   132
  0
VERTEX
  5
8C9
  8
0
 62
    43
 10
0.0
 20
0.0
 30
0.0
 70
   128
 71
   126
 72
   132
 73
   125
  0
VERTEX
  5
8CA
  8
0
 62
    43
 10
0.0
 20
0.0
 30
0.0
 70
   128
 71
   145
 72
   144
 73
   120
  0
VERTEX
  5
8CB
  8
0
 62
    43
 10
0.0
 20
0.0
 30
0.0
 70
   128
 71
   126
 72
   124
 73
   128
  0
VERTEX
  5
8CC
  8
0
 62
    43
 10
0.0
 20
0.0
 30
0.0
 70
   128
 71
   146
 72
   121
 73
   119
  0
VERTEX
  5
8CD
  8
0
 62
    43
 10
0.0
 20
0.0
 30
0.0
 70
   128
 71
   120
 72
   126
 73
   128
  0
VERTEX
  5
8CE
  8
0
 62
    43
 10
0.0
 20
0.0
 30
0.0
 70
   128
 71
   119
 72
   147
 73
   117
  0
VERTEX
  5
8CF
  8
0
 62
    43
 10
0.0
 20
0.0
 30
0.0
 70
   128
 71
   119
 72
   120
 73
   147
  0
VERTEX
  5
8D0
  8
0
 62
    43
 10
0.0
 20
0.0
 30
0.0
 70
   128
 71
   127
 72
   147
 73
   120
  0
VERTEX
  5
8D1
  8
0
 62
    43
 10
0.0
 20
0.0
 30
0.0
 70
   128
 71
   115
 72
   119
 73
   117
  0
VERTEX
  5
8D2
  8
0
 62
    43
 10
0.0
 20
0.0
 30
0.0
 70
   128
 71
   119
 72
   115
 73
   122
  0
VERTEX
  5
8D3
  8
0
 62
    43
 10
0.0
 20
0.0
 30
0.0
 70
   128
 71
   131
 72
   139
 73
   136
  0
VERTEX
  5
8D4
  8
0
 62
    43
 10
0.0
 20
0.0
 30
0.0
 70
   128
 71
   129
 72
   148
 73
   139
  0
VERTEX
  5
8D5
  8
0
 62
    43
 10
0.0
 20
0.0
 30
0.0
 70
   128
 71
   148
 72
   129
 73
   141
  0
VERTEX
  5
8D6
  8
0
 62
    43
 10
0.0
 20
0.0
 30
0.0
 70
   128
 71
   129
 72
   130
 73
   133
  0
VERTEX
  5
8D7
  8
0
 62
    43
 10
0.0
 20
0.0
 30
0.0
 70
   128
 71
   129
 72
   132
 73
   141
  0
VERTEX
  5
8D8
  8
0
 62
    43
 10
0.0
 20
0.0
 30
0.0
 70
   128
 71
   140
 72
   132
 73
   143
  0
VERTEX
  5
8D9
  8
0
 62
    43
 10
0.0
 20
0.0
 30
0.0
 70
   128
 71
   132
 72
   126
 73
   143
  0
VERTEX
  5
8DA
  8
0
 62
    43
 10
0.0
 20
0.0
 30
0.0
 70
   128
 71
   144
 72
   142
 73
   126
  0
VERTEX
  5
8DB
  8
0
 62
    43
 10
0.0
 20
0.0
 30
0.0
 70
   128
 71
   126
 72
   120
 73
   144
  0
VERTEX
  5
8DC
  8
0
 62
    43
 10
0.0
 20
0.0
 30
0.0
 70
   128
 71
   145
 72
   120
 73
   121
  0
VERTEX
  5
8DD
  8
0
 62
    43
 10
0.0
 20
0.0
 30
0.0
 70
   128
 71
   119
 72
   149
 73
   146
  0
VERTEX
  5
8DE
  8
0
 62
    43
 10
0.0
 20
0.0
 30
0.0
 70
   128
 71
   122
 72
   149
 73
   119
  0
VERTEX
  5
8DF
  8
0
 62
    43
 10
0.0
 20
0.0
 30
0.0
 70
   128
 71
   123
 72
   115
 73
    87
  0
VERTEX
  5
8E0
  8
0
 62
    43
 10
0.0
 20
0.0
 30
0.0
 70
   128
 71
   115
 72
   118
 73
   116
  0
VERTEX
  5
8E1
  8
0
 62
    43
 10
0.0
 20
0.0
 30
0.0
 70
   128
 71
    89
 72
   150
 73
    88
  0
VERTEX
  5
8E2
  8
0
 62
    43
 10
0.0
 20
0.0
 30
0.0
 70
   128
 71
   113
 72
   150
 73
    89
  0
VERTEX
  5
8E3
  8
0
 62
    43
 10
0.0
 20
0.0
 30
0.0
 70
   128
 71
    89
 72
    95
 73
   113
  0
VERTEX
  5
8E4
  8
0
 62
    43
 10
0.0
 20
0.0
 30
0.0
 70
   128
 71
   114
 72
    95
 73
   108
  0
VERTEX
  5
8E5
  8
0
 62
    43
 10
0.0
 20
0.0
 30
0.0
 70
   128
 71
   109
 72
    93
 73
    99
  0
VERTEX
  5
8E6
  8
0
 62
    43
 10
0.0
 20
0.0
 30
0.0
 70
   128
 71
    93
 72
    94
 73
    92
  0
VERTEX
  5
8E7
  8
0
 62
    43
 10
0.0
 20
0.0
 30
0.0
 70
   128
 71
    93
 72
    90
 73
    99
  0
VERTEX
  5
8E8
  8
0
 62
    43
 10
0.0
 20
0.0
 30
0.0
 70
   128
 71
   100
 72
    90
 73
    96
  0
VERTEX
  5
8E9
  8
0
 62
    43
 10
0.0
 20
0.0
 30
0.0
 70
   128
 71
    98
 72
   151
 73
    97
  0
VERTEX
  5
8EA
  8
0
 62
    43
 10
0.0
 20
0.0
 30
0.0
 70
   128
 71
   104
 72
   107
 73
   151
  0
VERTEX
  5
8EB
  8
0
 62
    43
 10
0.0
 20
0.0
 30
0.0
 70
   128
 71
    98
 72
   104
 73
   151
  0
VERTEX
  5
8EC
  8
0
 62
    43
 10
0.0
 20
0.0
 30
0.0
 70
   128
 71
   104
 72
   103
 73
   107
  0
VERTEX
  5
8ED
  8
0
 62
    43
 10
0.0
 20
0.0
 30
0.0
 70
   128
 71
   153
 72
   146
 73
   152
  0
VERTEX
  5
8EE
  8
0
 62
    43
 10
0.0
 20
0.0
 30
0.0
 70
   128
 71
   154
 72
   122
 73
   123
  0
VERTEX
  5
8EF
  8
0
 62
    43
 10
0.0
 20
0.0
 30
0.0
 70
   128
 71
   152
 72
   149
 73
   122
  0
VERTEX
  5
8F0
  8
0
 62
    43
 10
0.0
 20
0.0
 30
0.0
 70
   128
 71
   153
 72
   121
 73
   146
  0
VERTEX
  5
8F1
  8
0
 62
    43
 10
0.0
 20
0.0
 30
0.0
 70
   128
 71
   153
 72
   144
 73
   145
  0
VERTEX
  5
8F2
  8
0
 62
    43
 10
0.0
 20
0.0
 30
0.0
 70
   128
 71
   121
 72
   153
 73
   145
  0
VERTEX
  5
8F3
  8
0
 62
    43
 10
0.0
 20
0.0
 30
0.0
 70
   128
 71
   155
 72
   142
 73
   144
  0
VERTEX
  5
8F4
  8
0
 62
    43
 10
0.0
 20
0.0
 30
0.0
 70
   128
 71
   156
 72
   143
 73
   155
  0
VERTEX
  5
8F5
  8
0
 62
    43
 10
0.0
 20
0.0
 30
0.0
 70
   128
 71
   155
 72
   143
 73
   142
  0
VERTEX
  5
8F6
  8
0
 62
    43
 10
0.0
 20
0.0
 30
0.0
 70
   128
 71
   140
 72
   156
 73
   141
  0
VERTEX
  5
8F7
  8
0
 62
    43
 10
0.0
 20
0.0
 30
0.0
 70
   128
 71
   140
 72
   143
 73
   156
  0
VERTEX
  5
8F8
  8
0
 62
    43
 10
0.0
 20
0.0
 30
0.0
 70
   128
 71
   159
 72
   158
 73
   157
  0
VERTEX
  5
8F9
  8
0
 62
    43
 10
0.0
 20
0.0
 30
0.0
 70
   128
 71
   139
 72
   148
 73
   159
  0
VERTEX
  5
8FA
  8
0
 62
    43
 10
0.0
 20
0.0
 30
0.0
 70
   128
 71
   159
 72
   148
 73
   141
  0
VERTEX
  5
8FB
  8
0
 62
    43
 10
0.0
 20
0.0
 30
0.0
 70
   128
 71
   159
 72
   136
 73
   139
  0
VERTEX
  5
8FC
  8
0
 62
    43
 10
0.0
 20
0.0
 30
0.0
 70
   128
 71
   135
 72
   136
 73
   157
  0
VERTEX
  5
8FD
  8
0
 62
    43
 10
0.0
 20
0.0
 30
0.0
 70
   128
 71
   157
 72
   136
 73
   159
  0
VERTEX
  5
8FE
  8
0
 62
    43
 10
0.0
 20
0.0
 30
0.0
 70
   128
 71
   160
 72
   135
 73
   157
  0
VERTEX
  5
8FF
  8
0
 62
    43
 10
0.0
 20
0.0
 30
0.0
 70
   128
 71
   156
 72
   159
 73
   141
  0
VERTEX
  5
900
  8
0
 62
    43
 10
0.0
 20
0.0
 30
0.0
 70
   128
 71
   159
 72
   156
 73
   158
  0
VERTEX
  5
901
  8
0
 62
    43
 10
0.0
 20
0.0
 30
0.0
 70
   128
 71
   144
 72
   153
 73
   155
  0
VERTEX
  5
902
  8
0
 62
    43
 10
0.0
 20
0.0
 30
0.0
 70
   128
 71
   156
 72
   155
 73
   158
  0
VERTEX
  5
903
  8
0
 62
    43
 10
0.0
 20
0.0
 30
0.0
 70
   128
 71
   146
 72
   149
 73
   152
  0
VERTEX
  5
904
  8
0
 62
    43
 10
0.0
 20
0.0
 30
0.0
 70
   128
 71
   153
 72
   158
 73
   155
  0
VERTEX
  5
905
  8
0
 62
    43
 10
0.0
 20
0.0
 30
0.0
 70
   128
 71
   153
 72
   152
 73
   158
  0
VERTEX
  5
906
  8
0
 62
    43
 10
0.0
 20
0.0
 30
0.0
 70
   128
 71
   152
 72
   154
 73
   158
  0
VERTEX
  5
907
  8
0
 62
    43
 10
0.0
 20
0.0
 30
0.0
 70
   128
 71
   122
 72
   154
 73
   152
  0
VERTEX
  5
908
  8
0
 62
    43
 10
0.0
 20
0.0
 30
0.0
 70
   128
 71
   163
 72
   162
 73
   161
  0
VERTEX
  5
909
  8
0
 62
    43
 10
0.0
 20
0.0
 30
0.0
 70
   128
 71
   157
 72
   164
 73
   160
  0
VERTEX
  5
90A
  8
0
 62
    43
 10
0.0
 20
0.0
 30
0.0
 70
   128
 71
   161
 72
   165
 73
   164
  0
VERTEX
  5
90B
  8
0
 62
    43
 10
0.0
 20
0.0
 30
0.0
 70
   128
 71
   163
 72
   166
 73
   162
  0
VERTEX
  5
90C
  8
0
 62
    43
 10
0.0
 20
0.0
 30
0.0
 70
   128
 71
   163
 72
   167
 73
   166
  0
VERTEX
  5
90D
  8
0
 62
    43
 10
0.0
 20
0.0
 30
0.0
 70
   128
 71
   170
 72
   169
 73
   168
  0
VERTEX
  5
90E
  8
0
 62
    43
 10
0.0
 20
0.0
 30
0.0
 70
   128
 71
   163
 72
   168
 73
   167
  0
VERTEX
  5
90F
  8
0
 62
    43
 10
0.0
 20
0.0
 30
0.0
 70
   128
 71
   172
 72
   171
 73
   170
  0
VERTEX
  5
910
  8
0
 62
    43
 10
0.0
 20
0.0
 30
0.0
 70
   128
 71
   169
 72
   170
 73
   171
  0
VERTEX
  5
911
  8
0
 62
    43
 10
0.0
 20
0.0
 30
0.0
 70
   128
 71
   173
 72
   171
 73
   172
  0
VERTEX
  5
912
  8
0
 62
    43
 10
0.0
 20
0.0
 30
0.0
 70
   128
 71
   176
 72
   175
 73
   174
  0
VERTEX
  5
913
  8
0
 62
    43
 10
0.0
 20
0.0
 30
0.0
 70
   128
 71
   176
 72
   174
 73
   177
  0
VERTEX
  5
914
  8
0
 62
    43
 10
0.0
 20
0.0
 30
0.0
 70
   128
 71
   177
 72
   173
 73
   172
  0
VERTEX
  5
915
  8
0
 62
    43
 10
0.0
 20
0.0
 30
0.0
 70
   128
 71
   178
 72
   176
 73
   158
  0
VERTEX
  5
916
  8
0
 62
    43
 10
0.0
 20
0.0
 30
0.0
 70
   128
 71
   179
 72
   176
 73
   178
  0
VERTEX
  5
917
  8
0
 62
    43
 10
0.0
 20
0.0
 30
0.0
 70
   128
 71
   176
 72
   179
 73
   175
  0
VERTEX
  5
918
  8
0
 62
    43
 10
0.0
 20
0.0
 30
0.0
 70
   128
 71
   179
 72
   178
 73
   180
  0
VERTEX
  5
919
  8
0
 62
    43
 10
0.0
 20
0.0
 30
0.0
 70
   128
 71
   172
 72
   176
 73
   177
  0
VERTEX
  5
91A
  8
0
 62
    43
 10
0.0
 20
0.0
 30
0.0
 70
   128
 71
   176
 72
   172
 73
   158
  0
VERTEX
  5
91B
  8
0
 62
    43
 10
0.0
 20
0.0
 30
0.0
 70
   128
 71
   168
 72
   163
 73
   170
  0
VERTEX
  5
91C
  8
0
 62
    43
 10
0.0
 20
0.0
 30
0.0
 70
   128
 71
   172
 72
   170
 73
   158
  0
VERTEX
  5
91D
  8
0
 62
    43
 10
0.0
 20
0.0
 30
0.0
 70
   128
 71
   162
 72
   165
 73
   161
  0
VERTEX
  5
91E
  8
0
 62
    43
 10
0.0
 20
0.0
 30
0.0
 70
   128
 71
   163
 72
   158
 73
   170
  0
VERTEX
  5
91F
  8
0
 62
    43
 10
0.0
 20
0.0
 30
0.0
 70
   128
 71
   163
 72
   161
 73
   158
  0
VERTEX
  5
920
  8
0
 62
    43
 10
0.0
 20
0.0
 30
0.0
 70
   128
 71
   161
 72
   157
 73
   158
  0
VERTEX
  5
921
  8
0
 62
    43
 10
0.0
 20
0.0
 30
0.0
 70
   128
 71
   164
 72
   157
 73
   161
  0
VERTEX
  5
922
  8
0
 62
    43
 10
0.0
 20
0.0
 30
0.0
 70
   128
 71
   183
 72
   182
 73
   181
  0
VERTEX
  5
923
  8
0
 62
    43
 10
0.0
 20
0.0
 30
0.0
 70
   128
 71
   178
 72
   184
 73
   180
  0
VERTEX
  5
924
  8
0
 62
    43
 10
0.0
 20
0.0
 30
0.0
 70
   128
 71
   181
 72
   185
 73
   184
  0
VERTEX
  5
925
  8
0
 62
    43
 10
0.0
 20
0.0
 30
0.0
 70
   128
 71
   183
 72
   186
 73
   182
  0
VERTEX
  5
926
  8
0
 62
    43
 10
0.0
 20
0.0
 30
0.0
 70
   128
 71
   183
 72
   188
 73
   187
  0
VERTEX
  5
927
  8
0
 62
    43
 10
0.0
 20
0.0
 30
0.0
 70
   128
 71
   186
 72
   183
 73
   187
  0
VERTEX
  5
928
  8
0
 62
    43
 10
0.0
 20
0.0
 30
0.0
 70
   128
 71
   190
 72
   189
 73
   188
  0
VERTEX
  5
929
  8
0
 62
    43
 10
0.0
 20
0.0
 30
0.0
 70
   128
 71
   192
 72
   191
 73
   190
  0
VERTEX
  5
92A
  8
0
 62
    43
 10
0.0
 20
0.0
 30
0.0
 70
   128
 71
   190
 72
   191
 73
   189
  0
VERTEX
  5
92B
  8
0
 62
    43
 10
0.0
 20
0.0
 30
0.0
 70
   128
 71
   194
 72
   192
 73
   193
  0
VERTEX
  5
92C
  8
0
 62
    43
 10
0.0
 20
0.0
 30
0.0
 70
   128
 71
   194
 72
   191
 73
   192
  0
VERTEX
  5
92D
  8
0
 62
    43
 10
0.0
 20
0.0
 30
0.0
 70
   128
 71
   196
 72
   158
 73
   195
  0
VERTEX
  5
92E
  8
0
 62
    43
 10
0.0
 20
0.0
 30
0.0
 70
   128
 71
   198
 72
   197
 73
   196
  0
VERTEX
  5
92F
  8
0
 62
    43
 10
0.0
 20
0.0
 30
0.0
 70
   128
 71
   196
 72
   197
 73
   193
  0
VERTEX
  5
930
  8
0
 62
    43
 10
0.0
 20
0.0
 30
0.0
 70
   128
 71
   196
 72
   199
 73
   198
  0
VERTEX
  5
931
  8
0
 62
    43
 10
0.0
 20
0.0
 30
0.0
 70
   128
 71
   106
 72
   199
 73
   195
  0
VERTEX
  5
932
  8
0
 62
    43
 10
0.0
 20
0.0
 30
0.0
 70
   128
 71
   195
 72
   199
 73
   196
  0
VERTEX
  5
933
  8
0
 62
    43
 10
0.0
 20
0.0
 30
0.0
 70
   128
 71
   105
 72
   106
 73
   195
  0
VERTEX
  5
934
  8
0
 62
    43
 10
0.0
 20
0.0
 30
0.0
 70
   128
 71
   192
 72
   196
 73
   193
  0
VERTEX
  5
935
  8
0
 62
    43
 10
0.0
 20
0.0
 30
0.0
 70
   128
 71
   196
 72
   192
 73
   158
  0
VERTEX
  5
936
  8
0
 62
    43
 10
0.0
 20
0.0
 30
0.0
 70
   128
 71
   188
 72
   183
 73
   190
  0
VERTEX
  5
937
  8
0
 62
    43
 10
0.0
 20
0.0
 30
0.0
 70
   128
 71
   192
 72
   190
 73
   158
  0
VERTEX
  5
938
  8
0
 62
    43
 10
0.0
 20
0.0
 30
0.0
 70
   128
 71
   182
 72
   185
 73
   181
  0
VERTEX
  5
939
  8
0
 62
    43
 10
0.0
 20
0.0
 30
0.0
 70
   128
 71
   183
 72
   158
 73
   190
  0
VERTEX
  5
93A
  8
0
 62
    43
 10
0.0
 20
0.0
 30
0.0
 70
   128
 71
   183
 72
   181
 73
   158
  0
VERTEX
  5
93B
  8
0
 62
    43
 10
0.0
 20
0.0
 30
0.0
 70
   128
 71
   181
 72
   178
 73
   158
  0
VERTEX
  5
93C
  8
0
 62
    43
 10
0.0
 20
0.0
 30
0.0
 70
   128
 71
   184
 72
   178
 73
   181
  0
VERTEX
  5
93D
  8
0
 62
    43
 10
0.0
 20
0.0
 30
0.0
 70
   128
 71
   201
 72
    97
 73
   200
  0
VERTEX
  5
93E
  8
0
 62
    43
 10
0.0
 20
0.0
 30
0.0
 70
   128
 71
   195
 72
   107
 73
   105
  0
VERTEX
  5
93F
  8
0
 62
    43
 10
0.0
 20
0.0
 30
0.0
 70
   128
 71
   200
 72
   151
 73
   107
  0
VERTEX
  5
940
  8
0
 62
    43
 10
0.0
 20
0.0
 30
0.0
 70
   128
 71
   201
 72
    96
 73
    97
  0
VERTEX
  5
941
  8
0
 62
    43
 10
0.0
 20
0.0
 30
0.0
 70
   128
 71
   201
 72
   100
 73
    96
  0
VERTEX
  5
942
  8
0
 62
    43
 10
0.0
 20
0.0
 30
0.0
 70
   128
 71
   202
 72
   109
 73
    99
  0
VERTEX
  5
943
  8
0
 62
    43
 10
0.0
 20
0.0
 30
0.0
 70
   128
 71
   201
 72
    99
 73
   100
  0
VERTEX
  5
944
  8
0
 62
    43
 10
0.0
 20
0.0
 30
0.0
 70
   128
 71
   203
 72
   108
 73
   202
  0
VERTEX
  5
945
  8
0
 62
    43
 10
0.0
 20
0.0
 30
0.0
 70
   128
 71
   109
 72
   202
 73
   108
  0
VERTEX
  5
946
  8
0
 62
    43
 10
0.0
 20
0.0
 30
0.0
 70
   128
 71
   114
 72
   108
 73
   203
  0
VERTEX
  5
947
  8
0
 62
    43
 10
0.0
 20
0.0
 30
0.0
 70
   128
 71
   204
 72
    88
 73
   150
  0
VERTEX
  5
948
  8
0
 62
    43
 10
0.0
 20
0.0
 30
0.0
 70
   128
 71
   204
 72
   150
 73
   113
  0
VERTEX
  5
949
  8
0
 62
    43
 10
0.0
 20
0.0
 30
0.0
 70
   128
 71
   113
 72
   114
 73
   203
  0
VERTEX
  5
94A
  8
0
 62
    43
 10
0.0
 20
0.0
 30
0.0
 70
   128
 71
   154
 72
   204
 73
   158
  0
VERTEX
  5
94B
  8
0
 62
    43
 10
0.0
 20
0.0
 30
0.0
 70
   128
 71
    87
 72
   204
 73
   154
  0
VERTEX
  5
94C
  8
0
 62
    43
 10
0.0
 20
0.0
 30
0.0
 70
   128
 71
   204
 72
    87
 73
    88
  0
VERTEX
  5
94D
  8
0
 62
    43
 10
0.0
 20
0.0
 30
0.0
 70
   128
 71
    87
 72
   154
 73
   123
  0
VERTEX
  5
94E
  8
0
 62
    43
 10
0.0
 20
0.0
 30
0.0
 70
   128
 71
   203
 72
   204
 73
   113
  0
VERTEX
  5
94F
  8
0
 62
    43
 10
0.0
 20
0.0
 30
0.0
 70
   128
 71
   204
 72
   203
 73
   158
  0
VERTEX
  5
950
  8
0
 62
    43
 10
0.0
 20
0.0
 30
0.0
 70
   128
 71
    99
 72
   201
 73
   202
  0
VERTEX
  5
951
  8
0
 62
    43
 10
0.0
 20
0.0
 30
0.0
 70
   128
 71
   203
 72
   202
 73
   158
  0
VERTEX
  5
952
  8
0
 62
    43
 10
0.0
 20
0.0
 30
0.0
 70
   128
 71
    97
 72
   151
 73
   200
  0
VERTEX
  5
953
  8
0
 62
    43
 10
0.0
 20
0.0
 30
0.0
 70
   128
 71
   201
 72
   158
 73
   202
  0
VERTEX
  5
954
  8
0
 62
    43
 10
0.0
 20
0.0
 30
0.0
 70
   128
 71
   201
 72
   200
 73
   158
  0
VERTEX
  5
955
  8
0
 62
    43
 10
0.0
 20
0.0
 30
0.0
 70
   128
 71
   200
 72
   195
 73
   158
  0
VERTEX
  5
956
  8
0
 62
    43
 10
0.0
 20
0.0
 30
0.0
 70
   128
 71
   107
 72
   195
 73
   200
  0
VERTEX
  5
957
  8
0
 62
    43
 10
0.0
 20
0.0
 30
0.0
 70
   128
 71
    45
 72
    48
 73
   205
  0
VERTEX
  5
958
  8
0
 62
    43
 10
0.0
 20
0.0
 30
0.0
 70
   128
 71
   189
 72
   191
 73
   206
  0
VERTEX
  5
959
  8
0
 62
    43
 10
0.0
 20
0.0
 30
0.0
 70
   128
 71
   207
 72
   198
 73
   205
  0
VERTEX
  5
95A
  8
0
 62
    43
 10
0.0
 20
0.0
 30
0.0
 70
   128
 71
   199
 72
   106
 73
   103
  0
VERTEX
  5
95B
  8
0
 62
    43
 10
0.0
 20
0.0
 30
0.0
 70
   128
 71
    57
 72
   206
 73
    54
  0
VERTEX
  5
95C
  8
0
 62
    43
 10
0.0
 20
0.0
 30
0.0
 70
   128
 71
   193
 72
   208
 73
   194
  0
VERTEX
  5
95D
  8
0
 62
    43
 10
0.0
 20
0.0
 30
0.0
 70
   128
 71
    26
 72
   209
 73
    28
  0
VERTEX
  5
95E
  8
0
 62
    43
 10
0.0
 20
0.0
 30
0.0
 70
   128
 71
   206
 72
    57
 73
   209
  0
VERTEX
  5
95F
  8
0
 62
    43
 10
0.0
 20
0.0
 30
0.0
 70
   128
 71
   211
 72
     1
 73
   210
  0
VERTEX
  5
960
  8
0
 62
    43
 10
0.0
 20
0.0
 30
0.0
 70
   128
 71
   211
 72
    26
 73
     1
  0
VERTEX
  5
961
  8
0
 62
    43
 10
0.0
 20
0.0
 30
0.0
 70
   128
 71
   212
 72
   210
 73
     5
  0
VERTEX
  5
962
  8
0
 62
    43
 10
0.0
 20
0.0
 30
0.0
 70
   128
 71
   212
 72
   175
 73
   179
  0
VERTEX
  5
963
  8
0
 62
    43
 10
0.0
 20
0.0
 30
0.0
 70
   128
 71
     8
 72
    11
 73
   213
  0
VERTEX
  5
964
  8
0
 62
    43
 10
0.0
 20
0.0
 30
0.0
 70
   128
 71
     8
 72
   212
 73
     6
  0
VERTEX
  5
965
  8
0
 62
    43
 10
0.0
 20
0.0
 30
0.0
 70
   128
 71
   213
 72
   214
 73
   171
  0
VERTEX
  5
966
  8
0
 62
    43
 10
0.0
 20
0.0
 30
0.0
 70
   128
 71
     8
 72
   213
 73
   212
  0
VERTEX
  5
967
  8
0
 62
    43
 10
0.0
 20
0.0
 30
0.0
 70
   128
 71
   213
 72
    12
 73
   214
  0
VERTEX
  5
968
  8
0
 62
    43
 10
0.0
 20
0.0
 30
0.0
 70
   128
 71
   215
 72
   214
 73
    14
  0
VERTEX
  5
969
  8
0
 62
    43
 10
0.0
 20
0.0
 30
0.0
 70
   128
 71
   215
 72
   167
 73
   168
  0
VERTEX
  5
96A
  8
0
 62
    43
 10
0.0
 20
0.0
 30
0.0
 70
   128
 71
   215
 72
    17
 73
   216
  0
VERTEX
  5
96B
  8
0
 62
    43
 10
0.0
 20
0.0
 30
0.0
 70
   128
 71
   166
 72
   216
 73
   162
  0
VERTEX
  5
96C
  8
0
 62
    43
 10
0.0
 20
0.0
 30
0.0
 70
   128
 71
    17
 72
    18
 73
   216
  0
VERTEX
  5
96D
  8
0
 62
    43
 10
0.0
 20
0.0
 30
0.0
 70
   128
 71
   216
 72
   166
 73
   215
  0
VERTEX
  5
96E
  8
0
 62
    43
 10
0.0
 20
0.0
 30
0.0
 70
   128
 71
   134
 72
   217
 73
    23
  0
VERTEX
  5
96F
  8
0
 62
    43
 10
0.0
 20
0.0
 30
0.0
 70
   128
 71
    18
 72
    20
 73
   216
  0
VERTEX
  5
970
  8
0
 62
    43
 10
0.0
 20
0.0
 30
0.0
 70
   128
 71
   134
 72
    23
 73
   138
  0
VERTEX
  5
971
  8
0
 62
    43
 10
0.0
 20
0.0
 30
0.0
 70
   128
 71
    23
 72
   217
 73
    20
  0
VERTEX
  5
972
  8
0
 62
    43
 10
0.0
 20
0.0
 30
0.0
 70
   128
 71
   164
 72
   134
 73
   160
  0
VERTEX
  5
973
  8
0
 62
    43
 10
0.0
 20
0.0
 30
0.0
 70
   128
 71
   216
 72
    20
 73
   217
  0
VERTEX
  5
974
  8
0
 62
    43
 10
0.0
 20
0.0
 30
0.0
 70
   128
 71
    14
 72
    17
 73
   215
  0
VERTEX
  5
975
  8
0
 62
    43
 10
0.0
 20
0.0
 30
0.0
 70
   128
 71
   135
 72
   160
 73
   134
  0
VERTEX
  5
976
  8
0
 62
    43
 10
0.0
 20
0.0
 30
0.0
 70
   128
 71
   214
 72
   169
 73
   171
  0
VERTEX
  5
977
  8
0
 62
    43
 10
0.0
 20
0.0
 30
0.0
 70
   128
 71
   213
 72
    11
 73
    12
  0
VERTEX
  5
978
  8
0
 62
    43
 10
0.0
 20
0.0
 30
0.0
 70
   128
 71
     6
 72
   212
 73
     5
  0
VERTEX
  5
979
  8
0
 62
    43
 10
0.0
 20
0.0
 30
0.0
 70
   128
 71
   173
 72
   177
 73
   213
  0
VERTEX
  5
97A
  8
0
 62
    43
 10
0.0
 20
0.0
 30
0.0
 70
   128
 71
    52
 72
    54
 73
   206
  0
VERTEX
  5
97B
  8
0
 62
    43
 10
0.0
 20
0.0
 30
0.0
 70
   128
 71
   210
 72
     1
 73
     2
  0
VERTEX
  5
97C
  8
0
 62
    43
 10
0.0
 20
0.0
 30
0.0
 70
   128
 71
   210
 72
   212
 73
   179
  0
VERTEX
  5
97D
  8
0
 62
    43
 10
0.0
 20
0.0
 30
0.0
 70
   128
 71
   210
 72
   180
 73
   184
  0
VERTEX
  5
97E
  8
0
 62
    43
 10
0.0
 20
0.0
 30
0.0
 70
   128
 71
   184
 72
   211
 73
   210
  0
VERTEX
  5
97F
  8
0
 62
    43
 10
0.0
 20
0.0
 30
0.0
 70
   128
 71
   209
 72
   211
 73
   186
  0
VERTEX
  5
980
  8
0
 62
    43
 10
0.0
 20
0.0
 30
0.0
 70
   128
 71
    26
 72
   211
 73
   209
  0
VERTEX
  5
981
  8
0
 62
    43
 10
0.0
 20
0.0
 30
0.0
 70
   128
 71
    57
 72
    28
 73
   209
  0
VERTEX
  5
982
  8
0
 62
    43
 10
0.0
 20
0.0
 30
0.0
 70
   128
 71
   186
 72
   211
 73
   182
  0
VERTEX
  5
983
  8
0
 62
    43
 10
0.0
 20
0.0
 30
0.0
 70
   128
 71
   187
 72
   188
 73
   209
  0
VERTEX
  5
984
  8
0
 62
    43
 10
0.0
 20
0.0
 30
0.0
 70
   128
 71
    63
 72
    45
 73
   103
  0
VERTEX
  5
985
  8
0
 62
    43
 10
0.0
 20
0.0
 30
0.0
 70
   128
 71
   208
 72
    52
 73
   206
  0
VERTEX
  5
986
  8
0
 62
    43
 10
0.0
 20
0.0
 30
0.0
 70
   128
 71
   207
 72
    50
 73
   208
  0
VERTEX
  5
987
  8
0
 62
    43
 10
0.0
 20
0.0
 30
0.0
 70
   128
 71
   208
 72
    50
 73
    52
  0
VERTEX
  5
988
  8
0
 62
    43
 10
0.0
 20
0.0
 30
0.0
 70
   128
 71
   197
 72
   198
 73
   207
  0
VERTEX
  5
989
  8
0
 62
    43
 10
0.0
 20
0.0
 30
0.0
 70
   128
 71
   207
 72
   205
 73
    48
  0
VERTEX
  5
98A
  8
0
 62
    43
 10
0.0
 20
0.0
 30
0.0
 70
   128
 71
   199
 72
   103
 73
   205
  0
VERTEX
  5
98B
  8
0
 62
    43
 10
0.0
 20
0.0
 30
0.0
 70
   128
 71
    45
 72
   205
 73
   103
  0
VERTEX
  5
98C
  8
0
 62
    43
 10
0.0
 20
0.0
 30
0.0
 70
   128
 71
   205
 72
   198
 73
   199
  0
VERTEX
  5
98D
  8
0
 62
    43
 10
0.0
 20
0.0
 30
0.0
 70
   128
 71
   197
 72
   207
 73
   193
  0
VERTEX
  5
98E
  8
0
 62
    43
 10
0.0
 20
0.0
 30
0.0
 70
   128
 71
   207
 72
    48
 73
    50
  0
VERTEX
  5
98F
  8
0
 62
    43
 10
0.0
 20
0.0
 30
0.0
 70
   128
 71
   207
 72
   208
 73
   193
  0
VERTEX
  5
990
  8
0
 62
    43
 10
0.0
 20
0.0
 30
0.0
 70
   128
 71
   194
 72
   208
 73
   191
  0
VERTEX
  5
991
  8
0
 62
    43
 10
0.0
 20
0.0
 30
0.0
 70
   128
 71
   208
 72
   206
 73
   191
  0
VERTEX
  5
992
  8
0
 62
    43
 10
0.0
 20
0.0
 30
0.0
 70
   128
 71
   188
 72
   189
 73
   206
  0
VERTEX
  5
993
  8
0
 62
    43
 10
0.0
 20
0.0
 30
0.0
 70
   128
 71
   206
 72
   209
 73
   188
  0
VERTEX
  5
994
  8
0
 62
    43
 10
0.0
 20
0.0
 30
0.0
 70
   128
 71
   187
 72
   209
 73
   186
  0
VERTEX
  5
995
  8
0
 62
    43
 10
0.0
 20
0.0
 30
0.0
 70
   128
 71
   211
 72
   185
 73
   182
  0
VERTEX
  5
996
  8
0
 62
    43
 10
0.0
 20
0.0
 30
0.0
 70
   128
 71
   184
 72
   185
 73
   211
  0
VERTEX
  5
997
  8
0
 62
    43
 10
0.0
 20
0.0
 30
0.0
 70
   128
 71
   180
 72
   210
 73
   179
  0
VERTEX
  5
998
  8
0
 62
    43
 10
0.0
 20
0.0
 30
0.0
 70
   128
 71
   210
 72
     2
 73
     5
  0
VERTEX
  5
999
  8
0
 62
    43
 10
0.0
 20
0.0
 30
0.0
 70
   128
 71
   212
 72
   174
 73
   175
  0
VERTEX
  5
99A
  8
0
 62
    43
 10
0.0
 20
0.0
 30
0.0
 70
   128
 71
   177
 72
   174
 73
   212
  0
VERTEX
  5
99B
  8
0
 62
    43
 10
0.0
 20
0.0
 30
0.0
 70
   128
 71
   212
 72
   213
 73
   177
  0
VERTEX
  5
99C
  8
0
 62
    43
 10
0.0
 20
0.0
 30
0.0
 70
   128
 71
   173
 72
   213
 73
   171
  0
VERTEX
  5
99D
  8
0
 62
    43
 10
0.0
 20
0.0
 30
0.0
 70
   128
 71
   169
 72
   214
 73
   168
  0
VERTEX
  5
99E
  8
0
 62
    43
 10
0.0
 20
0.0
 30
0.0
 70
   128
 71
   214
 72
    12
 73
    14
  0
VERTEX
  5
99F
  8
0
 62
    43
 10
0.0
 20
0.0
 30
0.0
 70
   128
 71
   214
 72
   215
 73
   168
  0
VERTEX
  5
9A0
  8
0
 62
    43
 10
0.0
 20
0.0
 30
0.0
 70
   128
 71
   167
 72
   215
 73
   166
  0
VERTEX
  5
9A1
  8
0
 62
    43
 10
0.0
 20
0.0
 30
0.0
 70
   128
 71
   216
 72
   165
 73
   162
  0
VERTEX
  5
9A2
  8
0
 62
    43
 10
0.0
 20
0.0
 30
0.0
 70
   128
 71
   217
 72
   164
 73
   165
  0
VERTEX
  5
9A3
  8
0
 62
    43
 10
0.0
 20
0.0
 30
0.0
 70
   128
 71
   216
 72
   217
 73
   165
  0
VERTEX
  5
9A4
  8
0
 62
    43
 10
0.0
 20
0.0
 30
0.0
 70
   128
 71
   217
 72
   134
 73
   164
  0
VERTEX
  5
9A5
  8
0
 62
    43
 10
0.0
 20
0.0
 30
0.0
 70
   128
 71
    44
 72
    41
 73
   218
  0
VERTEX
  5
9A6
  8
0
 62
    43
 10
0.0
 20
0.0
 30
0.0
 70
   128
 71
   221
 72
   220
 73
   219
  0
VERTEX
  5
9A7
  8
0
 62
    43
 10
0.0
 20
0.0
 30
0.0
 70
   128
 71
   218
 72
    41
 73
   222
  0
VERTEX
  5
9A8
  8
0
 62
    43
 10
0.0
 20
0.0
 30
0.0
 70
   128
 71
   224
 72
   223
 73
   222
  0
VERTEX
  5
9A9
  8
0
 62
    43
 10
0.0
 20
0.0
 30
0.0
 70
   128
 71
   220
 72
   226
 73
   225
  0
VERTEX
  5
9AA
  8
0
 62
    43
 10
0.0
 20
0.0
 30
0.0
 70
   128
 71
    30
 72
    31
 73
   227
  0
VERTEX
  5
9AB
  8
0
 62
    43
 10
0.0
 20
0.0
 30
0.0
 70
   128
 71
    33
 72
   229
 73
   228
  0
VERTEX
  5
9AC
  8
0
 62
    43
 10
0.0
 20
0.0
 30
0.0
 70
   128
 71
   231
 72
    62
 73
   230
  0
VERTEX
  5
9AD
  8
0
 62
    43
 10
0.0
 20
0.0
 30
0.0
 70
   128
 71
    62
 72
   232
 73
    31
  0
VERTEX
  5
9AE
  8
0
 62
    43
 10
0.0
 20
0.0
 30
0.0
 70
   128
 71
   232
 72
    62
 73
   231
  0
VERTEX
  5
9AF
  8
0
 62
    43
 10
0.0
 20
0.0
 30
0.0
 70
   128
 71
    62
 72
    61
 73
   230
  0
VERTEX
  5
9B0
  8
0
 62
    43
 10
0.0
 20
0.0
 30
0.0
 70
   128
 71
   227
 72
    31
 73
   232
  0
VERTEX
  5
9B1
  8
0
 62
    43
 10
0.0
 20
0.0
 30
0.0
 70
   128
 71
    30
 72
   227
 73
   229
  0
VERTEX
  5
9B2
  8
0
 62
    43
 10
0.0
 20
0.0
 30
0.0
 70
   128
 71
   226
 72
    33
 73
   228
  0
VERTEX
  5
9B3
  8
0
 62
    43
 10
0.0
 20
0.0
 30
0.0
 70
   128
 71
   225
 72
   219
 73
   220
  0
VERTEX
  5
9B4
  8
0
 62
    43
 10
0.0
 20
0.0
 30
0.0
 70
   128
 71
   226
 72
   228
 73
   225
  0
VERTEX
  5
9B5
  8
0
 62
    43
 10
0.0
 20
0.0
 30
0.0
 70
   128
 71
   222
 72
   221
 73
   224
  0
VERTEX
  5
9B6
  8
0
 62
    43
 10
0.0
 20
0.0
 30
0.0
 70
   128
 71
   221
 72
   219
 73
   224
  0
VERTEX
  5
9B7
  8
0
 62
    43
 10
0.0
 20
0.0
 30
0.0
 70
   128
 71
    41
 72
    40
 73
   222
  0
VERTEX
  5
9B8
  8
0
 62
    43
 10
0.0
 20
0.0
 30
0.0
 70
   128
 71
   218
 72
   223
 73
   233
  0
VERTEX
  5
9B9
  8
0
 62
    43
 10
0.0
 20
0.0
 30
0.0
 70
   128
 71
   234
 72
   233
 73
    75
  0
VERTEX
  5
9BA
  8
0
 62
    43
 10
0.0
 20
0.0
 30
0.0
 70
   128
 71
   234
 72
   218
 73
   233
  0
VERTEX
  5
9BB
  8
0
 62
    43
 10
0.0
 20
0.0
 30
0.0
 70
   128
 71
   218
 72
   234
 73
    44
  0
VERTEX
  5
9BC
  8
0
 62
    43
 10
0.0
 20
0.0
 30
0.0
 70
   128
 71
    38
 72
   221
 73
    40
  0
VERTEX
  5
9BD
  8
0
 62
    43
 10
0.0
 20
0.0
 30
0.0
 70
   128
 71
   218
 72
   222
 73
   223
  0
VERTEX
  5
9BE
  8
0
 62
    43
 10
0.0
 20
0.0
 30
0.0
 70
   128
 71
   221
 72
   222
 73
    40
  0
VERTEX
  5
9BF
  8
0
 62
    43
 10
0.0
 20
0.0
 30
0.0
 70
   128
 71
    35
 72
   220
 73
    38
  0
VERTEX
  5
9C0
  8
0
 62
    43
 10
0.0
 20
0.0
 30
0.0
 70
   128
 71
   220
 72
   221
 73
    38
  0
VERTEX
  5
9C1
  8
0
 62
    43
 10
0.0
 20
0.0
 30
0.0
 70
   128
 71
    32
 72
   226
 73
    35
  0
VERTEX
  5
9C2
  8
0
 62
    43
 10
0.0
 20
0.0
 30
0.0
 70
   128
 71
   226
 72
   220
 73
    35
  0
VERTEX
  5
9C3
  8
0
 62
    43
 10
0.0
 20
0.0
 30
0.0
 70
   128
 71
    33
 72
   226
 73
    32
  0
VERTEX
  5
9C4
  8
0
 62
    43
 10
0.0
 20
0.0
 30
0.0
 70
   128
 71
    30
 72
   229
 73
    33
  0
VERTEX
  5
9C5
  8
0
 62
    43
 10
0.0
 20
0.0
 30
0.0
 70
   128
 71
   237
 72
   236
 73
   235
  0
VERTEX
  5
9C6
  8
0
 62
    43
 10
0.0
 20
0.0
 30
0.0
 70
   128
 71
   237
 72
   238
 73
   236
  0
VERTEX
  5
9C7
  8
0
 62
    43
 10
0.0
 20
0.0
 30
0.0
 70
   128
 71
   237
 72
   235
 73
   239
  0
VERTEX
  5
9C8
  8
0
 62
    43
 10
0.0
 20
0.0
 30
0.0
 70
   128
 71
   240
 72
   239
 73
   235
  0
VERTEX
  5
9C9
  8
0
 62
    43
 10
0.0
 20
0.0
 30
0.0
 70
   128
 71
   241
 72
   239
 73
   240
  0
VERTEX
  5
9CA
  8
0
 62
    43
 10
0.0
 20
0.0
 30
0.0
 70
   128
 71
   231
 72
   241
 73
   240
  0
VERTEX
  5
9CB
  8
0
 62
    43
 10
0.0
 20
0.0
 30
0.0
 70
   128
 71
   242
 72
   241
 73
   231
  0
VERTEX
  5
9CC
  8
0
 62
    43
 10
0.0
 20
0.0
 30
0.0
 70
   128
 71
   242
 72
   231
 73
   230
  0
VERTEX
  5
9CD
  8
0
 62
    43
 10
0.0
 20
0.0
 30
0.0
 70
   128
 71
    60
 72
   243
 73
    61
  0
VERTEX
  5
9CE
  8
0
 62
    43
 10
0.0
 20
0.0
 30
0.0
 70
   128
 71
    61
 72
   243
 73
   230
  0
VERTEX
  5
9CF
  8
0
 62
    43
 10
0.0
 20
0.0
 30
0.0
 70
   128
 71
   243
 72
   242
 73
   230
  0
VERTEX
  5
9D0
  8
0
 62
    43
 10
0.0
 20
0.0
 30
0.0
 70
   128
 71
   246
 72
   245
 73
   244
  0
VERTEX
  5
9D1
  8
0
 62
    43
 10
0.0
 20
0.0
 30
0.0
 70
   128
 71
   248
 72
   247
 73
    58
  0
VERTEX
  5
9D2
  8
0
 62
    43
 10
0.0
 20
0.0
 30
0.0
 70
   128
 71
   251
 72
   250
 73
   249
  0
VERTEX
  5
9D3
  8
0
 62
    43
 10
0.0
 20
0.0
 30
0.0
 70
   128
 71
   254
 72
   253
 73
   252
  0
VERTEX
  5
9D4
  8
0
 62
    43
 10
0.0
 20
0.0
 30
0.0
 70
   128
 71
   255
 72
   250
 73
   251
  0
VERTEX
  5
9D5
  8
0
 62
    43
 10
0.0
 20
0.0
 30
0.0
 70
   128
 71
   257
 72
   253
 73
   256
  0
VERTEX
  5
9D6
  8
0
 62
    43
 10
0.0
 20
0.0
 30
0.0
 70
   128
 71
    56
 72
   248
 73
    58
  0
VERTEX
  5
9D7
  8
0
 62
    43
 10
0.0
 20
0.0
 30
0.0
 70
   128
 71
    56
 72
    55
 73
   258
  0
VERTEX
  5
9D8
  8
0
 62
    43
 10
0.0
 20
0.0
 30
0.0
 70
   128
 71
    60
 72
    59
 73
   243
  0
VERTEX
  5
9D9
  8
0
 62
    43
 10
0.0
 20
0.0
 30
0.0
 70
   128
 71
    59
 72
   247
 73
   242
  0
VERTEX
  5
9DA
  8
0
 62
    43
 10
0.0
 20
0.0
 30
0.0
 70
   128
 71
    59
 72
   242
 73
   243
  0
VERTEX
  5
9DB
  8
0
 62
    43
 10
0.0
 20
0.0
 30
0.0
 70
   128
 71
   247
 72
    59
 73
    58
  0
VERTEX
  5
9DC
  8
0
 62
    43
 10
0.0
 20
0.0
 30
0.0
 70
   128
 71
   257
 72
   256
 73
   259
  0
VERTEX
  5
9DD
  8
0
 62
    43
 10
0.0
 20
0.0
 30
0.0
 70
   128
 71
    55
 72
   259
 73
   258
  0
VERTEX
  5
9DE
  8
0
 62
    43
 10
0.0
 20
0.0
 30
0.0
 70
   128
 71
   258
 72
   248
 73
    56
  0
VERTEX
  5
9DF
  8
0
 62
    43
 10
0.0
 20
0.0
 30
0.0
 70
   128
 71
   252
 72
   255
 73
   254
  0
VERTEX
  5
9E0
  8
0
 62
    43
 10
0.0
 20
0.0
 30
0.0
 70
   128
 71
   254
 72
   256
 73
   253
  0
VERTEX
  5
9E1
  8
0
 62
    43
 10
0.0
 20
0.0
 30
0.0
 70
   128
 71
   249
 72
   245
 73
   251
  0
VERTEX
  5
9E2
  8
0
 62
    43
 10
0.0
 20
0.0
 30
0.0
 70
   128
 71
   252
 72
   250
 73
   255
  0
VERTEX
  5
9E3
  8
0
 62
    43
 10
0.0
 20
0.0
 30
0.0
 70
   128
 71
    65
 72
   244
 73
   249
  0
VERTEX
  5
9E4
  8
0
 62
    43
 10
0.0
 20
0.0
 30
0.0
 70
   128
 71
   257
 72
    55
 73
    53
  0
VERTEX
  5
9E5
  8
0
 62
    43
 10
0.0
 20
0.0
 30
0.0
 70
   128
 71
   257
 72
   259
 73
    55
  0
VERTEX
  5
9E6
  8
0
 62
    43
 10
0.0
 20
0.0
 30
0.0
 70
   128
 71
    51
 72
   257
 73
    53
  0
VERTEX
  5
9E7
  8
0
 62
    43
 10
0.0
 20
0.0
 30
0.0
 70
   128
 71
    51
 72
   253
 73
   257
  0
VERTEX
  5
9E8
  8
0
 62
    43
 10
0.0
 20
0.0
 30
0.0
 70
   128
 71
    49
 72
   253
 73
    51
  0
VERTEX
  5
9E9
  8
0
 62
    43
 10
0.0
 20
0.0
 30
0.0
 70
   128
 71
    49
 72
   252
 73
   253
  0
VERTEX
  5
9EA
  8
0
 62
    43
 10
0.0
 20
0.0
 30
0.0
 70
   128
 71
    46
 72
   252
 73
    49
  0
VERTEX
  5
9EB
  8
0
 62
    43
 10
0.0
 20
0.0
 30
0.0
 70
   128
 71
    46
 72
   250
 73
   252
  0
VERTEX
  5
9EC
  8
0
 62
    43
 10
0.0
 20
0.0
 30
0.0
 70
   128
 71
    47
 72
   250
 73
    46
  0
VERTEX
  5
9ED
  8
0
 62
    43
 10
0.0
 20
0.0
 30
0.0
 70
   128
 71
    47
 72
   249
 73
   250
  0
VERTEX
  5
9EE
  8
0
 62
    43
 10
0.0
 20
0.0
 30
0.0
 70
   128
 71
   249
 72
    47
 73
    65
  0
VERTEX
  5
9EF
  8
0
 62
    43
 10
0.0
 20
0.0
 30
0.0
 70
   128
 71
   245
 72
   249
 73
   244
  0
VERTEX
  5
9F0
  8
0
 62
    43
 10
0.0
 20
0.0
 30
0.0
 70
   128
 71
   262
 72
   261
 73
   260
  0
VERTEX
  5
9F1
  8
0
 62
    43
 10
0.0
 20
0.0
 30
0.0
 70
   128
 71
   265
 72
   264
 73
   263
  0
VERTEX
  5
9F2
  8
0
 62
    43
 10
0.0
 20
0.0
 30
0.0
 70
   128
 71
   265
 72
   262
 73
   266
  0
VERTEX
  5
9F3
  8
0
 62
    43
 10
0.0
 20
0.0
 30
0.0
 70
   128
 71
   267
 72
   265
 73
   263
  0
VERTEX
  5
9F4
  8
0
 62
    43
 10
0.0
 20
0.0
 30
0.0
 70
   128
 71
   269
 72
    65
 73
   268
  0
VERTEX
  5
9F5
  8
0
 62
    43
 10
0.0
 20
0.0
 30
0.0
 70
   128
 71
   269
 72
   263
 73
   270
  0
VERTEX
  5
9F6
  8
0
 62
    43
 10
0.0
 20
0.0
 30
0.0
 70
   128
 71
   244
 72
    65
 73
   269
  0
VERTEX
  5
9F7
  8
0
 62
    43
 10
0.0
 20
0.0
 30
0.0
 70
   128
 71
   271
 72
   263
 73
   268
  0
VERTEX
  5
9F8
  8
0
 62
    43
 10
0.0
 20
0.0
 30
0.0
 70
   128
 71
   263
 72
   269
 73
   268
  0
VERTEX
  5
9F9
  8
0
 62
    43
 10
0.0
 20
0.0
 30
0.0
 70
   128
 71
   244
 72
   272
 73
   246
  0
VERTEX
  5
9FA
  8
0
 62
    43
 10
0.0
 20
0.0
 30
0.0
 70
   128
 71
   265
 72
   266
 73
   264
  0
VERTEX
  5
9FB
  8
0
 62
    43
 10
0.0
 20
0.0
 30
0.0
 70
   128
 71
   261
 72
   273
 73
   260
  0
VERTEX
  5
9FC
  8
0
 62
    43
 10
0.0
 20
0.0
 30
0.0
 70
   128
 71
   262
 72
   260
 73
   266
  0
VERTEX
  5
9FD
  8
0
 62
    43
 10
0.0
 20
0.0
 30
0.0
 70
   128
 71
   274
 72
   273
 73
   261
  0
VERTEX
  5
9FE
  8
0
 62
    43
 10
0.0
 20
0.0
 30
0.0
 70
   128
 71
   277
 72
   276
 73
   275
  0
VERTEX
  5
9FF
  8
0
 62
    43
 10
0.0
 20
0.0
 30
0.0
 70
   128
 71
   276
 72
   277
 73
   278
  0
VERTEX
  5
A00
  8
0
 62
    43
 10
0.0
 20
0.0
 30
0.0
 70
   128
 71
   280
 72
   275
 73
   279
  0
VERTEX
  5
A01
  8
0
 62
    43
 10
0.0
 20
0.0
 30
0.0
 70
   128
 71
   276
 72
   279
 73
   275
  0
VERTEX
  5
A02
  8
0
 62
    43
 10
0.0
 20
0.0
 30
0.0
 70
   128
 71
   282
 72
   281
 73
   280
  0
VERTEX
  5
A03
  8
0
 62
    43
 10
0.0
 20
0.0
 30
0.0
 70
   128
 71
   280
 72
   279
 73
   282
  0
VERTEX
  5
A04
  8
0
 62
    43
 10
0.0
 20
0.0
 30
0.0
 70
   128
 71
   284
 72
   283
 73
   282
  0
VERTEX
  5
A05
  8
0
 62
    43
 10
0.0
 20
0.0
 30
0.0
 70
   128
 71
   282
 72
   283
 73
   281
  0
VERTEX
  5
A06
  8
0
 62
    43
 10
0.0
 20
0.0
 30
0.0
 70
   128
 71
   272
 72
   269
 73
   270
  0
VERTEX
  5
A07
  8
0
 62
    43
 10
0.0
 20
0.0
 30
0.0
 70
   128
 71
   269
 72
   272
 73
   244
  0
VERTEX
  5
A08
  8
0
 62
    43
 10
0.0
 20
0.0
 30
0.0
 70
   128
 71
   263
 72
   271
 73
   267
  0
VERTEX
  5
A09
  8
0
 62
    43
 10
0.0
 20
0.0
 30
0.0
 70
   128
 71
   270
 72
   263
 73
   264
  0
VERTEX
  5
A0A
  8
0
 62
    43
 10
0.0
 20
0.0
 30
0.0
 70
   128
 71
   285
 72
   265
 73
   267
  0
VERTEX
  5
A0B
  8
0
 62
    43
 10
0.0
 20
0.0
 30
0.0
 70
   128
 71
   285
 72
   262
 73
   265
  0
VERTEX
  5
A0C
  8
0
 62
    43
 10
0.0
 20
0.0
 30
0.0
 70
   128
 71
   286
 72
   262
 73
   285
  0
VERTEX
  5
A0D
  8
0
 62
    43
 10
0.0
 20
0.0
 30
0.0
 70
   128
 71
   286
 72
   261
 73
   262
  0
VERTEX
  5
A0E
  8
0
 62
    43
 10
0.0
 20
0.0
 30
0.0
 70
   128
 71
   274
 72
   261
 73
   286
  0
VERTEX
  5
A0F
  8
0
 62
    43
 10
0.0
 20
0.0
 30
0.0
 70
   128
 71
   278
 72
   273
 73
   274
  0
VERTEX
  5
A10
  8
0
 62
    43
 10
0.0
 20
0.0
 30
0.0
 70
   128
 71
   278
 72
   277
 73
   273
  0
VERTEX
  5
A11
  8
0
 62
    43
 10
0.0
 20
0.0
 30
0.0
 70
   128
 71
   256
 72
   288
 73
   287
  0
VERTEX
  5
A12
  8
0
 62
    43
 10
0.0
 20
0.0
 30
0.0
 70
   128
 71
   270
 72
   264
 73
   289
  0
VERTEX
  5
A13
  8
0
 62
    43
 10
0.0
 20
0.0
 30
0.0
 70
   128
 71
   292
 72
   291
 73
   290
  0
VERTEX
  5
A14
  8
0
 62
    43
 10
0.0
 20
0.0
 30
0.0
 70
   128
 71
   256
 72
   287
 73
   259
  0
VERTEX
  5
A15
  8
0
 62
    43
 10
0.0
 20
0.0
 30
0.0
 70
   128
 71
   288
 72
   293
 73
   287
  0
VERTEX
  5
A16
  8
0
 62
    43
 10
0.0
 20
0.0
 30
0.0
 70
   128
 71
   295
 72
   239
 73
   294
  0
VERTEX
  5
A17
  8
0
 62
    43
 10
0.0
 20
0.0
 30
0.0
 70
   128
 71
   294
 72
   258
 73
   287
  0
VERTEX
  5
A18
  8
0
 62
    43
 10
0.0
 20
0.0
 30
0.0
 70
   128
 71
   241
 72
   242
 73
   247
  0
VERTEX
  5
A19
  8
0
 62
    43
 10
0.0
 20
0.0
 30
0.0
 70
   128
 71
   247
 72
   294
 73
   241
  0
VERTEX
  5
A1A
  8
0
 62
    43
 10
0.0
 20
0.0
 30
0.0
 70
   128
 71
   298
 72
   297
 73
   296
  0
VERTEX
  5
A1B
  8
0
 62
    43
 10
0.0
 20
0.0
 30
0.0
 70
   128
 71
   248
 72
   258
 73
   294
  0
VERTEX
  5
A1C
  8
0
 62
    43
 10
0.0
 20
0.0
 30
0.0
 70
   128
 71
   295
 72
   287
 73
   293
  0
VERTEX
  5
A1D
  8
0
 62
    43
 10
0.0
 20
0.0
 30
0.0
 70
   128
 71
   297
 72
   277
 73
   296
  0
VERTEX
  5
A1E
  8
0
 62
    43
 10
0.0
 20
0.0
 30
0.0
 70
   128
 71
   275
 72
   296
 73
   277
  0
VERTEX
  5
A1F
  8
0
 62
    43
 10
0.0
 20
0.0
 30
0.0
 70
   128
 71
   294
 72
   287
 73
   295
  0
VERTEX
  5
A20
  8
0
 62
    43
 10
0.0
 20
0.0
 30
0.0
 70
   128
 71
   255
 72
   288
 73
   254
  0
VERTEX
  5
A21
  8
0
 62
    43
 10
0.0
 20
0.0
 30
0.0
 70
   128
 71
   300
 72
   299
 73
   255
  0
VERTEX
  5
A22
  8
0
 62
    43
 10
0.0
 20
0.0
 30
0.0
 70
   128
 71
   245
 72
   301
 73
   251
  0
VERTEX
  5
A23
  8
0
 62
    43
 10
0.0
 20
0.0
 30
0.0
 70
   128
 71
   300
 72
   251
 73
   301
  0
VERTEX
  5
A24
  8
0
 62
    43
 10
0.0
 20
0.0
 30
0.0
 70
   128
 71
   301
 72
   246
 73
   302
  0
VERTEX
  5
A25
  8
0
 62
    43
 10
0.0
 20
0.0
 30
0.0
 70
   128
 71
   246
 72
   301
 73
   245
  0
VERTEX
  5
A26
  8
0
 62
    43
 10
0.0
 20
0.0
 30
0.0
 70
   128
 71
   273
 72
   297
 73
   260
  0
VERTEX
  5
A27
  8
0
 62
    43
 10
0.0
 20
0.0
 30
0.0
 70
   128
 71
   296
 72
   275
 73
   280
  0
VERTEX
  5
A28
  8
0
 62
    43
 10
0.0
 20
0.0
 30
0.0
 70
   128
 71
   290
 72
   280
 73
   281
  0
VERTEX
  5
A29
  8
0
 62
    43
 10
0.0
 20
0.0
 30
0.0
 70
   128
 71
   297
 72
   303
 73
   260
  0
VERTEX
  5
A2A
  8
0
 62
    43
 10
0.0
 20
0.0
 30
0.0
 70
   128
 71
   264
 72
   266
 73
   303
  0
VERTEX
  5
A2B
  8
0
 62
    43
 10
0.0
 20
0.0
 30
0.0
 70
   128
 71
   304
 72
   303
 73
   297
  0
VERTEX
  5
A2C
  8
0
 62
    43
 10
0.0
 20
0.0
 30
0.0
 70
   128
 71
   264
 72
   304
 73
   289
  0
VERTEX
  5
A2D
  8
0
 62
    43
 10
0.0
 20
0.0
 30
0.0
 70
   128
 71
   303
 72
   304
 73
   264
  0
VERTEX
  5
A2E
  8
0
 62
    43
 10
0.0
 20
0.0
 30
0.0
 70
   128
 71
   302
 72
   270
 73
   289
  0
VERTEX
  5
A2F
  8
0
 62
    43
 10
0.0
 20
0.0
 30
0.0
 70
   128
 71
   272
 72
   302
 73
   246
  0
VERTEX
  5
A30
  8
0
 62
    43
 10
0.0
 20
0.0
 30
0.0
 70
   128
 71
   272
 72
   270
 73
   302
  0
VERTEX
  5
A31
  8
0
 62
    43
 10
0.0
 20
0.0
 30
0.0
 70
   128
 71
   248
 72
   294
 73
   247
  0
VERTEX
  5
A32
  8
0
 62
    43
 10
0.0
 20
0.0
 30
0.0
 70
   128
 71
   241
 72
   294
 73
   239
  0
VERTEX
  5
A33
  8
0
 62
    43
 10
0.0
 20
0.0
 30
0.0
 70
   128
 71
   288
 72
   299
 73
   293
  0
VERTEX
  5
A34
  8
0
 62
    43
 10
0.0
 20
0.0
 30
0.0
 70
   128
 71
   259
 72
   287
 73
   258
  0
VERTEX
  5
A35
  8
0
 62
    43
 10
0.0
 20
0.0
 30
0.0
 70
   128
 71
   299
 72
   288
 73
   255
  0
VERTEX
  5
A36
  8
0
 62
    43
 10
0.0
 20
0.0
 30
0.0
 70
   128
 71
   288
 72
   256
 73
   254
  0
VERTEX
  5
A37
  8
0
 62
    43
 10
0.0
 20
0.0
 30
0.0
 70
   128
 71
   300
 72
   255
 73
   251
  0
VERTEX
  5
A38
  8
0
 62
    43
 10
0.0
 20
0.0
 30
0.0
 70
   128
 71
   298
 72
   304
 73
   297
  0
VERTEX
  5
A39
  8
0
 62
    43
 10
0.0
 20
0.0
 30
0.0
 70
   128
 71
   303
 72
   266
 73
   260
  0
VERTEX
  5
A3A
  8
0
 62
    43
 10
0.0
 20
0.0
 30
0.0
 70
   128
 71
   291
 72
   298
 73
   296
  0
VERTEX
  5
A3B
  8
0
 62
    43
 10
0.0
 20
0.0
 30
0.0
 70
   128
 71
   297
 72
   273
 73
   277
  0
VERTEX
  5
A3C
  8
0
 62
    43
 10
0.0
 20
0.0
 30
0.0
 70
   128
 71
   296
 72
   290
 73
   291
  0
VERTEX
  5
A3D
  8
0
 62
    43
 10
0.0
 20
0.0
 30
0.0
 70
   128
 71
   290
 72
   296
 73
   280
  0
VERTEX
  5
A3E
  8
0
 62
    43
 10
0.0
 20
0.0
 30
0.0
 70
   128
 71
   306
 72
   238
 73
   305
  0
VERTEX
  5
A3F
  8
0
 62
    43
 10
0.0
 20
0.0
 30
0.0
 70
   128
 71
   308
 72
   307
 73
   300
  0
VERTEX
  5
A40
  8
0
 62
    43
 10
0.0
 20
0.0
 30
0.0
 70
   128
 71
   309
 72
   293
 73
   299
  0
VERTEX
  5
A41
  8
0
 62
    43
 10
0.0
 20
0.0
 30
0.0
 70
   128
 71
   306
 72
   305
 73
   309
  0
VERTEX
  5
A42
  8
0
 62
    43
 10
0.0
 20
0.0
 30
0.0
 70
   128
 71
   312
 72
   311
 73
   310
  0
VERTEX
  5
A43
  8
0
 62
    43
 10
0.0
 20
0.0
 30
0.0
 70
   128
 71
   302
 72
   313
 73
   301
  0
VERTEX
  5
A44
  8
0
 62
    43
 10
0.0
 20
0.0
 30
0.0
 70
   128
 71
   315
 72
   298
 73
   314
  0
VERTEX
  5
A45
  8
0
 62
    43
 10
0.0
 20
0.0
 30
0.0
 70
   128
 71
   315
 72
   312
 73
   304
  0
VERTEX
  5
A46
  8
0
 62
    43
 10
0.0
 20
0.0
 30
0.0
 70
   128
 71
   292
 72
   316
 73
   291
  0
VERTEX
  5
A47
  8
0
 62
    43
 10
0.0
 20
0.0
 30
0.0
 70
   128
 71
   318
 72
   316
 73
   317
  0
VERTEX
  5
A48
  8
0
 62
    43
 10
0.0
 20
0.0
 30
0.0
 70
   128
 71
   318
 72
   317
 73
   319
  0
VERTEX
  5
A49
  8
0
 62
    43
 10
0.0
 20
0.0
 30
0.0
 70
   128
 71
   291
 72
   316
 73
   314
  0
VERTEX
  5
A4A
  8
0
 62
    43
 10
0.0
 20
0.0
 30
0.0
 70
   128
 71
   315
 72
   314
 73
   320
  0
VERTEX
  5
A4B
  8
0
 62
    43
 10
0.0
 20
0.0
 30
0.0
 70
   128
 71
   315
 72
   321
 73
   312
  0
VERTEX
  5
A4C
  8
0
 62
    43
 10
0.0
 20
0.0
 30
0.0
 70
   128
 71
   313
 72
   302
 73
   310
  0
VERTEX
  5
A4D
  8
0
 62
    43
 10
0.0
 20
0.0
 30
0.0
 70
   128
 71
   310
 72
   289
 73
   312
  0
VERTEX
  5
A4E
  8
0
 62
    43
 10
0.0
 20
0.0
 30
0.0
 70
   128
 71
   308
 72
   301
 73
   313
  0
VERTEX
  5
A4F
  8
0
 62
    43
 10
0.0
 20
0.0
 30
0.0
 70
   128
 71
   310
 72
   322
 73
   313
  0
VERTEX
  5
A50
  8
0
 62
    43
 10
0.0
 20
0.0
 30
0.0
 70
   128
 71
   299
 72
   300
 73
   307
  0
VERTEX
  5
A51
  8
0
 62
    43
 10
0.0
 20
0.0
 30
0.0
 70
   128
 71
   300
 72
   301
 73
   308
  0
VERTEX
  5
A52
  8
0
 62
    43
 10
0.0
 20
0.0
 30
0.0
 70
   128
 71
   305
 72
   295
 73
   293
  0
VERTEX
  5
A53
  8
0
 62
    43
 10
0.0
 20
0.0
 30
0.0
 70
   128
 71
   299
 72
   307
 73
   309
  0
VERTEX
  5
A54
  8
0
 62
    43
 10
0.0
 20
0.0
 30
0.0
 70
   128
 71
   295
 72
   237
 73
   239
  0
VERTEX
  5
A55
  8
0
 62
    43
 10
0.0
 20
0.0
 30
0.0
 70
   128
 71
   306
 72
   309
 73
   323
  0
VERTEX
  5
A56
  8
0
 62
    43
 10
0.0
 20
0.0
 30
0.0
 70
   128
 71
   305
 72
   237
 73
   295
  0
VERTEX
  5
A57
  8
0
 62
    43
 10
0.0
 20
0.0
 30
0.0
 70
   128
 71
   237
 72
   305
 73
   238
  0
VERTEX
  5
A58
  8
0
 62
    43
 10
0.0
 20
0.0
 30
0.0
 70
   128
 71
   307
 72
   324
 73
   323
  0
VERTEX
  5
A59
  8
0
 62
    43
 10
0.0
 20
0.0
 30
0.0
 70
   128
 71
   309
 72
   305
 73
   293
  0
VERTEX
  5
A5A
  8
0
 62
    43
 10
0.0
 20
0.0
 30
0.0
 70
   128
 71
   309
 72
   307
 73
   323
  0
VERTEX
  5
A5B
  8
0
 62
    43
 10
0.0
 20
0.0
 30
0.0
 70
   128
 71
   308
 72
   325
 73
   324
  0
VERTEX
  5
A5C
  8
0
 62
    43
 10
0.0
 20
0.0
 30
0.0
 70
   128
 71
   307
 72
   308
 73
   324
  0
VERTEX
  5
A5D
  8
0
 62
    43
 10
0.0
 20
0.0
 30
0.0
 70
   128
 71
   313
 72
   322
 73
   325
  0
VERTEX
  5
A5E
  8
0
 62
    43
 10
0.0
 20
0.0
 30
0.0
 70
   128
 71
   308
 72
   313
 73
   325
  0
VERTEX
  5
A5F
  8
0
 62
    43
 10
0.0
 20
0.0
 30
0.0
 70
   128
 71
   310
 72
   311
 73
   322
  0
VERTEX
  5
A60
  8
0
 62
    43
 10
0.0
 20
0.0
 30
0.0
 70
   128
 71
   321
 72
   311
 73
   312
  0
VERTEX
  5
A61
  8
0
 62
    43
 10
0.0
 20
0.0
 30
0.0
 70
   128
 71
   310
 72
   302
 73
   289
  0
VERTEX
  5
A62
  8
0
 62
    43
 10
0.0
 20
0.0
 30
0.0
 70
   128
 71
   320
 72
   321
 73
   315
  0
VERTEX
  5
A63
  8
0
 62
    43
 10
0.0
 20
0.0
 30
0.0
 70
   128
 71
   312
 72
   289
 73
   304
  0
VERTEX
  5
A64
  8
0
 62
    43
 10
0.0
 20
0.0
 30
0.0
 70
   128
 71
   326
 72
   320
 73
   314
  0
VERTEX
  5
A65
  8
0
 62
    43
 10
0.0
 20
0.0
 30
0.0
 70
   128
 71
   315
 72
   304
 73
   298
  0
VERTEX
  5
A66
  8
0
 62
    43
 10
0.0
 20
0.0
 30
0.0
 70
   128
 71
   318
 72
   326
 73
   316
  0
VERTEX
  5
A67
  8
0
 62
    43
 10
0.0
 20
0.0
 30
0.0
 70
   128
 71
   314
 72
   298
 73
   291
  0
VERTEX
  5
A68
  8
0
 62
    43
 10
0.0
 20
0.0
 30
0.0
 70
   128
 71
   326
 72
   314
 73
   316
  0
VERTEX
  5
A69
  8
0
 62
    43
 10
0.0
 20
0.0
 30
0.0
 70
   128
 71
   317
 72
   316
 73
   292
  0
VERTEX
  5
A6A
  8
0
 62
    43
 10
0.0
 20
0.0
 30
0.0
 70
   128
 71
   327
 72
   319
 73
   317
  0
VERTEX
  5
A6B
  8
0
 62
    43
 10
0.0
 20
0.0
 30
0.0
 70
   128
 71
   327
 72
   328
 73
   319
  0
VERTEX
  5
A6C
  8
0
 62
    43
 10
0.0
 20
0.0
 30
0.0
 70
   128
 71
   327
 72
   317
 73
    86
  0
VERTEX
  5
A6D
  8
0
 62
    43
 10
0.0
 20
0.0
 30
0.0
 70
   128
 71
   292
 72
    86
 73
   317
  0
VERTEX
  5
A6E
  8
0
 62
    43
 10
0.0
 20
0.0
 30
0.0
 70
   128
 71
   281
 72
    85
 73
   290
  0
VERTEX
  5
A6F
  8
0
 62
    43
 10
0.0
 20
0.0
 30
0.0
 70
   128
 71
    86
 72
   292
 73
   290
  0
VERTEX
  5
A70
  8
0
 62
    43
 10
0.0
 20
0.0
 30
0.0
 70
   128
 71
   290
 72
    85
 73
    86
  0
VERTEX
  5
A71
  8
0
 62
    43
 10
0.0
 20
0.0
 30
0.0
 70
   128
 71
   281
 72
   283
 73
    85
  0
VERTEX
  5
A72
  8
0
 62
    43
 10
0.0
 20
0.0
 30
0.0
 70
   128
 71
   283
 72
   329
 73
    85
  0
VERTEX
  5
A73
  8
0
 62
    43
 10
0.0
 20
0.0
 30
0.0
 70
   128
 71
   284
 72
   329
 73
   283
  0
VERTEX
  5
A74
  8
0
 62
    43
 10
0.0
 20
0.0
 30
0.0
 70
   128
 71
   284
 72
   330
 73
   329
  0
VERTEX
  5
A75
  8
0
 62
    43
 10
0.0
 20
0.0
 30
0.0
 70
   128
 71
   331
 72
    79
 73
    81
  0
VERTEX
  5
A76
  8
0
 62
    43
 10
0.0
 20
0.0
 30
0.0
 70
   128
 71
   332
 72
    79
 73
   331
  0
VERTEX
  5
A77
  8
0
 62
    43
 10
0.0
 20
0.0
 30
0.0
 70
   128
 71
   333
 72
   331
 73
    81
  0
VERTEX
  5
A78
  8
0
 62
    43
 10
0.0
 20
0.0
 30
0.0
 70
   128
 71
    84
 72
   333
 73
    81
  0
VERTEX
  5
A79
  8
0
 62
    43
 10
0.0
 20
0.0
 30
0.0
 70
   128
 71
    85
 72
   334
 73
    84
  0
VERTEX
  5
A7A
  8
0
 62
    43
 10
0.0
 20
0.0
 30
0.0
 70
   128
 71
    85
 72
   329
 73
   334
  0
VERTEX
  5
A7B
  8
0
 62
    43
 10
0.0
 20
0.0
 30
0.0
 70
   128
 71
    84
 72
   334
 73
   333
  0
VERTEX
  5
A7C
  8
0
 62
    43
 10
0.0
 20
0.0
 30
0.0
 70
   128
 71
   329
 72
   330
 73
   334
  0
VERTEX
  5
A7D
  8
0
 62
    43
 10
0.0
 20
0.0
 30
0.0
 70
   128
 71
    78
 72
    79
 73
   332
  0
VERTEX
  5
A7E
  8
0
 62
    43
 10
0.0
 20
0.0
 30
0.0
 70
   128
 71
    78
 72
   335
 73
    69
  0
VERTEX
  5
A7F
  8
0
 62
    43
 10
0.0
 20
0.0
 30
0.0
 70
   128
 71
    68
 72
    69
 73
   336
  0
VERTEX
  5
A80
  8
0
 62
    43
 10
0.0
 20
0.0
 30
0.0
 70
   128
 71
   335
 72
   336
 73
    69
  0
VERTEX
  5
A81
  8
0
 62
    43
 10
0.0
 20
0.0
 30
0.0
 70
   128
 71
   337
 72
    67
 73
    68
  0
VERTEX
  5
A82
  8
0
 62
    43
 10
0.0
 20
0.0
 30
0.0
 70
   128
 71
    68
 72
   336
 73
   337
  0
VERTEX
  5
A83
  8
0
 62
    43
 10
0.0
 20
0.0
 30
0.0
 70
   128
 71
    67
 72
   338
 73
    72
  0
VERTEX
  5
A84
  8
0
 62
    43
 10
0.0
 20
0.0
 30
0.0
 70
   128
 71
   338
 72
    67
 73
   337
  0
VERTEX
  5
A85
  8
0
 62
    43
 10
0.0
 20
0.0
 30
0.0
 70
   128
 71
   234
 72
   339
 73
    44
  0
VERTEX
  5
A86
  8
0
 62
    43
 10
0.0
 20
0.0
 30
0.0
 70
   128
 71
   338
 72
   339
 73
    72
  0
VERTEX
  5
A87
  8
0
 62
    43
 10
0.0
 20
0.0
 30
0.0
 70
   128
 71
    71
 72
   234
 73
    75
  0
VERTEX
  5
A88
  8
0
 62
    43
 10
0.0
 20
0.0
 30
0.0
 70
   128
 71
   339
 72
    71
 73
    72
  0
VERTEX
  5
A89
  8
0
 62
    43
 10
0.0
 20
0.0
 30
0.0
 70
   128
 71
   335
 72
   332
 73
   340
  0
VERTEX
  5
A8A
  8
0
 62
    43
 10
0.0
 20
0.0
 30
0.0
 70
   128
 71
   335
 72
    78
 73
   332
  0
VERTEX
  5
A8B
  8
0
 62
    43
 10
0.0
 20
0.0
 30
0.0
 70
   128
 71
   341
 72
   335
 73
   340
  0
VERTEX
  5
A8C
  8
0
 62
    43
 10
0.0
 20
0.0
 30
0.0
 70
   128
 71
   341
 72
   336
 73
   335
  0
VERTEX
  5
A8D
  8
0
 62
    43
 10
0.0
 20
0.0
 30
0.0
 70
   128
 71
   342
 72
   336
 73
   341
  0
VERTEX
  5
A8E
  8
0
 62
    43
 10
0.0
 20
0.0
 30
0.0
 70
   128
 71
   342
 72
   337
 73
   336
  0
VERTEX
  5
A8F
  8
0
 62
    43
 10
0.0
 20
0.0
 30
0.0
 70
   128
 71
   343
 72
   337
 73
   342
  0
VERTEX
  5
A90
  8
0
 62
    43
 10
0.0
 20
0.0
 30
0.0
 70
   128
 71
   343
 72
   338
 73
   337
  0
VERTEX
  5
A91
  8
0
 62
    43
 10
0.0
 20
0.0
 30
0.0
 70
   128
 71
   344
 72
   338
 73
   343
  0
VERTEX
  5
A92
  8
0
 62
    43
 10
0.0
 20
0.0
 30
0.0
 70
   128
 71
   344
 72
   339
 73
   338
  0
VERTEX
  5
A93
  8
0
 62
    43
 10
0.0
 20
0.0
 30
0.0
 70
   128
 71
   339
 72
   344
 73
    44
  0
VERTEX
  5
A94
  8
0
 62
    43
 10
0.0
 20
0.0
 30
0.0
 70
   128
 71
    71
 72
   339
 73
   234
  0
VERTEX
  5
A95
  8
0
 62
    43
 10
0.0
 20
0.0
 30
0.0
 70
   128
 71
    76
 72
    75
 73
   345
  0
VERTEX
  5
A96
  8
0
 62
    43
 10
0.0
 20
0.0
 30
0.0
 70
   128
 71
   347
 72
   223
 73
   346
  0
VERTEX
  5
A97
  8
0
 62
    43
 10
0.0
 20
0.0
 30
0.0
 70
   128
 71
   228
 72
   229
 73
   348
  0
VERTEX
  5
A98
  8
0
 62
    43
 10
0.0
 20
0.0
 30
0.0
 70
   128
 71
   349
 72
   219
 73
   225
  0
VERTEX
  5
A99
  8
0
 62
    43
 10
0.0
 20
0.0
 30
0.0
 70
   128
 71
   227
 72
   351
 73
   350
  0
VERTEX
  5
A9A
  8
0
 62
    43
 10
0.0
 20
0.0
 30
0.0
 70
   128
 71
   350
 72
   229
 73
   227
  0
VERTEX
  5
A9B
  8
0
 62
    43
 10
0.0
 20
0.0
 30
0.0
 70
   128
 71
   351
 72
   232
 73
   231
  0
VERTEX
  5
A9C
  8
0
 62
    43
 10
0.0
 20
0.0
 30
0.0
 70
   128
 71
   227
 72
   232
 73
   351
  0
VERTEX
  5
A9D
  8
0
 62
    43
 10
0.0
 20
0.0
 30
0.0
 70
   128
 71
   229
 72
   350
 73
   348
  0
VERTEX
  5
A9E
  8
0
 62
    43
 10
0.0
 20
0.0
 30
0.0
 70
   128
 71
   240
 72
   351
 73
   231
  0
VERTEX
  5
A9F
  8
0
 62
    43
 10
0.0
 20
0.0
 30
0.0
 70
   128
 71
   348
 72
   352
 73
   228
  0
VERTEX
  5
AA0
  8
0
 62
    43
 10
0.0
 20
0.0
 30
0.0
 70
   128
 71
   349
 72
   225
 73
   352
  0
VERTEX
  5
AA1
  8
0
 62
    43
 10
0.0
 20
0.0
 30
0.0
 70
   128
 71
   228
 72
   352
 73
   225
  0
VERTEX
  5
AA2
  8
0
 62
    43
 10
0.0
 20
0.0
 30
0.0
 70
   128
 71
   349
 72
   346
 73
   219
  0
VERTEX
  5
AA3
  8
0
 62
    43
 10
0.0
 20
0.0
 30
0.0
 70
   128
 71
   223
 72
   224
 73
   346
  0
VERTEX
  5
AA4
  8
0
 62
    43
 10
0.0
 20
0.0
 30
0.0
 70
   128
 71
   346
 72
   224
 73
   219
  0
VERTEX
  5
AA5
  8
0
 62
    43
 10
0.0
 20
0.0
 30
0.0
 70
   128
 71
   347
 72
   233
 73
   223
  0
VERTEX
  5
AA6
  8
0
 62
    43
 10
0.0
 20
0.0
 30
0.0
 70
   128
 71
   233
 72
   345
 73
    75
  0
VERTEX
  5
AA7
  8
0
 62
    43
 10
0.0
 20
0.0
 30
0.0
 70
   128
 71
   345
 72
   233
 73
   347
  0
VERTEX
  5
AA8
  8
0
 62
    43
 10
0.0
 20
0.0
 30
0.0
 70
   128
 71
   355
 72
   354
 73
   353
  0
VERTEX
  5
AA9
  8
0
 62
    43
 10
0.0
 20
0.0
 30
0.0
 70
   128
 71
   358
 72
   357
 73
   356
  0
VERTEX
  5
AAA
  8
0
 62
    43
 10
0.0
 20
0.0
 30
0.0
 70
   128
 71
   327
 72
   359
 73
   328
  0
VERTEX
  5
AAB
  8
0
 62
    43
 10
0.0
 20
0.0
 30
0.0
 70
   128
 71
   362
 72
   361
 73
   360
  0
VERTEX
  5
AAC
  8
0
 62
    43
 10
0.0
 20
0.0
 30
0.0
 70
   128
 71
   353
 72
   359
 73
   327
  0
VERTEX
  5
AAD
  8
0
 62
    43
 10
0.0
 20
0.0
 30
0.0
 70
   128
 71
   365
 72
   364
 73
   363
  0
VERTEX
  5
AAE
  8
0
 62
    43
 10
0.0
 20
0.0
 30
0.0
 70
   128
 71
   368
 72
   367
 73
   366
  0
VERTEX
  5
AAF
  8
0
 62
    43
 10
0.0
 20
0.0
 30
0.0
 70
   128
 71
   371
 72
   370
 73
   369
  0
VERTEX
  5
AB0
  8
0
 62
    43
 10
0.0
 20
0.0
 30
0.0
 70
   128
 71
   363
 72
   364
 73
   372
  0
VERTEX
  5
AB1
  8
0
 62
    43
 10
0.0
 20
0.0
 30
0.0
 70
   128
 71
   371
 72
   347
 73
   346
  0
VERTEX
  5
AB2
  8
0
 62
    43
 10
0.0
 20
0.0
 30
0.0
 70
   128
 71
   371
 72
   373
 73
   370
  0
VERTEX
  5
AB3
  8
0
 62
    43
 10
0.0
 20
0.0
 30
0.0
 70
   128
 71
   374
 72
   357
 73
   358
  0
VERTEX
  5
AB4
  8
0
 62
    43
 10
0.0
 20
0.0
 30
0.0
 70
   128
 71
   357
 72
   375
 73
   356
  0
VERTEX
  5
AB5
  8
0
 62
    43
 10
0.0
 20
0.0
 30
0.0
 70
   128
 71
   378
 72
   377
 73
   376
  0
VERTEX
  5
AB6
  8
0
 62
    43
 10
0.0
 20
0.0
 30
0.0
 70
   128
 71
   376
 72
   377
 73
   374
  0
VERTEX
  5
AB7
  8
0
 62
    43
 10
0.0
 20
0.0
 30
0.0
 70
   128
 71
   379
 72
   376
 73
   350
  0
VERTEX
  5
AB8
  8
0
 62
    43
 10
0.0
 20
0.0
 30
0.0
 70
   128
 71
   379
 72
   378
 73
   376
  0
VERTEX
  5
AB9
  8
0
 62
    43
 10
0.0
 20
0.0
 30
0.0
 70
   128
 71
   351
 72
   240
 73
   235
  0
VERTEX
  5
ABA
  8
0
 62
    43
 10
0.0
 20
0.0
 30
0.0
 70
   128
 71
   350
 72
   351
 73
   379
  0
VERTEX
  5
ABB
  8
0
 62
    43
 10
0.0
 20
0.0
 30
0.0
 70
   128
 71
   236
 72
   379
 73
   235
  0
VERTEX
  5
ABC
  8
0
 62
    43
 10
0.0
 20
0.0
 30
0.0
 70
   128
 71
   358
 72
   376
 73
   374
  0
VERTEX
  5
ABD
  8
0
 62
    43
 10
0.0
 20
0.0
 30
0.0
 70
   128
 71
   375
 72
   371
 73
   356
  0
VERTEX
  5
ABE
  8
0
 62
    43
 10
0.0
 20
0.0
 30
0.0
 70
   128
 71
   347
 72
   371
 73
   369
  0
VERTEX
  5
ABF
  8
0
 62
    43
 10
0.0
 20
0.0
 30
0.0
 70
   128
 71
   371
 72
   375
 73
   373
  0
VERTEX
  5
AC0
  8
0
 62
    43
 10
0.0
 20
0.0
 30
0.0
 70
   128
 71
   372
 72
   369
 73
   380
  0
VERTEX
  5
AC1
  8
0
 62
    43
 10
0.0
 20
0.0
 30
0.0
 70
   128
 71
   369
 72
   370
 73
   380
  0
VERTEX
  5
AC2
  8
0
 62
    43
 10
0.0
 20
0.0
 30
0.0
 70
   128
 71
   364
 72
   369
 73
   372
  0
VERTEX
  5
AC3
  8
0
 62
    43
 10
0.0
 20
0.0
 30
0.0
 70
   128
 71
   366
 72
    73
 73
   364
  0
VERTEX
  5
AC4
  8
0
 62
    43
 10
0.0
 20
0.0
 30
0.0
 70
   128
 71
    66
 72
    73
 73
   366
  0
VERTEX
  5
AC5
  8
0
 62
    43
 10
0.0
 20
0.0
 30
0.0
 70
   128
 71
   366
 72
   364
 73
   365
  0
VERTEX
  5
AC6
  8
0
 62
    43
 10
0.0
 20
0.0
 30
0.0
 70
   128
 71
   366
 72
   367
 73
    70
  0
VERTEX
  5
AC7
  8
0
 62
    43
 10
0.0
 20
0.0
 30
0.0
 70
   128
 71
   367
 72
   381
 73
   360
  0
VERTEX
  5
AC8
  8
0
 62
    43
 10
0.0
 20
0.0
 30
0.0
 70
   128
 71
   381
 72
   367
 73
   368
  0
VERTEX
  5
AC9
  8
0
 62
    43
 10
0.0
 20
0.0
 30
0.0
 70
   128
 71
   354
 72
   355
 73
   362
  0
VERTEX
  5
ACA
  8
0
 62
    43
 10
0.0
 20
0.0
 30
0.0
 70
   128
 71
   361
 72
   367
 73
   360
  0
VERTEX
  5
ACB
  8
0
 62
    43
 10
0.0
 20
0.0
 30
0.0
 70
   128
 71
   327
 72
    86
 73
   353
  0
VERTEX
  5
ACC
  8
0
 62
    43
 10
0.0
 20
0.0
 30
0.0
 70
   128
 71
   354
 72
   359
 73
   353
  0
VERTEX
  5
ACD
  8
0
 62
    43
 10
0.0
 20
0.0
 30
0.0
 70
   128
 71
   361
 72
   362
 73
   355
  0
VERTEX
  5
ACE
  8
0
 62
    43
 10
0.0
 20
0.0
 30
0.0
 70
   128
 71
   378
 72
   379
 73
   236
  0
VERTEX
  5
ACF
  8
0
 62
    43
 10
0.0
 20
0.0
 30
0.0
 70
   128
 71
   379
 72
   351
 73
   235
  0
VERTEX
  5
AD0
  8
0
 62
    43
 10
0.0
 20
0.0
 30
0.0
 70
   128
 71
   376
 72
   348
 73
   350
  0
VERTEX
  5
AD1
  8
0
 62
    43
 10
0.0
 20
0.0
 30
0.0
 70
   128
 71
   358
 72
   352
 73
   348
  0
VERTEX
  5
AD2
  8
0
 62
    43
 10
0.0
 20
0.0
 30
0.0
 70
   128
 71
   376
 72
   358
 73
   348
  0
VERTEX
  5
AD3
  8
0
 62
    43
 10
0.0
 20
0.0
 30
0.0
 70
   128
 71
   356
 72
   349
 73
   352
  0
VERTEX
  5
AD4
  8
0
 62
    43
 10
0.0
 20
0.0
 30
0.0
 70
   128
 71
   358
 72
   356
 73
   352
  0
VERTEX
  5
AD5
  8
0
 62
    43
 10
0.0
 20
0.0
 30
0.0
 70
   128
 71
   349
 72
   356
 73
   346
  0
VERTEX
  5
AD6
  8
0
 62
    43
 10
0.0
 20
0.0
 30
0.0
 70
   128
 71
   356
 72
   371
 73
   346
  0
VERTEX
  5
AD7
  8
0
 62
    43
 10
0.0
 20
0.0
 30
0.0
 70
   128
 71
   369
 72
   345
 73
   347
  0
VERTEX
  5
AD8
  8
0
 62
    43
 10
0.0
 20
0.0
 30
0.0
 70
   128
 71
   369
 72
    76
 73
   345
  0
VERTEX
  5
AD9
  8
0
 62
    43
 10
0.0
 20
0.0
 30
0.0
 70
   128
 71
   364
 72
    74
 73
    76
  0
VERTEX
  5
ADA
  8
0
 62
    43
 10
0.0
 20
0.0
 30
0.0
 70
   128
 71
   369
 72
   364
 73
    76
  0
VERTEX
  5
ADB
  8
0
 62
    43
 10
0.0
 20
0.0
 30
0.0
 70
   128
 71
    74
 72
   364
 73
    73
  0
VERTEX
  5
ADC
  8
0
 62
    43
 10
0.0
 20
0.0
 30
0.0
 70
   128
 71
    66
 72
   366
 73
    70
  0
VERTEX
  5
ADD
  8
0
 62
    43
 10
0.0
 20
0.0
 30
0.0
 70
   128
 71
   366
 72
   365
 73
   368
  0
VERTEX
  5
ADE
  8
0
 62
    43
 10
0.0
 20
0.0
 30
0.0
 70
   128
 71
   367
 72
    77
 73
    70
  0
VERTEX
  5
ADF
  8
0
 62
    43
 10
0.0
 20
0.0
 30
0.0
 70
   128
 71
   361
 72
    80
 73
    77
  0
VERTEX
  5
AE0
  8
0
 62
    43
 10
0.0
 20
0.0
 30
0.0
 70
   128
 71
   367
 72
   361
 73
    77
  0
VERTEX
  5
AE1
  8
0
 62
    43
 10
0.0
 20
0.0
 30
0.0
 70
   128
 71
    82
 72
    80
 73
   355
  0
VERTEX
  5
AE2
  8
0
 62
    43
 10
0.0
 20
0.0
 30
0.0
 70
   128
 71
   361
 72
   355
 73
    80
  0
VERTEX
  5
AE3
  8
0
 62
    43
 10
0.0
 20
0.0
 30
0.0
 70
   128
 71
    82
 72
   355
 73
    83
  0
VERTEX
  5
AE4
  8
0
 62
    43
 10
0.0
 20
0.0
 30
0.0
 70
   128
 71
   353
 72
    83
 73
   355
  0
VERTEX
  5
AE5
  8
0
 62
    43
 10
0.0
 20
0.0
 30
0.0
 70
   128
 71
    83
 72
   353
 73
    86
  0
VERTEX
  5
AE6
  8
0
 62
    43
 10
0.0
 20
0.0
 30
0.0
 70
   128
 71
   326
 72
   318
 73
   319
  0
VERTEX
  5
AE7
  8
0
 62
    43
 10
0.0
 20
0.0
 30
0.0
 70
   128
 71
   236
 72
   374
 73
   377
  0
VERTEX
  5
AE8
  8
0
 62
    43
 10
0.0
 20
0.0
 30
0.0
 70
   128
 71
   320
 72
   326
 73
   319
  0
VERTEX
  5
AE9
  8
0
 62
    43
 10
0.0
 20
0.0
 30
0.0
 70
   128
 71
   321
 72
   320
 73
   319
  0
VERTEX
  5
AEA
  8
0
 62
    43
 10
0.0
 20
0.0
 30
0.0
 70
   128
 71
   236
 72
   311
 73
   380
  0
VERTEX
  5
AEB
  8
0
 62
    43
 10
0.0
 20
0.0
 30
0.0
 70
   128
 71
   321
 72
   319
 73
   311
  0
VERTEX
  5
AEC
  8
0
 62
    43
 10
0.0
 20
0.0
 30
0.0
 70
   128
 71
   323
 72
   324
 73
   238
  0
VERTEX
  5
AED
  8
0
 62
    43
 10
0.0
 20
0.0
 30
0.0
 70
   128
 71
   322
 72
   236
 73
   238
  0
VERTEX
  5
AEE
  8
0
 62
    43
 10
0.0
 20
0.0
 30
0.0
 70
   128
 71
   325
 72
   238
 73
   324
  0
VERTEX
  5
AEF
  8
0
 62
    43
 10
0.0
 20
0.0
 30
0.0
 70
   128
 71
   323
 72
   238
 73
   306
  0
VERTEX
  5
AF0
  8
0
 62
    43
 10
0.0
 20
0.0
 30
0.0
 70
   128
 71
   325
 72
   322
 73
   238
  0
VERTEX
  5
AF1
  8
0
 62
    43
 10
0.0
 20
0.0
 30
0.0
 70
   128
 71
   236
 72
   322
 73
   311
  0
VERTEX
  5
AF2
  8
0
 62
    43
 10
0.0
 20
0.0
 30
0.0
 70
   128
 71
   378
 72
   236
 73
   377
  0
VERTEX
  5
AF3
  8
0
 62
    43
 10
0.0
 20
0.0
 30
0.0
 70
   128
 71
   236
 72
   380
 73
   370
  0
VERTEX
  5
AF4
  8
0
 62
    43
 10
0.0
 20
0.0
 30
0.0
 70
   128
 71
   374
 72
   236
 73
   357
  0
VERTEX
  5
AF5
  8
0
 62
    43
 10
0.0
 20
0.0
 30
0.0
 70
   128
 71
   236
 72
   373
 73
   375
  0
VERTEX
  5
AF6
  8
0
 62
    43
 10
0.0
 20
0.0
 30
0.0
 70
   128
 71
   357
 72
   236
 73
   375
  0
VERTEX
  5
AF7
  8
0
 62
    43
 10
0.0
 20
0.0
 30
0.0
 70
   128
 71
   311
 72
   372
 73
   380
  0
VERTEX
  5
AF8
  8
0
 62
    43
 10
0.0
 20
0.0
 30
0.0
 70
   128
 71
   373
 72
   236
 73
   370
  0
VERTEX
  5
AF9
  8
0
 62
    43
 10
0.0
 20
0.0
 30
0.0
 70
   128
 71
   328
 72
   372
 73
   319
  0
VERTEX
  5
AFA
  8
0
 62
    43
 10
0.0
 20
0.0
 30
0.0
 70
   128
 71
   372
 72
   311
 73
   319
  0
VERTEX
  5
AFB
  8
0
 62
    43
 10
0.0
 20
0.0
 30
0.0
 70
   128
 71
   363
 72
   372
 73
   328
  0
VERTEX
  5
AFC
  8
0
 62
    43
 10
0.0
 20
0.0
 30
0.0
 70
   128
 71
   365
 72
   328
 73
   368
  0
VERTEX
  5
AFD
  8
0
 62
    43
 10
0.0
 20
0.0
 30
0.0
 70
   128
 71
   365
 72
   363
 73
   328
  0
VERTEX
  5
AFE
  8
0
 62
    43
 10
0.0
 20
0.0
 30
0.0
 70
   128
 71
   381
 72
   328
 73
   360
  0
VERTEX
  5
AFF
  8
0
 62
    43
 10
0.0
 20
0.0
 30
0.0
 70
   128
 71
   381
 72
   368
 73
   328
  0
VERTEX
  5
B00
  8
0
 62
    43
 10
0.0
 20
0.0
 30
0.0
 70
   128
 71
   362
 72
   328
 73
   354
  0
VERTEX
  5
B01
  8
0
 62
    43
 10
0.0
 20
0.0
 30
0.0
 70
   128
 71
   362
 72
   360
 73
   328
  0
VERTEX
  5
B02
  8
0
 62
    43
 10
0.0
 20
0.0
 30
0.0
 70
   128
 71
   359
 72
   354
 73
   328
  0
VERTEX
  5
B03
  8
0
 62
    43
 10
0.0
 20
0.0
 30
0.0
 70
   128
 71
   382
 72
   137
 73
   138
  0
VERTEX
  5
B04
  8
0
 62
    43
 10
0.0
 20
0.0
 30
0.0
 70
   128
 71
    23
 72
    22
 73
   138
  0
VERTEX
  5
B05
  8
0
 62
    43
 10
0.0
 20
0.0
 30
0.0
 70
   128
 71
   130
 72
   384
 73
   383
  0
VERTEX
  5
B06
  8
0
 62
    43
 10
0.0
 20
0.0
 30
0.0
 70
   128
 71
   128
 72
   124
 73
   385
  0
VERTEX
  5
B07
  8
0
 62
    43
 10
0.0
 20
0.0
 30
0.0
 70
   128
 71
   387
 72
   125
 73
   386
  0
VERTEX
  5
B08
  8
0
 62
    43
 10
0.0
 20
0.0
 30
0.0
 70
   128
 71
   389
 72
   388
 73
   117
  0
VERTEX
  5
B09
  8
0
 62
    43
 10
0.0
 20
0.0
 30
0.0
 70
   128
 71
   127
 72
   390
 73
   147
  0
VERTEX
  5
B0A
  8
0
 62
    43
 10
0.0
 20
0.0
 30
0.0
 70
   128
 71
   116
 72
   391
 73
   112
  0
VERTEX
  5
B0B
  8
0
 62
    43
 10
0.0
 20
0.0
 30
0.0
 70
   128
 71
   116
 72
   118
 73
   392
  0
VERTEX
  5
B0C
  8
0
 62
    43
 10
0.0
 20
0.0
 30
0.0
 70
   128
 71
   284
 72
   111
 73
   112
  0
VERTEX
  5
B0D
  8
0
 62
    43
 10
0.0
 20
0.0
 30
0.0
 70
   128
 71
   333
 72
   394
 73
   393
  0
VERTEX
  5
B0E
  8
0
 62
    43
 10
0.0
 20
0.0
 30
0.0
 70
   128
 71
   276
 72
   110
 73
   279
  0
VERTEX
  5
B0F
  8
0
 62
    43
 10
0.0
 20
0.0
 30
0.0
 70
   128
 71
   282
 72
   279
 73
   111
  0
VERTEX
  5
B10
  8
0
 62
    43
 10
0.0
 20
0.0
 30
0.0
 70
   128
 71
    94
 72
   274
 73
   286
  0
VERTEX
  5
B11
  8
0
 62
    43
 10
0.0
 20
0.0
 30
0.0
 70
   128
 71
   278
 72
    94
 73
   110
  0
VERTEX
  5
B12
  8
0
 62
    43
 10
0.0
 20
0.0
 30
0.0
 70
   128
 71
    91
 72
   285
 73
   267
  0
VERTEX
  5
B13
  8
0
 62
    43
 10
0.0
 20
0.0
 30
0.0
 70
   128
 71
   285
 72
    92
 73
   286
  0
VERTEX
  5
B14
  8
0
 62
    43
 10
0.0
 20
0.0
 30
0.0
 70
   128
 71
   102
 72
   271
 73
   268
  0
VERTEX
  5
B15
  8
0
 62
    43
 10
0.0
 20
0.0
 30
0.0
 70
   128
 71
   271
 72
   101
 73
   267
  0
VERTEX
  5
B16
  8
0
 62
    43
 10
0.0
 20
0.0
 30
0.0
 70
   128
 71
   268
 72
    65
 73
    64
  0
VERTEX
  5
B17
  8
0
 62
    43
 10
0.0
 20
0.0
 30
0.0
 70
   128
 71
    64
 72
   102
 73
   268
  0
VERTEX
  5
B18
  8
0
 62
    43
 10
0.0
 20
0.0
 30
0.0
 70
   128
 71
   102
 72
   101
 73
   271
  0
VERTEX
  5
B19
  8
0
 62
    43
 10
0.0
 20
0.0
 30
0.0
 70
   128
 71
   395
 72
   343
 73
   342
  0
VERTEX
  5
B1A
  8
0
 62
    43
 10
0.0
 20
0.0
 30
0.0
 70
   128
 71
   101
 72
    91
 73
   267
  0
VERTEX
  5
B1B
  8
0
 62
    43
 10
0.0
 20
0.0
 30
0.0
 70
   128
 71
    91
 72
    92
 73
   285
  0
VERTEX
  5
B1C
  8
0
 62
    43
 10
0.0
 20
0.0
 30
0.0
 70
   128
 71
    92
 72
    94
 73
   286
  0
VERTEX
  5
B1D
  8
0
 62
    43
 10
0.0
 20
0.0
 30
0.0
 70
   128
 71
   274
 72
    94
 73
   278
  0
VERTEX
  5
B1E
  8
0
 62
    43
 10
0.0
 20
0.0
 30
0.0
 70
   128
 71
   278
 72
   110
 73
   276
  0
VERTEX
  5
B1F
  8
0
 62
    43
 10
0.0
 20
0.0
 30
0.0
 70
   128
 71
   279
 72
   110
 73
   111
  0
VERTEX
  5
B20
  8
0
 62
    43
 10
0.0
 20
0.0
 30
0.0
 70
   128
 71
   284
 72
   282
 73
   111
  0
VERTEX
  5
B21
  8
0
 62
    43
 10
0.0
 20
0.0
 30
0.0
 70
   128
 71
   330
 72
   284
 73
   112
  0
VERTEX
  5
B22
  8
0
 62
    43
 10
0.0
 20
0.0
 30
0.0
 70
   128
 71
   334
 72
   394
 73
   333
  0
VERTEX
  5
B23
  8
0
 62
    43
 10
0.0
 20
0.0
 30
0.0
 70
   128
 71
   330
 72
   394
 73
   334
  0
VERTEX
  5
B24
  8
0
 62
    43
 10
0.0
 20
0.0
 30
0.0
 70
   128
 71
   331
 72
   333
 73
   393
  0
VERTEX
  5
B25
  8
0
 62
    43
 10
0.0
 20
0.0
 30
0.0
 70
   128
 71
   332
 72
   331
 73
   393
  0
VERTEX
  5
B26
  8
0
 62
    43
 10
0.0
 20
0.0
 30
0.0
 70
   128
 71
   112
 72
   394
 73
   330
  0
VERTEX
  5
B27
  8
0
 62
    43
 10
0.0
 20
0.0
 30
0.0
 70
   128
 71
   397
 72
   341
 73
   396
  0
VERTEX
  5
B28
  8
0
 62
    43
 10
0.0
 20
0.0
 30
0.0
 70
   128
 71
   398
 72
   396
 73
   340
  0
VERTEX
  5
B29
  8
0
 62
    43
 10
0.0
 20
0.0
 30
0.0
 70
   128
 71
   342
 72
   397
 73
   395
  0
VERTEX
  5
B2A
  8
0
 62
    43
 10
0.0
 20
0.0
 30
0.0
 70
   128
 71
   397
 72
   342
 73
   341
  0
VERTEX
  5
B2B
  8
0
 62
    43
 10
0.0
 20
0.0
 30
0.0
 70
   128
 71
   343
 72
   399
 73
   344
  0
VERTEX
  5
B2C
  8
0
 62
    43
 10
0.0
 20
0.0
 30
0.0
 70
   128
 71
   343
 72
   395
 73
   399
  0
VERTEX
  5
B2D
  8
0
 62
    43
 10
0.0
 20
0.0
 30
0.0
 70
   128
 71
   399
 72
    43
 73
    44
  0
VERTEX
  5
B2E
  8
0
 62
    43
 10
0.0
 20
0.0
 30
0.0
 70
   128
 71
    44
 72
   344
 73
   399
  0
VERTEX
  5
B2F
  8
0
 62
    43
 10
0.0
 20
0.0
 30
0.0
 70
   128
 71
   340
 72
   332
 73
   398
  0
VERTEX
  5
B30
  8
0
 62
    43
 10
0.0
 20
0.0
 30
0.0
 70
   128
 71
   340
 72
   396
 73
   341
  0
VERTEX
  5
B31
  8
0
 62
    43
 10
0.0
 20
0.0
 30
0.0
 70
   128
 71
   112
 72
   391
 73
   394
  0
VERTEX
  5
B32
  8
0
 62
    43
 10
0.0
 20
0.0
 30
0.0
 70
   128
 71
   393
 72
   398
 73
   332
  0
VERTEX
  5
B33
  8
0
 62
    43
 10
0.0
 20
0.0
 30
0.0
 70
   128
 71
   392
 72
   118
 73
   388
  0
VERTEX
  5
B34
  8
0
 62
    43
 10
0.0
 20
0.0
 30
0.0
 70
   128
 71
   116
 72
   392
 73
   391
  0
VERTEX
  5
B35
  8
0
 62
    43
 10
0.0
 20
0.0
 30
0.0
 70
   128
 71
   147
 72
   389
 73
   117
  0
VERTEX
  5
B36
  8
0
 62
    43
 10
0.0
 20
0.0
 30
0.0
 70
   128
 71
   117
 72
   388
 73
   118
  0
VERTEX
  5
B37
  8
0
 62
    43
 10
0.0
 20
0.0
 30
0.0
 70
   128
 71
   400
 72
   390
 73
   127
  0
VERTEX
  5
B38
  8
0
 62
    43
 10
0.0
 20
0.0
 30
0.0
 70
   128
 71
   390
 72
   389
 73
   147
  0
VERTEX
  5
B39
  8
0
 62
    43
 10
0.0
 20
0.0
 30
0.0
 70
   128
 71
   128
 72
   385
 73
   400
  0
VERTEX
  5
B3A
  8
0
 62
    43
 10
0.0
 20
0.0
 30
0.0
 70
   128
 71
   400
 72
   127
 73
   128
  0
VERTEX
  5
B3B
  8
0
 62
    43
 10
0.0
 20
0.0
 30
0.0
 70
   128
 71
   124
 72
   125
 73
   387
  0
VERTEX
  5
B3C
  8
0
 62
    43
 10
0.0
 20
0.0
 30
0.0
 70
   128
 71
   385
 72
   124
 73
   387
  0
VERTEX
  5
B3D
  8
0
 62
    43
 10
0.0
 20
0.0
 30
0.0
 70
   128
 71
   133
 72
   383
 73
   386
  0
VERTEX
  5
B3E
  8
0
 62
    43
 10
0.0
 20
0.0
 30
0.0
 70
   128
 71
   125
 72
   133
 73
   386
  0
VERTEX
  5
B3F
  8
0
 62
    43
 10
0.0
 20
0.0
 30
0.0
 70
   128
 71
   137
 72
   384
 73
   130
  0
VERTEX
  5
B40
  8
0
 62
    43
 10
0.0
 20
0.0
 30
0.0
 70
   128
 71
   130
 72
   383
 73
   133
  0
VERTEX
  5
B41
  8
0
 62
    43
 10
0.0
 20
0.0
 30
0.0
 70
   128
 71
    22
 72
   382
 73
   138
  0
VERTEX
  5
B42
  8
0
 62
    43
 10
0.0
 20
0.0
 30
0.0
 70
   128
 71
   382
 72
   384
 73
   137
  0
SEQEND
  5
B43
  8
0
 62
    43
  0
ENDBLK
  5
B46
  8
0
  0
ENDSEC
  0
SECTION
  2
ENTITIES
  0
INSERT
  5
1ED
  8
LAYER_1
  2
5L0P0249CP
 10
0.0
 20
0.0
 30
0.0
  0
INSERT
  5
24C
  8
LAYER_1
  2
M917164
 10
0.0
 20
0.0
 30
0.0
  0
INSERT
  5
57A
  8
LAYER_1
  2
M909991
 10
0.0
 20
0.0
 30
0.0
  0
INSERT
  5
6B8
  8
LAYER_1
  2
M907096
 10
0.0
 20
0.0
 30
0.0
  0
INSERT
  5
B44
  8
LAYER_1
  2
M901455
 10
0.0
 20
0.0
 30
0.0
  0
ENDSEC
  0
EOF
