  0
SECTION
  2
HEADER
  9
$ACADVER
  1
AC1009
  9
$DWGCODEPAGE
  3
ansi_1252
  9
$INSBASE
 10
0.0
 20
0.0
 30
0.0
  9
$EXTMIN
 10
1.000000000000000E+20
 20
1.000000000000000E+20
 30
1.000000000000000E+20
  9
$EXTMAX
 10
-1.000000000000000E+20
 20
-1.000000000000000E+20
 30
-1.000000000000000E+20
  9
$LIMMIN
 10
0.0
 20
0.0
  9
$LIMMAX
 10
12.0
 20
9.0
  9
$ORTHOMODE
 70
     0
  9
$REGENMODE
 70
     1
  9
$FILLMODE
 70
     1
  9
$QTEXTMODE
 70
     0
  9
$MIRRTEXT
 70
     1
  9
$DRAGMODE
 70
     2
  9
$LTSCALE
 40
1.0
  9
$OSMODE
 70
    37
  9
$ATTMODE
 70
     1
  9
$TEXTSIZE
 40
0.2
  9
$TRACEWID
 40
0.05
  9
$TEXTSTYLE
  7
STANDARD
  9
$CLAYER
  8
0
  9
$CELTYPE
  6
BYLAYER
  9
$CECOLOR
 62
   256
  9
$DIMSCALE
 40
1.0
  9
$DIMASZ
 40
0.18
  9
$DIMEXO
 40
0.0625
  9
$DIMDLI
 40
0.38
  9
$DIMRND
 40
0.0
  9
$DIMDLE
 40
0.0
  9
$DIMEXE
 40
0.18
  9
$DIMTP
 40
0.0
  9
$DIMTM
 40
0.0
  9
$DIMTXT
 40
0.18
  9
$DIMCEN
 40
0.09
  9
$DIMTSZ
 40
0.0
  9
$DIMTOL
 70
     0
  9
$DIMLIM
 70
     0
  9
$DIMTIH
 70
     1
  9
$DIMTOH
 70
     1
  9
$DIMSE1
 70
     0
  9
$DIMSE2
 70
     0
  9
$DIMTAD
 70
     0
  9
$DIMZIN
 70
     0
  9
$DIMBLK
  1

  9
$DIMASO
 70
     1
  9
$DIMSHO
 70
     1
  9
$DIMPOST
  1

  9
$DIMAPOST
  1

  9
$DIMALT
 70
     0
  9
$DIMALTD
 70
     2
  9
$DIMALTF
 40
25.4
  9
$DIMLFAC
 40
1.0
  9
$DIMTOFL
 70
     0
  9
$DIMTVP
 40
0.0
  9
$DIMTIX
 70
     0
  9
$DIMSOXD
 70
     0
  9
$DIMSAH
 70
     0
  9
$DIMBLK1
  1

  9
$DIMBLK2
  1

  9
$DIMSTYLE
  2
STANDARD
  9
$DIMCLRD
 70
     0
  9
$DIMCLRE
 70
     0
  9
$DIMCLRT
 70
     0
  9
$DIMTFAC
 40
1.0
  9
$DIMGAP
 40
0.09
  9
$LUNITS
 70
     2
  9
$LUPREC
 70
     4
  9
$SKETCHINC
 40
0.1
  9
$FILLETRAD
 40
0.5
  9
$AUNITS
 70
     0
  9
$AUPREC
 70
     0
  9
$MENU
  1
.
  9
$ELEVATION
 40
0.0
  9
$PELEVATION
 40
0.0
  9
$THICKNESS
 40
0.0
  9
$LIMCHECK
 70
     0
  9
$CHAMFERA
 40
0.5
  9
$CHAMFERB
 40
0.5
  9
$SKPOLY
 70
     0
  9
$TDCREATE
 40
2455842.344836516
  9
$TDUPDATE
 40
2455842.344836516
  9
$TDINDWG
 40
0.0000000116
  9
$TDUSRTIMER
 40
0.0000000116
  9
$USRTIMER
 70
     1
  9
$ANGBASE
 50
0.0
  9
$ANGDIR
 70
     0
  9
$PDMODE
 70
     0
  9
$PDSIZE
 40
0.0
  9
$PLINEWID
 40
0.0
  9
$COORDS
 70
     1
  9
$SPLFRAME
 70
     0
  9
$SPLINETYPE
 70
     6
  9
$SPLINESEGS
 70
     8
  9
$ATTDIA
 70
     0
  9
$ATTREQ
 70
     1
  9
$HANDLING
 70
     1
  9
$HANDSEED
  5
9FE
  9
$SURFTAB1
 70
     6
  9
$SURFTAB2
 70
     6
  9
$SURFTYPE
 70
     6
  9
$SURFU
 70
     6
  9
$SURFV
 70
     6
  9
$UCSNAME
  2

  9
$UCSORG
 10
0.0
 20
0.0
 30
0.0
  9
$UCSXDIR
 10
1.0
 20
0.0
 30
0.0
  9
$UCSYDIR
 10
0.0
 20
1.0
 30
0.0
  9
$PUCSNAME
  2

  9
$PUCSORG
 10
0.0
 20
0.0
 30
0.0
  9
$PUCSXDIR
 10
1.0
 20
0.0
 30
0.0
  9
$PUCSYDIR
 10
0.0
 20
1.0
 30
0.0
  9
$USERI1
 70
     0
  9
$USERI2
 70
     0
  9
$USERI3
 70
     0
  9
$USERI4
 70
     0
  9
$USERI5
 70
     0
  9
$USERR1
 40
0.0
  9
$USERR2
 40
0.0
  9
$USERR3
 40
0.0
  9
$USERR4
 40
0.0
  9
$USERR5
 40
0.0
  9
$WORLDVIEW
 70
     1
  9
$SHADEDGE
 70
     3
  9
$SHADEDIF
 70
    70
  9
$TILEMODE
 70
     1
  9
$MAXACTVP
 70
    64
  9
$PLIMCHECK
 70
     0
  9
$PEXTMIN
 10
1.000000000000000E+20
 20
1.000000000000000E+20
 30
1.000000000000000E+20
  9
$PEXTMAX
 10
-1.000000000000000E+20
 20
-1.000000000000000E+20
 30
-1.000000000000000E+20
  9
$PLIMMIN
 10
0.0
 20
0.0
  9
$PLIMMAX
 10
12.0
 20
9.0
  9
$UNITMODE
 70
     0
  9
$VISRETAIN
 70
     1
  9
$PLINEGEN
 70
     0
  9
$PSLTSCALE
 70
     1
  0
ENDSEC
  0
SECTION
  2
TABLES
  0
TABLE
  2
VPORT
 70
     1
  0
VPORT
  2
*ACTIVE
 70
     0
 10
0.0
 20
0.0
 11
1.0
 21
1.0
 12
0.0
 22
0.0
 13
0.0
 23
0.0
 14
0.5
 24
0.5
 15
0.5
 25
0.5
 16
322.281982421875
 26
-147.2664642333984
 36
132.5090789794922
 17
71.82968139648438
 27
-14.39508056640625
 37
43.84368896484375
 40
153.4827830788901
 41
1.972972972850329
 42
50.0
 43
0.0
 44
0.0
 50
0.0
 51
0.0
 71
     0
 72
   100
 73
     1
 74
     3
 75
     0
 76
     0
 77
     0
 78
     0
  0
ENDTAB
  0
TABLE
  2
LTYPE
 70
     1
  0
LTYPE
  2
CONTINUOUS
 70
     0
  3
Solid line
 72
    65
 73
     0
 40
0.0
  0
ENDTAB
  0
TABLE
  2
LAYER
 70
     2
  0
LAYER
  2
0
 70
     0
 62
     7
  6
CONTINUOUS
  0
LAYER
  2
LAYER_1
 70
     0
 62
     7
  6
CONTINUOUS
  0
ENDTAB
  0
TABLE
  2
STYLE
 70
     1
  0
STYLE
  2
STANDARD
 70
     0
 40
0.0
 41
1.0
 50
0.0
 71
     0
 42
0.2
  3
txt
  4

  0
ENDTAB
  0
TABLE
  2
VIEW
 70
     0
  0
ENDTAB
  0
TABLE
  2
UCS
 70
     0
  0
ENDTAB
  0
TABLE
  2
APPID
 70
     1
  0
APPID
  2
ACAD
 70
     0
  0
ENDTAB
  0
TABLE
  2
DIMSTYLE
 70
     1
  0
DIMSTYLE
  2
STANDARD
 70
     0
  3

  4

  5

  6

  7

 40
1.0
 41
0.18
 42
0.0625
 43
0.38
 44
0.18
 45
0.0
 46
0.0
 47
0.0
 48
0.0
140
0.18
141
0.09
142
0.0
143
25.4
144
1.0
145
0.0
146
1.0
147
0.09
 71
     0
 72
     0
 73
     1
 74
     1
 75
     0
 76
     0
 77
     0
 78
     0
170
     0
171
     2
172
     0
173
     0
174
     0
175
     0
176
     0
177
     0
178
     0
  0
ENDTAB
  0
ENDSEC
  0
SECTION
  2
BLOCKS
  0
BLOCK
  8
0
  2
$MODEL_SPACE
 70
     0
 10
0.0
 20
0.0
 30
0.0
  3
$MODEL_SPACE
  1

  0
ENDBLK
  5
21
  8
0
  0
BLOCK
 67
     1
  8
0
  2
$PAPER_SPACE
 70
     0
 10
0.0
 20
0.0
 30
0.0
  3
$PAPER_SPACE
  1

  0
ENDBLK
  5
1D
 67
     1
  8
0
  0
BLOCK
  8
0
  2
100707_NEUTRAL_LEVER_STICK
 70
     0
 10
0.0
 20
0.0
 30
0.0
  3
100707_NEUTRAL_LEVER_STICK
  1

  0
POLYLINE
  5
3C
  8
0
 62
     9
 66
     1
 10
0.0
 20
0.0
 30
0.0
 70
    64
 71
    46
 72
    74
  0
VERTEX
  5
3D
  8
0
 10
34.22867584228516
 20
1.027776122093201
 30
-85.19999694824219
 70
   192
  0
VERTEX
  5
3E
  8
0
 10
33.81185150146484
 20
-0.000000000000234
 30
-84.9000015258789
 70
   192
  0
VERTEX
  5
3F
  8
0
 10
34.23534774780273
 20
-1.061304450035095
 30
-85.19999694824219
 70
   192
  0
VERTEX
  5
40
  8
0
 10
34.19454193115234
 20
1.918395638465881
 30
-84.9000015258789
 70
   192
  0
VERTEX
  5
41
  8
0
 10
36.76443862915039
 20
4.227656364440918
 30
-85.19999694824219
 70
   192
  0
VERTEX
  5
42
  8
0
 10
35.29050064086914
 20
3.515890836715698
 30
-84.9000015258789
 70
   192
  0
VERTEX
  5
43
  8
0
 10
35.12990188598633
 20
2.915686845779419
 30
-85.19999694824219
 70
   192
  0
VERTEX
  5
44
  8
0
 10
38.81185150146484
 20
4.699999809265137
 30
-85.19999694824219
 70
   192
  0
VERTEX
  5
45
  8
0
 10
36.90628814697266
 20
4.615465641021729
 30
-84.9000015258789
 70
   192
  0
VERTEX
  5
46
  8
0
 10
38.81185150146484
 20
5.0
 30
-84.9000015258789
 70
   192
  0
VERTEX
  5
47
  8
0
 10
34.18970489501953
 20
-1.906894564628601
 30
-84.9000015258789
 70
   192
  0
VERTEX
  5
48
  8
0
 10
35.14572525024414
 20
-2.939376354217529
 30
-85.19999694824219
 70
   192
  0
VERTEX
  5
49
  8
0
 10
35.27165222167969
 20
-3.534525632858276
 30
-84.9000015258789
 70
   192
  0
VERTEX
  5
4A
  8
0
 10
36.91606903076172
 20
-4.569615364074707
 30
-84.9000015258789
 70
   192
  0
VERTEX
  5
4B
  8
0
 10
36.77865219116211
 20
-4.2371506690979
 30
-85.19999694824219
 70
   192
  0
VERTEX
  5
4C
  8
0
 10
38.81185150146484
 20
-4.699999809265137
 30
-85.19999694824219
 70
   192
  0
VERTEX
  5
4D
  8
0
 10
38.81185150146484
 20
-5.0
 30
-84.9000015258789
 70
   192
  0
VERTEX
  5
4E
  8
0
 10
33.81185150146484
 20
-0.0000000000001956
 30
-30.60000038146973
 70
   192
  0
VERTEX
  5
4F
  8
0
 10
34.18970489501953
 20
1.906894564628601
 30
-30.60000038146973
 70
   192
  0
VERTEX
  5
50
  8
0
 10
35.27165222167969
 20
3.534525632858276
 30
-30.60000038146973
 70
   192
  0
VERTEX
  5
51
  8
0
 10
36.91606903076172
 20
4.569615364074707
 30
-30.60000038146973
 70
   192
  0
VERTEX
  5
52
  8
0
 10
38.81185150146484
 20
5.0
 30
-30.60000038146973
 70
   192
  0
VERTEX
  5
53
  8
0
 10
34.19454193115234
 20
-1.918395638465881
 30
-30.60000038146973
 70
   192
  0
VERTEX
  5
54
  8
0
 10
35.29050064086914
 20
-3.515890836715698
 30
-30.60000038146973
 70
   192
  0
VERTEX
  5
55
  8
0
 10
36.90628814697266
 20
-4.615465641021729
 30
-30.60000038146973
 70
   192
  0
VERTEX
  5
56
  8
0
 10
38.81185150146484
 20
-5.0
 30
-30.60000038146973
 70
   192
  0
VERTEX
  5
57
  8
0
 10
40.71741485595703
 20
4.615465641021729
 30
-84.9000015258789
 70
   192
  0
VERTEX
  5
58
  8
0
 10
40.71741485595703
 20
4.615465641021729
 30
-30.60000038146973
 70
   192
  0
VERTEX
  5
59
  8
0
 10
43.81185150146484
 20
-0.0000000000002722
 30
-84.9000015258789
 70
   192
  0
VERTEX
  5
5A
  8
0
 10
43.81185150146484
 20
-0.0000000000002296
 30
-30.60000038146973
 70
   192
  0
VERTEX
  5
5B
  8
0
 10
43.42916107177734
 20
1.918395638465881
 30
-84.9000015258789
 70
   192
  0
VERTEX
  5
5C
  8
0
 10
43.42916107177734
 20
1.918395638465881
 30
-30.60000038146973
 70
   192
  0
VERTEX
  5
5D
  8
0
 10
42.33319854736328
 20
3.515890836715698
 30
-30.60000038146973
 70
   192
  0
VERTEX
  5
5E
  8
0
 10
42.33319854736328
 20
3.515890836715698
 30
-84.9000015258789
 70
   192
  0
VERTEX
  5
5F
  8
0
 10
40.70763397216797
 20
-4.569615364074707
 30
-84.9000015258789
 70
   192
  0
VERTEX
  5
60
  8
0
 10
42.35205078125
 20
-3.534525632858276
 30
-30.60000038146973
 70
   192
  0
VERTEX
  5
61
  8
0
 10
42.35205078125
 20
-3.534525632858276
 30
-84.9000015258789
 70
   192
  0
VERTEX
  5
62
  8
0
 10
43.43399429321289
 20
-1.906894564628601
 30
-30.60000038146973
 70
   192
  0
VERTEX
  5
63
  8
0
 10
43.43399429321289
 20
-1.906894564628601
 30
-84.9000015258789
 70
   192
  0
VERTEX
  5
64
  8
0
 10
40.70763397216797
 20
-4.569615364074707
 30
-30.60000038146973
 70
   192
  0
VERTEX
  5
65
  8
0
 10
42.47797393798828
 20
2.939376354217529
 30
-85.19999694824219
 70
   192
  0
VERTEX
  5
66
  8
0
 10
43.38835144042969
 20
1.061304450035095
 30
-85.19999694824219
 70
   192
  0
VERTEX
  5
67
  8
0
 10
43.39502716064453
 20
-1.027776122093201
 30
-85.19999694824219
 70
   192
  0
VERTEX
  5
68
  8
0
 10
40.8592643737793
 20
-4.227656364440918
 30
-85.19999694824219
 70
   192
  0
VERTEX
  5
69
  8
0
 10
42.49379730224609
 20
-2.915686845779419
 30
-85.19999694824219
 70
   192
  0
VERTEX
  5
6A
  8
0
 10
40.84505081176758
 20
4.2371506690979
 30
-85.19999694824219
 70
   192
  0
VERTEX
  5
6B
  8
0
 62
     9
 10
0.0
 20
0.0
 30
0.0
 70
   128
 71
     3
 72
     2
 73
     1
  0
VERTEX
  5
6C
  8
0
 62
     9
 10
0.0
 20
0.0
 30
0.0
 70
   128
 71
     4
 72
     1
 73
     2
  0
VERTEX
  5
6D
  8
0
 62
     9
 10
0.0
 20
0.0
 30
0.0
 70
   128
 71
     7
 72
     6
 73
     5
  0
VERTEX
  5
6E
  8
0
 62
     9
 10
0.0
 20
0.0
 30
0.0
 70
   128
 71
     4
 72
     6
 73
     7
  0
VERTEX
  5
6F
  8
0
 62
     9
 10
0.0
 20
0.0
 30
0.0
 70
   128
 71
     4
 72
     7
 73
     1
  0
VERTEX
  5
70
  8
0
 62
     9
 10
0.0
 20
0.0
 30
0.0
 70
   128
 71
     9
 72
     8
 73
     5
  0
VERTEX
  5
71
  8
0
 62
     9
 10
0.0
 20
0.0
 30
0.0
 70
   128
 71
    10
 72
     8
 73
     9
  0
VERTEX
  5
72
  8
0
 62
     9
 10
0.0
 20
0.0
 30
0.0
 70
   128
 71
     9
 72
     5
 73
     6
  0
VERTEX
  5
73
  8
0
 62
     9
 10
0.0
 20
0.0
 30
0.0
 70
   128
 71
     2
 72
     3
 73
    11
  0
VERTEX
  5
74
  8
0
 62
     9
 10
0.0
 20
0.0
 30
0.0
 70
   128
 71
    13
 72
    11
 73
    12
  0
VERTEX
  5
75
  8
0
 62
     9
 10
0.0
 20
0.0
 30
0.0
 70
   128
 71
     3
 72
    12
 73
    11
  0
VERTEX
  5
76
  8
0
 62
     9
 10
0.0
 20
0.0
 30
0.0
 70
   128
 71
    15
 72
    14
 73
    13
  0
VERTEX
  5
77
  8
0
 62
     9
 10
0.0
 20
0.0
 30
0.0
 70
   128
 71
    13
 72
    12
 73
    15
  0
VERTEX
  5
78
  8
0
 62
     9
 10
0.0
 20
0.0
 30
0.0
 70
   128
 71
    16
 72
    14
 73
    15
  0
VERTEX
  5
79
  8
0
 62
     9
 10
0.0
 20
0.0
 30
0.0
 70
   128
 71
    16
 72
    17
 73
    14
  0
VERTEX
  5
7A
  8
0
 62
     9
 10
0.0
 20
0.0
 30
0.0
 70
   128
 71
    19
 72
     2
 73
    18
  0
VERTEX
  5
7B
  8
0
 62
     9
 10
0.0
 20
0.0
 30
0.0
 70
   128
 71
    19
 72
    20
 73
     4
  0
VERTEX
  5
7C
  8
0
 62
     9
 10
0.0
 20
0.0
 30
0.0
 70
   128
 71
     4
 72
     2
 73
    19
  0
VERTEX
  5
7D
  8
0
 62
     9
 10
0.0
 20
0.0
 30
0.0
 70
   128
 71
     9
 72
     6
 73
    20
  0
VERTEX
  5
7E
  8
0
 62
     9
 10
0.0
 20
0.0
 30
0.0
 70
   128
 71
    20
 72
     6
 73
     4
  0
VERTEX
  5
7F
  8
0
 62
     9
 10
0.0
 20
0.0
 30
0.0
 70
   128
 71
    21
 72
    10
 73
     9
  0
VERTEX
  5
80
  8
0
 62
     9
 10
0.0
 20
0.0
 30
0.0
 70
   128
 71
     9
 72
    20
 73
    21
  0
VERTEX
  5
81
  8
0
 62
     9
 10
0.0
 20
0.0
 30
0.0
 70
   128
 71
    22
 72
    10
 73
    21
  0
VERTEX
  5
82
  8
0
 62
     9
 10
0.0
 20
0.0
 30
0.0
 70
   128
 71
    18
 72
     2
 73
    11
  0
VERTEX
  5
83
  8
0
 62
     9
 10
0.0
 20
0.0
 30
0.0
 70
   128
 71
    23
 72
    11
 73
    13
  0
VERTEX
  5
84
  8
0
 62
     9
 10
0.0
 20
0.0
 30
0.0
 70
   128
 71
    11
 72
    23
 73
    18
  0
VERTEX
  5
85
  8
0
 62
     9
 10
0.0
 20
0.0
 30
0.0
 70
   128
 71
    13
 72
    25
 73
    24
  0
VERTEX
  5
86
  8
0
 62
     9
 10
0.0
 20
0.0
 30
0.0
 70
   128
 71
    23
 72
    13
 73
    24
  0
VERTEX
  5
87
  8
0
 62
     9
 10
0.0
 20
0.0
 30
0.0
 70
   128
 71
    25
 72
    14
 73
    26
  0
VERTEX
  5
88
  8
0
 62
     9
 10
0.0
 20
0.0
 30
0.0
 70
   128
 71
    14
 72
    25
 73
    13
  0
VERTEX
  5
89
  8
0
 62
     9
 10
0.0
 20
0.0
 30
0.0
 70
   128
 71
    14
 72
    17
 73
    26
  0
VERTEX
  5
8A
  8
0
 62
     9
 10
0.0
 20
0.0
 30
0.0
 70
   128
 71
    22
 72
    28
 73
    27
  0
VERTEX
  5
8B
  8
0
 62
     9
 10
0.0
 20
0.0
 30
0.0
 70
   128
 71
    31
 72
    30
 73
    29
  0
VERTEX
  5
8C
  8
0
 62
     9
 10
0.0
 20
0.0
 30
0.0
 70
   128
 71
    34
 72
    33
 73
    32
  0
VERTEX
  5
8D
  8
0
 62
     9
 10
0.0
 20
0.0
 30
0.0
 70
   128
 71
    37
 72
    36
 73
    35
  0
VERTEX
  5
8E
  8
0
 62
     9
 10
0.0
 20
0.0
 30
0.0
 70
   128
 71
    36
 72
    39
 73
    38
  0
VERTEX
  5
8F
  8
0
 62
     9
 10
0.0
 20
0.0
 30
0.0
 70
   128
 71
    17
 72
    35
 73
    40
  0
VERTEX
  5
90
  8
0
 62
     9
 10
0.0
 20
0.0
 30
0.0
 70
   128
 71
    36
 72
    40
 73
    35
  0
VERTEX
  5
91
  8
0
 62
     9
 10
0.0
 20
0.0
 30
0.0
 70
   128
 71
    17
 72
    40
 73
    26
  0
VERTEX
  5
92
  8
0
 62
     9
 10
0.0
 20
0.0
 30
0.0
 70
   128
 71
    29
 72
    38
 73
    39
  0
VERTEX
  5
93
  8
0
 62
     9
 10
0.0
 20
0.0
 30
0.0
 70
   128
 71
    36
 72
    37
 73
    39
  0
VERTEX
  5
94
  8
0
 62
     9
 10
0.0
 20
0.0
 30
0.0
 70
   128
 71
    32
 72
    30
 73
    31
  0
VERTEX
  5
95
  8
0
 62
     9
 10
0.0
 20
0.0
 30
0.0
 70
   128
 71
    30
 72
    38
 73
    29
  0
VERTEX
  5
96
  8
0
 62
     9
 10
0.0
 20
0.0
 30
0.0
 70
   128
 71
    34
 72
    28
 73
    33
  0
VERTEX
  5
97
  8
0
 62
     9
 10
0.0
 20
0.0
 30
0.0
 70
   128
 71
    34
 72
    32
 73
    31
  0
VERTEX
  5
98
  8
0
 62
     9
 10
0.0
 20
0.0
 30
0.0
 70
   128
 71
    27
 72
    10
 73
    22
  0
VERTEX
  5
99
  8
0
 62
     9
 10
0.0
 20
0.0
 30
0.0
 70
   128
 71
    34
 72
    27
 73
    28
  0
VERTEX
  5
9A
  8
0
 62
     9
 10
0.0
 20
0.0
 30
0.0
 70
   128
 71
    41
 72
    34
 73
    31
  0
VERTEX
  5
9B
  8
0
 62
     9
 10
0.0
 20
0.0
 30
0.0
 70
   128
 71
    29
 72
    43
 73
    42
  0
VERTEX
  5
9C
  8
0
 62
     9
 10
0.0
 20
0.0
 30
0.0
 70
   128
 71
    10
 72
    27
 73
     8
  0
VERTEX
  5
9D
  8
0
 62
     9
 10
0.0
 20
0.0
 30
0.0
 70
   128
 71
    45
 72
    37
 73
    44
  0
VERTEX
  5
9E
  8
0
 62
     9
 10
0.0
 20
0.0
 30
0.0
 70
   128
 71
    39
 72
    45
 73
    43
  0
VERTEX
  5
9F
  8
0
 62
     9
 10
0.0
 20
0.0
 30
0.0
 70
   128
 71
    16
 72
    44
 73
    35
  0
VERTEX
  5
A0
  8
0
 62
     9
 10
0.0
 20
0.0
 30
0.0
 70
   128
 71
    37
 72
    35
 73
    44
  0
VERTEX
  5
A1
  8
0
 62
     9
 10
0.0
 20
0.0
 30
0.0
 70
   128
 71
    16
 72
    35
 73
    17
  0
VERTEX
  5
A2
  8
0
 62
     9
 10
0.0
 20
0.0
 30
0.0
 70
   128
 71
    37
 72
    45
 73
    39
  0
VERTEX
  5
A3
  8
0
 62
     9
 10
0.0
 20
0.0
 30
0.0
 70
   128
 71
    31
 72
    42
 73
    41
  0
VERTEX
  5
A4
  8
0
 62
     9
 10
0.0
 20
0.0
 30
0.0
 70
   128
 71
    29
 72
    39
 73
    43
  0
VERTEX
  5
A5
  8
0
 62
     9
 10
0.0
 20
0.0
 30
0.0
 70
   128
 71
    29
 72
    42
 73
    31
  0
VERTEX
  5
A6
  8
0
 62
     9
 10
0.0
 20
0.0
 30
0.0
 70
   128
 71
    34
 72
    46
 73
    27
  0
VERTEX
  5
A7
  8
0
 62
     9
 10
0.0
 20
0.0
 30
0.0
 70
   128
 71
    46
 72
    34
 73
    41
  0
VERTEX
  5
A8
  8
0
 62
     9
 10
0.0
 20
0.0
 30
0.0
 70
   128
 71
    27
 72
    46
 73
     8
  0
VERTEX
  5
A9
  8
0
 62
     9
 10
0.0
 20
0.0
 30
0.0
 70
   128
 71
     8
 72
     3
 73
     1
  0
VERTEX
  5
AA
  8
0
 62
     9
 10
0.0
 20
0.0
 30
0.0
 70
   128
 71
    46
 72
     3
 73
     8
  0
VERTEX
  5
AB
  8
0
 62
     9
 10
0.0
 20
0.0
 30
0.0
 70
   128
 71
     5
 72
     8
 73
     1
  0
VERTEX
  5
AC
  8
0
 62
     9
 10
0.0
 20
0.0
 30
0.0
 70
   128
 71
     5
 72
     1
 73
     7
  0
VERTEX
  5
AD
  8
0
 62
     9
 10
0.0
 20
0.0
 30
0.0
 70
   128
 71
    12
 72
     3
 73
    46
  0
VERTEX
  5
AE
  8
0
 62
     9
 10
0.0
 20
0.0
 30
0.0
 70
   128
 71
    46
 72
    41
 73
    12
  0
VERTEX
  5
AF
  8
0
 62
     9
 10
0.0
 20
0.0
 30
0.0
 70
   128
 71
    42
 72
    15
 73
    41
  0
VERTEX
  5
B0
  8
0
 62
     9
 10
0.0
 20
0.0
 30
0.0
 70
   128
 71
    12
 72
    41
 73
    15
  0
VERTEX
  5
B1
  8
0
 62
     9
 10
0.0
 20
0.0
 30
0.0
 70
   128
 71
    42
 72
    16
 73
    15
  0
VERTEX
  5
B2
  8
0
 62
     9
 10
0.0
 20
0.0
 30
0.0
 70
   128
 71
    43
 72
    45
 73
    44
  0
VERTEX
  5
B3
  8
0
 62
     9
 10
0.0
 20
0.0
 30
0.0
 70
   128
 71
    42
 72
    43
 73
    16
  0
VERTEX
  5
B4
  8
0
 62
     9
 10
0.0
 20
0.0
 30
0.0
 70
   128
 71
    44
 72
    16
 73
    43
  0
SEQEND
  5
B5
  8
0
 62
     9
  0
ENDBLK
  5
B9
  8
0
  0
BLOCK
  8
0
  2
39
 70
     0
 10
0.0
 20
0.0
 30
0.0
  3
39
  1

  0
POLYLINE
  5
BB
  8
0
 62
     9
 66
     1
 10
0.0
 20
0.0
 30
0.0
 70
    64
 71
    58
 72
    98
  0
VERTEX
  5
BC
  8
0
 10
86.31185150146484
 20
-4.192238330841064
 30
10.15402507781982
 70
   192
  0
VERTEX
  5
BD
  8
0
 10
103.7873458862305
 20
-5.178377628326416
 30
9.722716331481934
 70
   192
  0
VERTEX
  5
BE
  8
0
 10
106.8118515014648
 20
-6.0
 30
9.219544410705566
 70
   192
  0
VERTEX
  5
BF
  8
0
 10
86.31185150146484
 20
-7.746966361999512
 30
7.734959602355957
 70
   192
  0
VERTEX
  5
C0
  8
0
 10
101.6239318847656
 20
-3.017804145812988
 30
10.58768558502197
 70
   192
  0
VERTEX
  5
C1
  8
0
 10
86.31185150146484
 20
-0.0000000000002942
 30
11.0
 70
   192
  0
VERTEX
  5
C2
  8
0
 10
100.8118515014648
 20
-0.0000000000003137
 30
11.0
 70
   192
  0
VERTEX
  5
C3
  8
0
 10
86.31185150146484
 20
-11.0
 30
-0.000000000000053
 70
   192
  0
VERTEX
  5
C4
  8
0
 10
106.8118515014648
 20
-10.39729881286621
 30
3.587197065353394
 70
   192
  0
VERTEX
  5
C5
  8
0
 10
106.8118515014648
 20
-10.40407180786133
 30
-3.569870233535767
 70
   192
  0
VERTEX
  5
C6
  8
0
 10
86.31185150146484
 20
-10.15808200836182
 30
4.220470428466797
 70
   192
  0
VERTEX
  5
C7
  8
0
 10
101.6451568603516
 20
-3.040563106536865
 30
-10.55270481109619
 70
   192
  0
VERTEX
  5
C8
  8
0
 10
86.31185150146484
 20
-4.170720100402832
 30
-10.05315399169922
 70
   192
  0
VERTEX
  5
C9
  8
0
 10
103.8034515380859
 20
-5.194087982177734
 30
-9.682117462158203
 70
   192
  0
VERTEX
  5
CA
  8
0
 10
106.8118515014648
 20
-6.0
 30
-9.219544410705566
 70
   192
  0
VERTEX
  5
CB
  8
0
 10
86.31185150146484
 20
-7.788436412811279
 30
-7.775956153869629
 70
   192
  0
VERTEX
  5
CC
  8
0
 10
86.31185150146484
 20
-0.0000000000003111
 30
-11.0
 70
   192
  0
VERTEX
  5
CD
  8
0
 10
100.8118515014648
 20
-0.0000000000003306
 30
-11.0
 70
   192
  0
VERTEX
  5
CE
  8
0
 10
86.31185150146484
 20
-10.1687183380127
 30
-4.195168018341064
 70
   192
  0
VERTEX
  5
CF
  8
0
 10
106.8118515014648
 20
-6.0
 30
16.0
 70
   192
  0
VERTEX
  5
D0
  8
0
 10
109.7956390380859
 20
-5.203499794006348
 30
16.0
 70
   192
  0
VERTEX
  5
D1
  8
0
 10
109.8285598754883
 20
-5.181492805480957
 30
-60.0
 70
   192
  0
VERTEX
  5
D2
  8
0
 10
111.9933471679688
 20
-3.016714334487915
 30
16.0
 70
   192
  0
VERTEX
  5
D3
  8
0
 10
112.8118515014648
 20
-0.0000000000002751
 30
16.0
 70
   192
  0
VERTEX
  5
D4
  8
0
 10
112.0153427124023
 20
-2.983783006668091
 30
-60.0
 70
   192
  0
VERTEX
  5
D5
  8
0
 10
112.8118515014648
 20
-0.0000000000003679
 30
-60.0
 70
   192
  0
VERTEX
  5
D6
  8
0
 10
103.8280639648438
 20
-5.203489303588867
 30
-60.0
 70
   192
  0
VERTEX
  5
D7
  8
0
 10
103.7951354980469
 20
-5.181498527526855
 30
16.0
 70
   192
  0
VERTEX
  5
D8
  8
0
 10
101.6303558349609
 20
-3.01671290397644
 30
-60.0
 70
   192
  0
VERTEX
  5
D9
  8
0
 10
101.6083526611328
 20
-2.983787298202515
 30
16.0
 70
   192
  0
VERTEX
  5
DA
  8
0
 10
100.8118515014648
 20
-0.0000000000003002
 30
16.0
 70
   192
  0
VERTEX
  5
DB
  8
0
 10
106.8118515014648
 20
-6.0
 30
-60.0
 70
   192
  0
VERTEX
  5
DC
  8
0
 10
100.8118515014648
 20
-0.0000000000003931
 30
-60.0
 70
   192
  0
VERTEX
  5
DD
  8
0
 10
109.7956771850586
 20
5.198354721069336
 30
16.0
 70
   192
  0
VERTEX
  5
DE
  8
0
 10
112.0142517089844
 20
3.029969215393066
 30
16.0
 70
   192
  0
VERTEX
  5
DF
  8
0
 10
103.794921875
 20
5.154493808746338
 30
16.0
 70
   192
  0
VERTEX
  5
E0
  8
0
 10
101.6242980957031
 20
2.958673000335693
 30
16.0
 70
   192
  0
VERTEX
  5
E1
  8
0
 10
106.8118515014648
 20
6.0
 30
16.0
 70
   192
  0
VERTEX
  5
E2
  8
0
 10
106.8118515014648
 20
10.28924655914307
 30
3.861287355422974
 70
   192
  0
VERTEX
  5
E3
  8
0
 10
106.8118515014648
 20
10.31215667724609
 30
-3.838399171829224
 70
   192
  0
VERTEX
  5
E4
  8
0
 10
106.8118515014648
 20
6.0
 30
-9.219544410705566
 70
   192
  0
VERTEX
  5
E5
  8
0
 10
106.8118515014648
 20
6.0
 30
9.219544410705566
 70
   192
  0
VERTEX
  5
E6
  8
0
 10
111.9994049072266
 20
2.958673000335693
 30
-60.0
 70
   192
  0
VERTEX
  5
E7
  8
0
 10
106.8118515014648
 20
6.0
 30
-60.0
 70
   192
  0
VERTEX
  5
E8
  8
0
 10
101.6094436645508
 20
3.029969215393066
 30
-60.0
 70
   192
  0
VERTEX
  5
E9
  8
0
 10
109.8287811279297
 20
5.154493808746338
 30
-60.0
 70
   192
  0
VERTEX
  5
EA
  8
0
 10
103.8280181884766
 20
5.198354721069336
 30
-60.0
 70
   192
  0
VERTEX
  5
EB
  8
0
 10
103.8025665283203
 20
5.193090438842773
 30
-9.68252182006836
 70
   192
  0
VERTEX
  5
EC
  8
0
 10
101.6414337158203
 20
3.035486936569214
 30
-10.55435371398926
 70
   192
  0
VERTEX
  5
ED
  8
0
 10
101.6186447143555
 20
3.00852108001709
 30
10.59017467498779
 70
   192
  0
VERTEX
  5
EE
  8
0
 10
103.7763214111328
 20
5.171031951904297
 30
9.726340293884277
 70
   192
  0
VERTEX
  5
EF
  8
0
 10
86.31185150146484
 20
11.0
 30
-0.0000000000000662
 70
   192
  0
VERTEX
  5
F0
  8
0
 10
86.31185150146484
 20
4.170720100402832
 30
10.05315399169922
 70
   192
  0
VERTEX
  5
F1
  8
0
 10
86.31185150146484
 20
7.746966361999512
 30
-7.734959602355957
 70
   192
  0
VERTEX
  5
F2
  8
0
 10
86.31185150146484
 20
10.1687183380127
 30
4.195168018341064
 70
   192
  0
VERTEX
  5
F3
  8
0
 10
86.31185150146484
 20
4.192238330841064
 30
-10.15402507781982
 70
   192
  0
VERTEX
  5
F4
  8
0
 10
86.31185150146484
 20
10.15808200836182
 30
-4.220470428466797
 70
   192
  0
VERTEX
  5
F5
  8
0
 10
86.31185150146484
 20
7.788436412811279
 30
7.775956153869629
 70
   192
  0
VERTEX
  5
F6
  8
0
 62
     9
 10
0.0
 20
0.0
 30
0.0
 70
   128
 71
     3
 72
     2
 73
     1
  0
VERTEX
  5
F7
  8
0
 62
     9
 10
0.0
 20
0.0
 30
0.0
 70
   128
 71
     3
 72
     1
 73
     4
  0
VERTEX
  5
F8
  8
0
 62
     9
 10
0.0
 20
0.0
 30
0.0
 70
   128
 71
     6
 72
     1
 73
     5
  0
VERTEX
  5
F9
  8
0
 62
     9
 10
0.0
 20
0.0
 30
0.0
 70
   128
 71
     7
 72
     6
 73
     5
  0
VERTEX
  5
FA
  8
0
 62
     9
 10
0.0
 20
0.0
 30
0.0
 70
   128
 71
     2
 72
     5
 73
     1
  0
VERTEX
  5
FB
  8
0
 62
     9
 10
0.0
 20
0.0
 30
0.0
 70
   128
 71
    10
 72
     9
 73
     8
  0
VERTEX
  5
FC
  8
0
 62
     9
 10
0.0
 20
0.0
 30
0.0
 70
   128
 71
    11
 72
     9
 73
     4
  0
VERTEX
  5
FD
  8
0
 62
     9
 10
0.0
 20
0.0
 30
0.0
 70
   128
 71
    14
 72
    13
 73
    12
  0
VERTEX
  5
FE
  8
0
 62
     9
 10
0.0
 20
0.0
 30
0.0
 70
   128
 71
    16
 72
    15
 73
    10
  0
VERTEX
  5
FF
  8
0
 62
     9
 10
0.0
 20
0.0
 30
0.0
 70
   128
 71
    18
 72
    12
 73
    17
  0
VERTEX
  5
100
  8
0
 62
     9
 10
0.0
 20
0.0
 30
0.0
 70
   128
 71
    13
 72
    17
 73
    12
  0
VERTEX
  5
101
  8
0
 62
     9
 10
0.0
 20
0.0
 30
0.0
 70
   128
 71
    10
 72
    19
 73
    16
  0
VERTEX
  5
102
  8
0
 62
     9
 10
0.0
 20
0.0
 30
0.0
 70
   128
 71
    15
 72
    13
 73
    14
  0
VERTEX
  5
103
  8
0
 62
     9
 10
0.0
 20
0.0
 30
0.0
 70
   128
 71
    16
 72
    13
 73
    15
  0
VERTEX
  5
104
  8
0
 62
     9
 10
0.0
 20
0.0
 30
0.0
 70
   128
 71
    19
 72
    10
 73
     8
  0
VERTEX
  5
105
  8
0
 62
     9
 10
0.0
 20
0.0
 30
0.0
 70
   128
 71
     3
 72
     4
 73
     9
  0
VERTEX
  5
106
  8
0
 62
     9
 10
0.0
 20
0.0
 30
0.0
 70
   128
 71
     9
 72
    11
 73
     8
  0
VERTEX
  5
107
  8
0
 62
     9
 10
0.0
 20
0.0
 30
0.0
 70
   128
 71
     3
 72
    21
 73
    20
  0
VERTEX
  5
108
  8
0
 62
     9
 10
0.0
 20
0.0
 30
0.0
 70
   128
 71
    23
 72
    21
 73
    22
  0
VERTEX
  5
109
  8
0
 62
     9
 10
0.0
 20
0.0
 30
0.0
 70
   128
 71
    22
 72
    21
 73
    15
  0
VERTEX
  5
10A
  8
0
 62
     9
 10
0.0
 20
0.0
 30
0.0
 70
   128
 71
    25
 72
    24
 73
    23
  0
VERTEX
  5
10B
  8
0
 62
     9
 10
0.0
 20
0.0
 30
0.0
 70
   128
 71
    23
 72
    22
 73
    25
  0
VERTEX
  5
10C
  8
0
 62
     9
 10
0.0
 20
0.0
 30
0.0
 70
   128
 71
    26
 72
    24
 73
    25
  0
VERTEX
  5
10D
  8
0
 62
     9
 10
0.0
 20
0.0
 30
0.0
 70
   128
 71
     3
 72
    20
 73
     2
  0
VERTEX
  5
10E
  8
0
 62
     9
 10
0.0
 20
0.0
 30
0.0
 70
   128
 71
    15
 72
    14
 73
    27
  0
VERTEX
  5
10F
  8
0
 62
     9
 10
0.0
 20
0.0
 30
0.0
 70
   128
 71
     2
 72
    28
 73
     5
  0
VERTEX
  5
110
  8
0
 62
     9
 10
0.0
 20
0.0
 30
0.0
 70
   128
 71
    29
 72
    14
 73
    12
  0
VERTEX
  5
111
  8
0
 62
     9
 10
0.0
 20
0.0
 30
0.0
 70
   128
 71
     7
 72
     5
 73
    30
  0
VERTEX
  5
112
  8
0
 62
     9
 10
0.0
 20
0.0
 30
0.0
 70
   128
 71
    29
 72
    12
 73
    18
  0
VERTEX
  5
113
  8
0
 62
     9
 10
0.0
 20
0.0
 30
0.0
 70
   128
 71
    31
 72
     7
 73
    30
  0
VERTEX
  5
114
  8
0
 62
     9
 10
0.0
 20
0.0
 30
0.0
 70
   128
 71
    29
 72
    27
 73
    14
  0
VERTEX
  5
115
  8
0
 62
     9
 10
0.0
 20
0.0
 30
0.0
 70
   128
 71
    30
 72
     5
 73
    28
  0
VERTEX
  5
116
  8
0
 62
     9
 10
0.0
 20
0.0
 30
0.0
 70
   128
 71
    32
 72
    15
 73
    27
  0
VERTEX
  5
117
  8
0
 62
     9
 10
0.0
 20
0.0
 30
0.0
 70
   128
 71
    28
 72
     2
 73
    20
  0
VERTEX
  5
118
  8
0
 62
     9
 10
0.0
 20
0.0
 30
0.0
 70
   128
 71
    15
 72
    32
 73
    22
  0
VERTEX
  5
119
  8
0
 62
     9
 10
0.0
 20
0.0
 30
0.0
 70
   128
 71
     3
 72
    15
 73
    21
  0
VERTEX
  5
11A
  8
0
 62
     9
 10
0.0
 20
0.0
 30
0.0
 70
   128
 71
    18
 72
    33
 73
    29
  0
VERTEX
  5
11B
  8
0
 62
     9
 10
0.0
 20
0.0
 30
0.0
 70
   128
 71
    35
 72
    34
 73
    24
  0
VERTEX
  5
11C
  8
0
 62
     9
 10
0.0
 20
0.0
 30
0.0
 70
   128
 71
    37
 72
    23
 73
    36
  0
VERTEX
  5
11D
  8
0
 62
     9
 10
0.0
 20
0.0
 30
0.0
 70
   128
 71
    24
 72
    34
 73
    38
  0
VERTEX
  5
11E
  8
0
 62
     9
 10
0.0
 20
0.0
 30
0.0
 70
   128
 71
    21
 72
    23
 73
    37
  0
VERTEX
  5
11F
  8
0
 62
     9
 10
0.0
 20
0.0
 30
0.0
 70
   128
 71
    23
 72
    38
 73
    36
  0
VERTEX
  5
120
  8
0
 62
     9
 10
0.0
 20
0.0
 30
0.0
 70
   128
 71
    28
 72
    31
 73
    30
  0
VERTEX
  5
121
  8
0
 62
     9
 10
0.0
 20
0.0
 30
0.0
 70
   128
 71
    20
 72
    37
 73
    31
  0
VERTEX
  5
122
  8
0
 62
     9
 10
0.0
 20
0.0
 30
0.0
 70
   128
 71
    31
 72
    28
 73
    20
  0
VERTEX
  5
123
  8
0
 62
     9
 10
0.0
 20
0.0
 30
0.0
 70
   128
 71
    21
 72
    37
 73
    20
  0
VERTEX
  5
124
  8
0
 62
     9
 10
0.0
 20
0.0
 30
0.0
 70
   128
 71
    24
 72
    38
 73
    23
  0
VERTEX
  5
125
  8
0
 62
     9
 10
0.0
 20
0.0
 30
0.0
 70
   128
 71
    41
 72
    40
 73
    39
  0
VERTEX
  5
126
  8
0
 62
     9
 10
0.0
 20
0.0
 30
0.0
 70
   128
 71
    39
 72
    42
 73
    41
  0
VERTEX
  5
127
  8
0
 62
     9
 10
0.0
 20
0.0
 30
0.0
 70
   128
 71
    26
 72
    44
 73
    43
  0
VERTEX
  5
128
  8
0
 62
     9
 10
0.0
 20
0.0
 30
0.0
 70
   128
 71
    22
 72
    33
 73
    45
  0
VERTEX
  5
129
  8
0
 62
     9
 10
0.0
 20
0.0
 30
0.0
 70
   128
 71
    43
 72
    44
 73
    46
  0
VERTEX
  5
12A
  8
0
 62
     9
 10
0.0
 20
0.0
 30
0.0
 70
   128
 71
    47
 72
    26
 73
    25
  0
VERTEX
  5
12B
  8
0
 62
     9
 10
0.0
 20
0.0
 30
0.0
 70
   128
 71
    47
 72
    44
 73
    26
  0
VERTEX
  5
12C
  8
0
 62
     9
 10
0.0
 20
0.0
 30
0.0
 70
   128
 71
    22
 72
    45
 73
    47
  0
VERTEX
  5
12D
  8
0
 62
     9
 10
0.0
 20
0.0
 30
0.0
 70
   128
 71
    47
 72
    25
 73
    22
  0
VERTEX
  5
12E
  8
0
 62
     9
 10
0.0
 20
0.0
 30
0.0
 70
   128
 71
    32
 72
    33
 73
    22
  0
VERTEX
  5
12F
  8
0
 62
     9
 10
0.0
 20
0.0
 30
0.0
 70
   128
 71
    27
 72
    29
 73
    32
  0
VERTEX
  5
130
  8
0
 62
     9
 10
0.0
 20
0.0
 30
0.0
 70
   128
 71
    29
 72
    33
 73
    32
  0
VERTEX
  5
131
  8
0
 62
     9
 10
0.0
 20
0.0
 30
0.0
 70
   128
 71
    26
 72
    43
 73
    35
  0
VERTEX
  5
132
  8
0
 62
     9
 10
0.0
 20
0.0
 30
0.0
 70
   128
 71
    48
 72
    41
 73
    44
  0
VERTEX
  5
133
  8
0
 62
     9
 10
0.0
 20
0.0
 30
0.0
 70
   128
 71
    42
 72
    34
 73
    41
  0
VERTEX
  5
134
  8
0
 62
     9
 10
0.0
 20
0.0
 30
0.0
 70
   128
 71
    18
 72
    49
 73
    45
  0
VERTEX
  5
135
  8
0
 62
     9
 10
0.0
 20
0.0
 30
0.0
 70
   128
 71
    47
 72
    45
 73
    49
  0
VERTEX
  5
136
  8
0
 62
     9
 10
0.0
 20
0.0
 30
0.0
 70
   128
 71
    18
 72
    45
 73
    33
  0
VERTEX
  5
137
  8
0
 62
     9
 10
0.0
 20
0.0
 30
0.0
 70
   128
 71
    48
 72
    47
 73
    49
  0
VERTEX
  5
138
  8
0
 62
     9
 10
0.0
 20
0.0
 30
0.0
 70
   128
 71
    48
 72
    44
 73
    47
  0
VERTEX
  5
139
  8
0
 62
     9
 10
0.0
 20
0.0
 30
0.0
 70
   128
 71
    42
 72
    38
 73
    34
  0
VERTEX
  5
13A
  8
0
 62
     9
 10
0.0
 20
0.0
 30
0.0
 70
   128
 71
    41
 72
    46
 73
    44
  0
VERTEX
  5
13B
  8
0
 62
     9
 10
0.0
 20
0.0
 30
0.0
 70
   128
 71
    37
 72
    51
 73
    50
  0
VERTEX
  5
13C
  8
0
 62
     9
 10
0.0
 20
0.0
 30
0.0
 70
   128
 71
    34
 72
    46
 73
    41
  0
VERTEX
  5
13D
  8
0
 62
     9
 10
0.0
 20
0.0
 30
0.0
 70
   128
 71
     7
 72
    31
 73
    50
  0
VERTEX
  5
13E
  8
0
 62
     9
 10
0.0
 20
0.0
 30
0.0
 70
   128
 71
    37
 72
    50
 73
    31
  0
VERTEX
  5
13F
  8
0
 62
     9
 10
0.0
 20
0.0
 30
0.0
 70
   128
 71
    42
 72
    51
 73
    36
  0
VERTEX
  5
140
  8
0
 62
     9
 10
0.0
 20
0.0
 30
0.0
 70
   128
 71
    36
 72
    51
 73
    37
  0
VERTEX
  5
141
  8
0
 62
     9
 10
0.0
 20
0.0
 30
0.0
 70
   128
 71
    34
 72
    43
 73
    46
  0
VERTEX
  5
142
  8
0
 62
     9
 10
0.0
 20
0.0
 30
0.0
 70
   128
 71
    36
 72
    38
 73
    42
  0
VERTEX
  5
143
  8
0
 62
     9
 10
0.0
 20
0.0
 30
0.0
 70
   128
 71
    35
 72
    24
 73
    26
  0
VERTEX
  5
144
  8
0
 62
     9
 10
0.0
 20
0.0
 30
0.0
 70
   128
 71
    34
 72
    35
 73
    43
  0
VERTEX
  5
145
  8
0
 62
     9
 10
0.0
 20
0.0
 30
0.0
 70
   128
 71
     6
 72
     7
 73
    50
  0
VERTEX
  5
146
  8
0
 62
     9
 10
0.0
 20
0.0
 30
0.0
 70
   128
 71
    52
 72
    39
 73
    40
  0
VERTEX
  5
147
  8
0
 62
     9
 10
0.0
 20
0.0
 30
0.0
 70
   128
 71
    53
 72
    51
 73
    42
  0
VERTEX
  5
148
  8
0
 62
     9
 10
0.0
 20
0.0
 30
0.0
 70
   128
 71
    40
 72
    41
 73
    54
  0
VERTEX
  5
149
  8
0
 62
     9
 10
0.0
 20
0.0
 30
0.0
 70
   128
 71
    52
 72
    55
 73
    39
  0
VERTEX
  5
14A
  8
0
 62
     9
 10
0.0
 20
0.0
 30
0.0
 70
   128
 71
    56
 72
    41
 73
    48
  0
VERTEX
  5
14B
  8
0
 62
     9
 10
0.0
 20
0.0
 30
0.0
 70
   128
 71
    17
 72
    56
 73
    49
  0
VERTEX
  5
14C
  8
0
 62
     9
 10
0.0
 20
0.0
 30
0.0
 70
   128
 71
    49
 72
    56
 73
    48
  0
VERTEX
  5
14D
  8
0
 62
     9
 10
0.0
 20
0.0
 30
0.0
 70
   128
 71
    17
 72
    49
 73
    18
  0
VERTEX
  5
14E
  8
0
 62
     9
 10
0.0
 20
0.0
 30
0.0
 70
   128
 71
    40
 72
    54
 73
    57
  0
VERTEX
  5
14F
  8
0
 62
     9
 10
0.0
 20
0.0
 30
0.0
 70
   128
 71
    41
 72
    56
 73
    54
  0
VERTEX
  5
150
  8
0
 62
     9
 10
0.0
 20
0.0
 30
0.0
 70
   128
 71
    55
 72
    58
 73
    39
  0
VERTEX
  5
151
  8
0
 62
     9
 10
0.0
 20
0.0
 30
0.0
 70
   128
 71
    52
 72
    40
 73
    57
  0
VERTEX
  5
152
  8
0
 62
     9
 10
0.0
 20
0.0
 30
0.0
 70
   128
 71
    58
 72
    53
 73
    42
  0
VERTEX
  5
153
  8
0
 62
     9
 10
0.0
 20
0.0
 30
0.0
 70
   128
 71
    42
 72
    39
 73
    58
  0
VERTEX
  5
154
  8
0
 62
     9
 10
0.0
 20
0.0
 30
0.0
 70
   128
 71
    53
 72
     6
 73
    50
  0
VERTEX
  5
155
  8
0
 62
     9
 10
0.0
 20
0.0
 30
0.0
 70
   128
 71
    53
 72
    50
 73
    51
  0
VERTEX
  5
156
  8
0
 62
     9
 10
0.0
 20
0.0
 30
0.0
 70
   128
 71
     3
 72
    10
 73
    15
  0
VERTEX
  5
157
  8
0
 62
     9
 10
0.0
 20
0.0
 30
0.0
 70
   128
 71
     9
 72
    10
 73
     3
  0
SEQEND
  5
158
  8
0
 62
     9
  0
ENDBLK
  5
15B
  8
0
  0
BLOCK
  8
0
  2
100719_ESCUTCHEON_ATRIO01
 70
     0
 10
0.0
 20
0.0
 30
0.0
  3
100719_ESCUTCHEON_ATRIO01
  1

  0
POLYLINE
  5
15D
  8
0
 66
     1
 10
0.0
 20
0.0
 30
0.0
 70
    64
 71
   350
 72
   638
  0
VERTEX
  5
15E
  8
0
 10
3.5
 20
-74.37708282470703
 30
-19.92578125
 70
   192
  0
VERTEX
  5
15F
  8
0
 10
3.5
 20
-42.01143646240234
 30
-27.20000076293945
 70
   192
  0
VERTEX
  5
160
  8
0
 10
3.5
 20
-66.68739318847656
 30
-38.49327087402344
 70
   192
  0
VERTEX
  5
161
  8
0
 10
3.5
 20
-38.90000152587891
 30
-36.79999923706055
 70
   192
  0
VERTEX
  5
162
  8
0
 10
3.5
 20
-54.44716644287109
 30
-54.44716644287109
 70
   192
  0
VERTEX
  5
163
  8
0
 10
3.5
 20
-42.01143646240234
 30
-36.79999923706055
 70
   192
  0
VERTEX
  5
164
  8
0
 10
3.5
 20
54.44716644287109
 30
-54.44716644287109
 70
   192
  0
VERTEX
  5
165
  8
0
 10
3.5
 20
38.49327087402344
 30
-66.68739318847656
 70
   192
  0
VERTEX
  5
166
  8
0
 10
3.5
 20
42.01143646240234
 30
-36.79999923706055
 70
   192
  0
VERTEX
  5
167
  8
0
 10
3.5
 20
19.92578125
 30
-74.37708282470703
 70
   192
  0
VERTEX
  5
168
  8
0
 10
3.5
 20
38.90000152587891
 30
-36.79999923706055
 70
   192
  0
VERTEX
  5
169
  8
0
 10
3.5
 20
74.3755111694336
 30
-19.93165588378906
 70
   192
  0
VERTEX
  5
16A
  8
0
 10
3.5
 20
42.01143646240234
 30
-27.20000076293945
 70
   192
  0
VERTEX
  5
16B
  8
0
 10
3.5
 20
77.0
 30
0.0000000000001705
 70
   192
  0
VERTEX
  5
16C
  8
0
 10
3.5
 20
-38.90000152587891
 30
36.79999923706055
 70
   192
  0
VERTEX
  5
16D
  8
0
 10
3.5
 20
-38.49327087402344
 30
66.68739318847656
 70
   192
  0
VERTEX
  5
16E
  8
0
 10
3.5
 20
-19.92578125
 30
74.37708282470703
 70
   192
  0
VERTEX
  5
16F
  8
0
 10
3.5
 20
42.01143646240234
 30
36.79999923706055
 70
   192
  0
VERTEX
  5
170
  8
0
 10
3.5
 20
66.68739318847656
 30
38.49327087402344
 70
   192
  0
VERTEX
  5
171
  8
0
 10
3.5
 20
42.01143646240234
 30
27.20000076293945
 70
   192
  0
VERTEX
  5
172
  8
0
 10
3.5
 20
38.90000152587891
 30
27.20000076293945
 70
   192
  0
VERTEX
  5
173
  8
0
 10
3.5
 20
38.90000152587891
 30
-27.20000076293945
 70
   192
  0
VERTEX
  5
174
  8
0
 10
3.5
 20
-8.0
 30
-39.43890762329102
 70
   192
  0
VERTEX
  5
175
  8
0
 10
3.5
 20
-38.90000152587891
 30
27.20000076293945
 70
   192
  0
VERTEX
  5
176
  8
0
 10
3.5
 20
-38.90000152587891
 30
32.5
 70
   192
  0
VERTEX
  5
177
  8
0
 10
3.5
 20
-0.0000000000003251
 30
77.0
 70
   192
  0
VERTEX
  5
178
  8
0
 10
3.5
 20
38.90000152587891
 30
36.79999923706055
 70
   192
  0
VERTEX
  5
179
  8
0
 10
3.5
 20
38.90000152587891
 30
32.5
 70
   192
  0
VERTEX
  5
17A
  8
0
 10
3.5
 20
54.44716644287109
 30
54.44716644287109
 70
   192
  0
VERTEX
  5
17B
  8
0
 10
3.5
 20
38.50510787963867
 30
66.68010711669922
 70
   192
  0
VERTEX
  5
17C
  8
0
 10
3.5
 20
-38.90000152587891
 30
-32.5
 70
   192
  0
VERTEX
  5
17D
  8
0
 10
3.5
 20
-38.90000152587891
 30
-27.20000076293945
 70
   192
  0
VERTEX
  5
17E
  8
0
 10
3.5
 20
-11.06109237670898
 30
-42.5
 70
   192
  0
VERTEX
  5
17F
  8
0
 10
3.5
 20
-42.01143646240234
 30
36.79999923706055
 70
   192
  0
VERTEX
  5
180
  8
0
 10
3.5
 20
-54.44716644287109
 30
54.44716644287109
 70
   192
  0
VERTEX
  5
181
  8
0
 10
3.5
 20
74.37708282470703
 30
19.92578125
 70
   192
  0
VERTEX
  5
182
  8
0
 10
3.5
 20
-42.01143646240234
 30
27.20000076293945
 70
   192
  0
VERTEX
  5
183
  8
0
 10
3.5
 20
-77.0
 30
0.0
 70
   192
  0
VERTEX
  5
184
  8
0
 10
3.5
 20
38.90000152587891
 30
-32.5
 70
   192
  0
VERTEX
  5
185
  8
0
 10
3.5
 20
-4.938907146453857
 30
-42.5
 70
   192
  0
VERTEX
  5
186
  8
0
 10
3.5
 20
-66.68010711669922
 30
38.50510787963867
 70
   192
  0
VERTEX
  5
187
  8
0
 10
3.5
 20
-74.3755111694336
 30
19.93165588378906
 70
   192
  0
VERTEX
  5
188
  8
0
 10
3.5
 20
0.0000000000000151
 30
-77.0
 70
   192
  0
VERTEX
  5
189
  8
0
 10
3.5
 20
-19.93165588378906
 30
-74.3755111694336
 70
   192
  0
VERTEX
  5
18A
  8
0
 10
3.5
 20
-8.0
 30
-45.56109237670898
 70
   192
  0
VERTEX
  5
18B
  8
0
 10
3.5
 20
-38.50510787963867
 30
-66.68010711669922
 70
   192
  0
VERTEX
  5
18C
  8
0
 10
3.5
 20
66.68010711669922
 30
-38.50510787963867
 70
   192
  0
VERTEX
  5
18D
  8
0
 10
3.5
 20
19.93165588378906
 30
74.3755111694336
 70
   192
  0
VERTEX
  5
18E
  8
0
 10
6.0
 20
47.24067687988281
 30
70.66342163085938
 70
   192
  0
VERTEX
  5
18F
  8
0
 10
0.5
 20
51.52176284790039
 30
67.61351776123047
 70
   192
  0
VERTEX
  5
190
  8
0
 10
6.0
 20
60.10401153564453
 30
60.10401153564453
 70
   192
  0
VERTEX
  5
191
  8
0
 10
0.5
 20
40.59195709228516
 30
74.68495178222656
 70
   192
  0
VERTEX
  5
192
  8
0
 10
0.5
 20
46.18799209594727
 30
71.36164093017578
 70
   192
  0
VERTEX
  5
193
  8
0
 10
6.0
 20
32.50637817382812
 30
78.53872680664062
 70
   192
  0
VERTEX
  5
194
  8
0
 10
0.5
 20
34.75920486450195
 30
77.5708999633789
 70
   192
  0
VERTEX
  5
195
  8
0
 10
0.5
 20
28.7151050567627
 30
80.00389862060547
 70
   192
  0
VERTEX
  5
196
  8
0
 10
0.5
 20
22.51806831359863
 30
81.964111328125
 70
   192
  0
VERTEX
  5
197
  8
0
 10
6.0
 20
16.59700965881348
 30
83.36383056640625
 70
   192
  0
VERTEX
  5
198
  8
0
 10
0.5
 20
16.16899490356445
 30
83.44798278808594
 70
   192
  0
VERTEX
  5
199
  8
0
 10
6.0
 20
0.0000000000000284
 30
85.0
 70
   192
  0
VERTEX
  5
19A
  8
0
 10
0.5
 20
9.740026473999023
 30
84.43982696533203
 70
   192
  0
VERTEX
  5
19B
  8
0
 10
0.5
 20
-3.266568183898926
 30
84.93617248535156
 70
   192
  0
VERTEX
  5
19C
  8
0
 10
0.5
 20
3.246730327606201
 30
84.93789672851562
 70
   192
  0
VERTEX
  5
19D
  8
0
 10
0.5
 20
-9.750752449035645
 30
84.43789672851562
 70
   192
  0
VERTEX
  5
19E
  8
0
 10
6.0
 20
-16.59700965881348
 30
83.36383056640625
 70
   192
  0
VERTEX
  5
19F
  8
0
 10
0.5
 20
-16.1928825378418
 30
83.44078826904297
 70
   192
  0
VERTEX
  5
1A0
  8
0
 10
0.5
 20
-22.52270889282227
 30
81.9583740234375
 70
   192
  0
VERTEX
  5
1A1
  8
0
 10
6.0
 20
-32.50637817382812
 30
78.53872680664062
 70
   192
  0
VERTEX
  5
1A2
  8
0
 10
0.5
 20
-28.73580551147461
 30
79.99037170410156
 70
   192
  0
VERTEX
  5
1A3
  8
0
 10
0.5
 20
-40.60260772705078
 30
74.66741943359375
 70
   192
  0
VERTEX
  5
1A4
  8
0
 10
0.5
 20
-34.77253723144531
 30
77.55498504638672
 70
   192
  0
VERTEX
  5
1A5
  8
0
 10
0.5
 20
-46.20223999023438
 30
71.33626556396484
 70
   192
  0
VERTEX
  5
1A6
  8
0
 10
6.0
 20
-47.24067687988281
 30
70.66342163085938
 70
   192
  0
VERTEX
  5
1A7
  8
0
 10
0.5
 20
-51.51736068725586
 30
67.59830474853516
 70
   192
  0
VERTEX
  5
1A8
  8
0
 10
6.0
 20
-60.10401153564453
 30
60.10401153564453
 70
   192
  0
VERTEX
  5
1A9
  8
0
 10
0.5
 20
-56.5511474609375
 30
63.45357131958008
 70
   192
  0
VERTEX
  5
1AA
  8
0
 10
0.5
 20
-61.2287483215332
 30
58.93706893920898
 70
   192
  0
VERTEX
  5
1AB
  8
0
 10
6.0
 20
-70.66342163085938
 30
47.24067687988281
 70
   192
  0
VERTEX
  5
1AC
  8
0
 10
0.5
 20
-65.5420913696289
 30
54.06526947021484
 70
   192
  0
VERTEX
  5
1AD
  8
0
 10
0.5
 20
-73.01939392089844
 30
43.40971755981445
 70
   192
  0
VERTEX
  5
1AE
  8
0
 10
0.5
 20
-69.48519134521484
 30
48.87329864501953
 70
   192
  0
VERTEX
  5
1AF
  8
0
 10
6.0
 20
-78.53872680664062
 30
32.50637817382812
 70
   192
  0
VERTEX
  5
1B0
  8
0
 10
0.5
 20
-76.1280746459961
 30
37.68468856811523
 70
   192
  0
VERTEX
  5
1B1
  8
0
 10
0.5
 20
-81.00776672363281
 30
25.6313419342041
 70
   192
  0
VERTEX
  5
1B2
  8
0
 10
0.5
 20
-78.79153442382812
 30
31.75640487670898
 70
   192
  0
VERTEX
  5
1B3
  8
0
 10
6.0
 20
-83.36383056640625
 30
16.59700965881348
 70
   192
  0
VERTEX
  5
1B4
  8
0
 10
0.5
 20
-82.74983978271484
 30
19.35566711425781
 70
   192
  0
VERTEX
  5
1B5
  8
0
 10
0.5
 20
-84.00370788574219
 30
12.96954441070557
 70
   192
  0
VERTEX
  5
1B6
  8
0
 10
0.5
 20
-84.75376892089844
 30
6.517654895782471
 70
   192
  0
VERTEX
  5
1B7
  8
0
 10
6.0
 20
-85.0
 30
-0.0000000000000021
 70
   192
  0
VERTEX
  5
1B8
  8
0
 10
0.5
 20
-85.0
 30
0.0000000000000141
 70
   192
  0
VERTEX
  5
1B9
  8
0
 10
0.5
 20
56.53713226318359
 30
63.47967529296875
 70
   192
  0
VERTEX
  5
1BA
  8
0
 10
0.5
 20
65.56172180175781
 30
54.1056022644043
 70
   192
  0
VERTEX
  5
1BB
  8
0
 10
0.5
 20
61.23507308959961
 30
58.96176910400391
 70
   192
  0
VERTEX
  5
1BC
  8
0
 10
6.0
 20
70.66342163085938
 30
47.24067687988281
 70
   192
  0
VERTEX
  5
1BD
  8
0
 10
0.5
 20
69.44664764404297
 30
48.88655471801758
 70
   192
  0
VERTEX
  5
1BE
  8
0
 10
0.5
 20
75.94505310058594
 30
37.60301208496094
 70
   192
  0
VERTEX
  5
1BF
  8
0
 10
0.5
 20
72.79161834716797
 30
43.29413223266602
 70
   192
  0
VERTEX
  5
1C0
  8
0
 10
6.0
 20
78.53872680664062
 30
32.50637817382812
 70
   192
  0
VERTEX
  5
1C1
  8
0
 10
0.5
 20
78.88375854492188
 30
31.81331634521484
 70
   192
  0
VERTEX
  5
1C2
  8
0
 10
0.5
 20
81.09801483154297
 30
25.70023918151855
 70
   192
  0
VERTEX
  5
1C3
  8
0
 10
6.0
 20
83.36383056640625
 30
16.59700965881348
 70
   192
  0
VERTEX
  5
1C4
  8
0
 10
0.5
 20
82.77336883544922
 30
19.38235855102539
 70
   192
  0
VERTEX
  5
1C5
  8
0
 10
0.5
 20
84.00531005859375
 30
12.98482131958008
 70
   192
  0
VERTEX
  5
1C6
  8
0
 10
0.5
 20
84.74883270263672
 30
6.51648998260498
 70
   192
  0
VERTEX
  5
1C7
  8
0
 10
6.0
 20
85.0
 30
-0.0000000000000229
 70
   192
  0
VERTEX
  5
1C8
  8
0
 10
0.5
 20
85.0
 30
-0.0000000000000067
 70
   192
  0
VERTEX
  5
1C9
  8
0
 10
6.0
 20
-15.42545509338379
 30
77.47932434082031
 70
   192
  0
VERTEX
  5
1CA
  8
0
 10
6.0
 20
0.0000000000000497
 30
79.0
 70
   192
  0
VERTEX
  5
1CB
  8
0
 10
10.27251815795898
 20
-0.0000000000512614
 30
79.0
 70
   192
  0
VERTEX
  5
1CC
  8
0
 10
10.27251815795898
 20
-15.43518447875977
 30
77.47386932373047
 70
   192
  0
VERTEX
  5
1CD
  8
0
 10
6.0
 20
-30.2118091583252
 30
72.99481964111328
 70
   192
  0
VERTEX
  5
1CE
  8
0
 10
10.27251815795898
 20
-30.24947166442871
 30
72.97404479980469
 70
   192
  0
VERTEX
  5
1CF
  8
0
 10
6.0
 20
-43.90604400634766
 30
65.6754150390625
 70
   192
  0
VERTEX
  5
1D0
  8
0
 10
6.0
 20
-55.86137771606445
 30
55.86137771606445
 70
   192
  0
VERTEX
  5
1D1
  8
0
 10
10.27251815795898
 20
-43.90019607543945
 30
65.6761703491211
 70
   192
  0
VERTEX
  5
1D2
  8
0
 10
10.27251815795898
 20
-55.88214874267578
 30
55.83151626586914
 70
   192
  0
VERTEX
  5
1D3
  8
0
 10
6.0
 20
-65.6754150390625
 30
43.90604400634766
 70
   192
  0
VERTEX
  5
1D4
  8
0
 10
10.27251815795898
 20
-65.73686218261719
 30
43.71787261962891
 70
   192
  0
VERTEX
  5
1D5
  8
0
 10
6.0
 20
-72.99481964111328
 30
30.2118091583252
 70
   192
  0
VERTEX
  5
1D6
  8
0
 10
6.0
 20
-77.47932434082031
 30
15.42545509338379
 70
   192
  0
VERTEX
  5
1D7
  8
0
 10
10.27251815795898
 20
-73.01360321044922
 30
30.04052543640137
 70
   192
  0
VERTEX
  5
1D8
  8
0
 10
10.27251815795898
 20
-77.48284912109375
 30
15.22830677032471
 70
   192
  0
VERTEX
  5
1D9
  8
0
 10
6.0
 20
-79.0
 30
-0.0000000000000032
 70
   192
  0
VERTEX
  5
1DA
  8
0
 10
10.27251815795898
 20
-79.0
 30
-0.0000000000000209
 70
   192
  0
VERTEX
  5
1DB
  8
0
 10
10.27251815795898
 20
13.71667766571045
 30
77.80070495605469
 70
   192
  0
VERTEX
  5
1DC
  8
0
 10
6.0
 20
15.42545509338379
 30
77.47932434082031
 70
   192
  0
VERTEX
  5
1DD
  8
0
 10
10.27251815795898
 20
27.02285957336426
 30
74.23728942871094
 70
   192
  0
VERTEX
  5
1DE
  8
0
 10
10.27251815795898
 20
39.49235916137695
 30
68.42062377929688
 70
   192
  0
VERTEX
  5
1DF
  8
0
 10
6.0
 20
30.2118091583252
 30
72.99481964111328
 70
   192
  0
VERTEX
  5
1E0
  8
0
 10
6.0
 20
43.90604400634766
 30
65.6754150390625
 70
   192
  0
VERTEX
  5
1E1
  8
0
 10
10.27251815795898
 20
50.79450225830078
 30
60.5133056640625
 70
   192
  0
VERTEX
  5
1E2
  8
0
 10
6.0
 20
55.86137771606445
 30
55.86137771606445
 70
   192
  0
VERTEX
  5
1E3
  8
0
 10
10.27251815795898
 20
60.53727722167969
 30
50.76789474487305
 70
   192
  0
VERTEX
  5
1E4
  8
0
 10
10.27251815795898
 20
68.16008758544922
 30
39.36699295043945
 70
   192
  0
VERTEX
  5
1E5
  8
0
 10
6.0
 20
65.6754150390625
 30
43.90604400634766
 70
   192
  0
VERTEX
  5
1E6
  8
0
 10
6.0
 20
72.99481964111328
 30
30.2118091583252
 70
   192
  0
VERTEX
  5
1E7
  8
0
 10
10.27251815795898
 20
74.34485626220703
 30
26.92716598510742
 70
   192
  0
VERTEX
  5
1E8
  8
0
 10
6.0
 20
77.47932434082031
 30
15.42545509338379
 70
   192
  0
VERTEX
  5
1E9
  8
0
 10
10.27251815795898
 20
77.87295532226562
 30
13.5646800994873
 70
   192
  0
VERTEX
  5
1EA
  8
0
 10
6.0
 20
79.0
 30
-0.0000000000000225
 70
   192
  0
VERTEX
  5
1EB
  8
0
 10
10.27251815795898
 20
79.0
 30
-0.0000000000000351
 70
   192
  0
VERTEX
  5
1EC
  8
0
 10
10.27251815795898
 20
-43.89455032348633
 30
-65.68704223632812
 70
   192
  0
VERTEX
  5
1ED
  8
0
 10
10.27251815795898
 20
-55.88149642944336
 30
-55.85123825073242
 70
   192
  0
VERTEX
  5
1EE
  8
0
 10
11.7166748046875
 20
-18.81718826293945
 30
-25.86701774597168
 70
   192
  0
VERTEX
  5
1EF
  8
0
 10
11.7166748046875
 20
-25.90538597106934
 30
-18.78946876525879
 70
   192
  0
VERTEX
  5
1F0
  8
0
 10
10.27251815795898
 20
-30.23920631408691
 30
-72.98590850830078
 70
   192
  0
VERTEX
  5
1F1
  8
0
 10
11.7166748046875
 20
-9.913546562194824
 30
-30.41704940795898
 70
   192
  0
VERTEX
  5
1F2
  8
0
 10
10.27251815795898
 20
-15.40957355499268
 30
-77.4838638305664
 70
   192
  0
VERTEX
  5
1F3
  8
0
 10
10.27251815795898
 20
-65.4324722290039
 30
-43.74686050415039
 70
   192
  0
VERTEX
  5
1F4
  8
0
 10
11.7166748046875
 20
-0.000000000051291
 30
-32.0
 70
   192
  0
VERTEX
  5
1F5
  8
0
 10
10.27251815795898
 20
-0.0000000000512947
 30
-79.0
 70
   192
  0
VERTEX
  5
1F6
  8
0
 10
11.7166748046875
 20
-30.25785446166992
 30
-9.845160484313965
 70
   192
  0
VERTEX
  5
1F7
  8
0
 10
10.27251815795898
 20
-73.08425903320312
 30
-30.10727882385254
 70
   192
  0
VERTEX
  5
1F8
  8
0
 10
10.27251815795898
 20
-77.55665588378906
 30
-15.26262664794922
 70
   192
  0
VERTEX
  5
1F9
  8
0
 10
9.21628189086914
 20
-32.0
 30
-0.0000000000000213
 70
   192
  0
VERTEX
  5
1FA
  8
0
 10
11.7166748046875
 20
-25.88849639892578
 30
18.82730293273926
 70
   192
  0
VERTEX
  5
1FB
  8
0
 10
11.7166748046875
 20
-18.79817962646484
 30
25.90607070922852
 70
   192
  0
VERTEX
  5
1FC
  8
0
 10
11.7166748046875
 20
-30.32177734375
 30
9.898327827453613
 70
   192
  0
VERTEX
  5
1FD
  8
0
 10
11.7166748046875
 20
-9.868289947509766
 30
30.43763160705566
 70
   192
  0
VERTEX
  5
1FE
  8
0
 10
11.7166748046875
 20
-0.000000000051265
 30
32.0
 70
   192
  0
VERTEX
  5
1FF
  8
0
 10
11.7166748046875
 20
25.90538597106934
 30
18.78946876525879
 70
   192
  0
VERTEX
  5
200
  8
0
 10
11.7166748046875
 20
18.81718826293945
 30
25.86701774597168
 70
   192
  0
VERTEX
  5
201
  8
0
 10
11.7166748046875
 20
9.913546562194824
 30
30.41704940795898
 70
   192
  0
VERTEX
  5
202
  8
0
 10
11.7166748046875
 20
30.25785446166992
 30
9.845160484313965
 70
   192
  0
VERTEX
  5
203
  8
0
 10
9.21628189086914
 20
32.0
 30
-0.0000000000000291
 70
   192
  0
VERTEX
  5
204
  8
0
 10
9.21628189086914
 20
-0.0000000000000052
 30
-32.0
 70
   192
  0
VERTEX
  5
205
  8
0
 10
9.21628189086914
 20
9.913546562194824
 30
-30.41704940795898
 70
   192
  0
VERTEX
  5
206
  8
0
 10
9.21628189086914
 20
-9.868026733398438
 30
-30.4383373260498
 70
   192
  0
VERTEX
  5
207
  8
0
 10
9.21628189086914
 20
-18.79820442199707
 30
-25.90600395202637
 70
   192
  0
VERTEX
  5
208
  8
0
 10
9.21628189086914
 20
-25.88849639892578
 30
-18.82730293273926
 70
   192
  0
VERTEX
  5
209
  8
0
 10
9.21628189086914
 20
-30.32177734375
 30
-9.898327827453613
 70
   192
  0
VERTEX
  5
20A
  8
0
 10
11.7166748046875
 20
9.423489570617676
 30
-30.58906364440918
 70
   192
  0
VERTEX
  5
20B
  8
0
 10
9.21628189086914
 20
18.81718826293945
 30
-25.86701774597168
 70
   192
  0
VERTEX
  5
20C
  8
0
 10
11.7166748046875
 20
18.61087417602539
 30
-26.02939033508301
 70
   192
  0
VERTEX
  5
20D
  8
0
 10
9.21628189086914
 20
25.90538597106934
 30
-18.78946876525879
 70
   192
  0
VERTEX
  5
20E
  8
0
 10
11.7166748046875
 20
26.04753494262695
 30
-18.583251953125
 70
   192
  0
VERTEX
  5
20F
  8
0
 10
9.21628189086914
 20
30.25785446166992
 30
-9.845160484313965
 70
   192
  0
VERTEX
  5
210
  8
0
 10
11.7166748046875
 20
30.57964134216309
 30
-9.380537986755371
 70
   192
  0
VERTEX
  5
211
  8
0
 10
0.0000000000002469
 20
3.219391107559204
 30
84.43807220458984
 70
   192
  0
VERTEX
  5
212
  8
0
 10
0.0000000000002409
 20
9.658173561096191
 30
83.94265747070312
 70
   192
  0
VERTEX
  5
213
  8
0
 10
0.0000000000002514
 20
-3.273070335388184
 30
84.43156433105469
 70
   192
  0
VERTEX
  5
214
  8
0
 10
0.0000000000002335
 20
16.09695625305176
 30
82.95182800292969
 70
   192
  0
VERTEX
  5
215
  8
0
 10
0.0000000000002248
 20
22.36494064331055
 30
81.4863052368164
 70
   192
  0
VERTEX
  5
216
  8
0
 10
0.0000000000002147
 20
28.52068710327148
 30
79.53897857666016
 70
   192
  0
VERTEX
  5
217
  8
0
 10
0.0000000000002034
 20
34.53168487548828
 30
77.12043762207031
 70
   192
  0
VERTEX
  5
218
  8
0
 10
0.0000000000001909
 20
40.32010269165039
 30
74.25282287597656
 70
   192
  0
VERTEX
  5
219
  8
0
 10
0.0000000000001772
 20
45.93062591552734
 30
70.92342376708984
 70
   192
  0
VERTEX
  5
21A
  8
0
 10
0.0000000000001625
 20
51.21879577636719
 30
67.20823669433594
 70
   192
  0
VERTEX
  5
21B
  8
0
 10
0.0000000000001469
 20
56.20025253295898
 30
63.09903717041016
 70
   192
  0
VERTEX
  5
21C
  8
0
 10
0.0000000000001304
 20
60.87541198730469
 30
58.60370635986328
 70
   192
  0
VERTEX
  5
21D
  8
0
 10
0.0000000000000384
 20
78.38107299804688
 30
31.57076263427734
 70
   192
  0
VERTEX
  5
21E
  8
0
 10
0.0000000000001132
 20
65.15721893310547
 30
53.79869842529297
 70
   192
  0
VERTEX
  5
21F
  8
0
 10
0.0000000000000953
 20
69.09022521972656
 30
48.64488983154297
 70
   192
  0
VERTEX
  5
220
  8
0
 10
0.0000000000000768
 20
72.61012268066406
 30
43.21550750732422
 70
   192
  0
VERTEX
  5
221
  8
0
 10
0.0000000000000578
 20
75.70343017578125
 30
37.52591323852539
 70
   192
  0
VERTEX
  5
222
  8
0
 10
0.000000000000019
 20
80.5560073852539
 30
25.51549530029297
 70
   192
  0
VERTEX
  5
223
  8
0
 10
-0.0000000000000006
 20
82.26915740966797
 30
19.28232955932617
 70
   192
  0
VERTEX
  5
224
  8
0
 10
-0.0000000000000202
 20
83.50206756591797
 30
12.93612384796143
 70
   192
  0
VERTEX
  5
225
  8
0
 10
-0.0000000000000396
 20
84.24242401123047
 30
6.520114421844482
 70
   192
  0
VERTEX
  5
226
  8
0
 10
-0.0000000000000613
 20
84.5
 30
-0.0000000000000014
 70
   192
  0
VERTEX
  5
227
  8
0
 10
0.0000000000002544
 20
-9.741131782531738
 30
83.9325942993164
 70
   192
  0
VERTEX
  5
228
  8
0
 10
0.000000000000256
 20
-16.10508918762207
 30
82.95084381103516
 70
   192
  0
VERTEX
  5
229
  8
0
 10
0.000000000000256
 20
-22.42115020751953
 30
81.47030639648438
 70
   192
  0
VERTEX
  5
22A
  8
0
 10
0.0000000000002546
 20
-28.56536674499512
 30
79.5262680053711
 70
   192
  0
VERTEX
  5
22B
  8
0
 10
0.0000000000002516
 20
-34.57489776611328
 30
77.09770202636719
 70
   192
  0
VERTEX
  5
22C
  8
0
 10
0.0000000000002471
 20
-40.4061164855957
 30
74.20757293701172
 70
   192
  0
VERTEX
  5
22D
  8
0
 10
0.0000000000002413
 20
-45.95408248901367
 30
70.91108703613281
 70
   192
  0
VERTEX
  5
22E
  8
0
 10
0.000000000000234
 20
-51.26539611816406
 30
67.16732025146484
 70
   192
  0
VERTEX
  5
22F
  8
0
 10
0.0000000000002253
 20
-56.24480438232422
 30
63.05991363525391
 70
   192
  0
VERTEX
  5
230
  8
0
 10
0.0000000000002154
 20
-60.89204788208008
 30
58.58476257324219
 70
   192
  0
VERTEX
  5
231
  8
0
 10
0.0000000000002041
 20
-65.20442962646484
 30
53.74493026733398
 70
   192
  0
VERTEX
  5
232
  8
0
 10
0.0000000000001917
 20
-69.11045837402344
 30
48.62184524536133
 70
   192
  0
VERTEX
  5
233
  8
0
 10
0.000000000000178
 20
-72.6458511352539
 30
43.14760208129883
 70
   192
  0
VERTEX
  5
234
  8
0
 10
0.0000000000001634
 20
-75.74435424804688
 30
37.4481315612793
 70
   192
  0
VERTEX
  5
235
  8
0
 10
0.0000000000001479
 20
-78.38426971435547
 30
31.55952072143555
 70
   192
  0
VERTEX
  5
236
  8
0
 10
0.0000000000001314
 20
-80.57299041748047
 30
25.45582580566406
 70
   192
  0
VERTEX
  5
237
  8
0
 10
0.0000000000001143
 20
-82.27892303466797
 30
19.24802780151367
 70
   192
  0
VERTEX
  5
238
  8
0
 10
0.0000000000000965
 20
-83.50206756591797
 30
12.93612384796143
 70
   192
  0
VERTEX
  5
239
  8
0
 10
0.0000000000000781
 20
-84.24242401123047
 30
6.520114421844482
 70
   192
  0
VERTEX
  5
23A
  8
0
 10
0.000000000000059
 20
-84.5
 30
0.0000000000000117
 70
   192
  0
VERTEX
  5
23B
  8
0
 10
0.5
 20
84.09556579589844
 30
-12.38329410552979
 70
   192
  0
VERTEX
  5
23C
  8
0
 10
-0.0000000000000781
 20
84.24242401123047
 30
-6.520114421844482
 70
   192
  0
VERTEX
  5
23D
  8
0
 10
-0.0000000000000965
 20
83.50206756591797
 30
-12.93612384796143
 70
   192
  0
VERTEX
  5
23E
  8
0
 10
-0.0000000000001143
 20
82.27892303466797
 30
-19.24802780151367
 70
   192
  0
VERTEX
  5
23F
  8
0
 10
-0.0000000000001314
 20
80.57299041748047
 30
-25.45582580566406
 70
   192
  0
VERTEX
  5
240
  8
0
 10
0.5
 20
81.44524383544922
 30
-24.53342247009277
 70
   192
  0
VERTEX
  5
241
  8
0
 10
0.5
 20
84.7713851928711
 30
-6.214761257171631
 70
   192
  0
VERTEX
  5
242
  8
0
 10
-0.0000000000001634
 20
75.74435424804688
 30
-37.4481315612793
 70
   192
  0
VERTEX
  5
243
  8
0
 10
-0.000000000000178
 20
72.6458511352539
 30
-43.14760208129883
 70
   192
  0
VERTEX
  5
244
  8
0
 10
0.5
 20
73.81612396240234
 30
-41.43159103393555
 70
   192
  0
VERTEX
  5
245
  8
0
 10
0.5
 20
79.4510498046875
 30
-30.41552925109863
 70
   192
  0
VERTEX
  5
246
  8
0
 10
-0.0000000000001479
 20
78.38426971435547
 30
-31.55952072143555
 70
   192
  0
VERTEX
  5
247
  8
0
 10
0.5
 20
76.79823303222656
 30
-36.00363922119141
 70
   192
  0
VERTEX
  5
248
  8
0
 10
0.5
 20
58.98488616943359
 30
-61.21232986450195
 70
   192
  0
VERTEX
  5
249
  8
0
 10
0.5
 20
63.29141998291016
 30
-56.74705123901367
 70
   192
  0
VERTEX
  5
24A
  8
0
 10
-0.0000000000002154
 20
60.89204788208008
 30
-58.58476257324219
 70
   192
  0
VERTEX
  5
24B
  8
0
 10
-0.0000000000002041
 20
65.20442962646484
 30
-53.74493026733398
 70
   192
  0
VERTEX
  5
24C
  8
0
 10
0.5
 20
67.26797485351562
 30
-51.96784591674805
 70
   192
  0
VERTEX
  5
24D
  8
0
 10
-0.0000000000001917
 20
69.11045837402344
 30
-48.62184524536133
 70
   192
  0
VERTEX
  5
24E
  8
0
 10
-0.0000000000002413
 20
45.95408248901367
 30
-70.91108703613281
 70
   192
  0
VERTEX
  5
24F
  8
0
 10
-0.0000000000002471
 20
40.4061164855957
 30
-74.20757293701172
 70
   192
  0
VERTEX
  5
250
  8
0
 10
0.5
 20
44.26882171630859
 30
-72.56764221191406
 70
   192
  0
VERTEX
  5
251
  8
0
 10
0.5
 20
54.35927200317383
 30
-65.3544921875
 70
   192
  0
VERTEX
  5
252
  8
0
 10
-0.000000000000234
 20
51.26539611816406
 30
-67.16732025146484
 70
   192
  0
VERTEX
  5
253
  8
0
 10
0.5
 20
49.44281005859375
 30
-69.14689636230469
 70
   192
  0
VERTEX
  5
254
  8
0
 10
0.5
 20
21.492919921875
 30
-82.23851776123047
 70
   192
  0
VERTEX
  5
255
  8
0
 10
0.5
 20
27.42871284484863
 30
-80.4539794921875
 70
   192
  0
VERTEX
  5
256
  8
0
 10
-0.000000000000256
 20
22.42115020751953
 30
-81.47030639648438
 70
   192
  0
VERTEX
  5
257
  8
0
 10
-0.0000000000002546
 20
28.56536674499512
 30
-79.5262680053711
 70
   192
  0
VERTEX
  5
258
  8
0
 10
0.5
 20
33.23650741577148
 30
-78.23526763916016
 70
   192
  0
VERTEX
  5
259
  8
0
 10
-0.0000000000002516
 20
34.57489776611328
 30
-77.09770202636719
 70
   192
  0
VERTEX
  5
25A
  8
0
 10
-0.0000000000002514
 20
3.273070335388184
 30
-84.43156433105469
 70
   192
  0
VERTEX
  5
25B
  8
0
 10
0.5
 20
3.095720767974854
 30
-84.94355010986328
 70
   192
  0
VERTEX
  5
25C
  8
0
 10
0.5
 20
9.287013053894043
 30
-84.4907455444336
 70
   192
  0
VERTEX
  5
25D
  8
0
 10
-0.000000000000256
 20
16.10508918762207
 30
-82.95084381103516
 70
   192
  0
VERTEX
  5
25E
  8
0
 10
-0.0000000000002544
 20
9.741131782531738
 30
-83.9325942993164
 70
   192
  0
VERTEX
  5
25F
  8
0
 10
0.5
 20
15.42595672607422
 30
-83.58859252929688
 70
   192
  0
VERTEX
  5
260
  8
0
 10
0.5
 20
-15.44895362854004
 30
-83.58175659179688
 70
   192
  0
VERTEX
  5
261
  8
0
 10
-0.0000000000002409
 20
-9.658173561096191
 30
-83.94265747070312
 70
   192
  0
VERTEX
  5
262
  8
0
 10
-0.0000000000002335
 20
-16.09695625305176
 30
-82.95182800292969
 70
   192
  0
VERTEX
  5
263
  8
0
 10
0.5
 20
-9.300485610961914
 30
-84.48869323730469
 70
   192
  0
VERTEX
  5
264
  8
0
 10
0.5
 20
-3.114996671676636
 30
-84.94187927246094
 70
   192
  0
VERTEX
  5
265
  8
0
 10
-0.0000000000002469
 20
-3.219391107559204
 30
-84.43807220458984
 70
   192
  0
VERTEX
  5
266
  8
0
 10
0.5
 20
-33.24111557006836
 30
-78.22444915771484
 70
   192
  0
VERTEX
  5
267
  8
0
 10
0.5
 20
-27.45118713378906
 30
-80.44034576416016
 70
   192
  0
VERTEX
  5
268
  8
0
 10
-0.0000000000002147
 20
-28.52068710327148
 30
-79.53897857666016
 70
   192
  0
VERTEX
  5
269
  8
0
 10
-0.0000000000002248
 20
-22.36494064331055
 30
-81.4863052368164
 70
   192
  0
VERTEX
  5
26A
  8
0
 10
0.5
 20
-21.49758529663086
 30
-82.23369598388672
 70
   192
  0
VERTEX
  5
26B
  8
0
 10
0.5
 20
-44.27689361572266
 30
-72.54742431640625
 70
   192
  0
VERTEX
  5
26C
  8
0
 10
0.5
 20
-38.86629486083984
 30
-75.58584594726562
 70
   192
  0
VERTEX
  5
26D
  8
0
 10
-0.0000000000001909
 20
-40.32010269165039
 30
-74.25282287597656
 70
   192
  0
VERTEX
  5
26E
  8
0
 10
-0.0000000000002034
 20
-34.53168487548828
 30
-77.12043762207031
 70
   192
  0
VERTEX
  5
26F
  8
0
 10
0.5
 20
-54.37065124511719
 30
-65.32989501953125
 70
   192
  0
VERTEX
  5
270
  8
0
 10
0.5
 20
-49.45222473144531
 30
-69.12323760986328
 70
   192
  0
VERTEX
  5
271
  8
0
 10
-0.0000000000001625
 20
-51.21879577636719
 30
-67.20823669433594
 70
   192
  0
VERTEX
  5
272
  8
0
 10
-0.0000000000001772
 20
-45.93062591552734
 30
-70.92342376708984
 70
   192
  0
VERTEX
  5
273
  8
0
 10
0.5
 20
-63.28286361694336
 30
-56.70861434936523
 70
   192
  0
VERTEX
  5
274
  8
0
 10
0.5
 20
-58.98751068115234
 30
-61.19321060180664
 70
   192
  0
VERTEX
  5
275
  8
0
 10
-0.0000000000001304
 20
-60.87541198730469
 30
-58.60370635986328
 70
   192
  0
VERTEX
  5
276
  8
0
 10
-0.0000000000001469
 20
-56.20025253295898
 30
-63.09903717041016
 70
   192
  0
VERTEX
  5
277
  8
0
 10
-0.0000000000001132
 20
-65.15721893310547
 30
-53.79869842529297
 70
   192
  0
VERTEX
  5
278
  8
0
 10
0.5
 20
-67.23331451416016
 30
-51.93640518188477
 70
   192
  0
VERTEX
  5
279
  8
0
 10
-0.0000000000000953
 20
-69.09022521972656
 30
-48.64488983154297
 70
   192
  0
VERTEX
  5
27A
  8
0
 10
0.5
 20
-70.85075378417969
 30
-46.86862945556641
 70
   192
  0
VERTEX
  5
27B
  8
0
 10
0.5
 20
-74.07907104492188
 30
-41.57211303710938
 70
   192
  0
VERTEX
  5
27C
  8
0
 10
-0.0000000000000768
 20
-72.61012268066406
 30
-43.21550750732422
 70
   192
  0
VERTEX
  5
27D
  8
0
 10
-0.0000000000000578
 20
-75.70343017578125
 30
-37.52591323852539
 70
   192
  0
VERTEX
  5
27E
  8
0
 10
0.5
 20
-76.91592407226562
 30
-36.0509033203125
 70
   192
  0
VERTEX
  5
27F
  8
0
 10
-0.0000000000000384
 20
-78.38107299804688
 30
-31.57076263427734
 70
   192
  0
VERTEX
  5
280
  8
0
 10
0.5
 20
-79.34980773925781
 30
-30.34380722045898
 70
   192
  0
VERTEX
  5
281
  8
0
 10
0.5
 20
-81.36708068847656
 30
-24.47716331481934
 70
   192
  0
VERTEX
  5
282
  8
0
 10
-0.000000000000019
 20
-80.5560073852539
 30
-25.51549530029297
 70
   192
  0
VERTEX
  5
283
  8
0
 10
0.0000000000000006
 20
-82.26915740966797
 30
-19.28232955932617
 70
   192
  0
VERTEX
  5
284
  8
0
 10
0.5
 20
-82.95503997802734
 30
-18.46852874755859
 70
   192
  0
VERTEX
  5
285
  8
0
 10
0.0000000000000202
 20
-83.50206756591797
 30
-12.93612384796143
 70
   192
  0
VERTEX
  5
286
  8
0
 10
0.5
 20
-84.09473419189453
 30
-12.37214279174805
 70
   192
  0
VERTEX
  5
287
  8
0
 10
0.5
 20
-84.7763900756836
 30
-6.215966701507568
 70
   192
  0
VERTEX
  5
288
  8
0
 10
0.0000000000000396
 20
-84.24242401123047
 30
-6.520114421844482
 70
   192
  0
VERTEX
  5
289
  8
0
 10
0.5
 20
70.74951171875
 30
-46.84875106811523
 70
   192
  0
VERTEX
  5
28A
  8
0
 10
0.5
 20
38.84865570068359
 30
-75.60596466064453
 70
   192
  0
VERTEX
  5
28B
  8
0
 10
-0.0000000000002253
 20
56.24480438232422
 30
-63.05991363525391
 70
   192
  0
VERTEX
  5
28C
  8
0
 10
0.5
 20
82.97400665283203
 30
-18.49724578857422
 70
   192
  0
VERTEX
  5
28D
  8
0
 10
9.21628189086914
 20
0.0000000000000044
 30
32.0
 70
   192
  0
VERTEX
  5
28E
  8
0
 10
9.21628189086914
 20
-9.913546562194824
 30
30.41704940795898
 70
   192
  0
VERTEX
  5
28F
  8
0
 10
9.21628189086914
 20
9.868026733398438
 30
30.4383373260498
 70
   192
  0
VERTEX
  5
290
  8
0
 10
9.21628189086914
 20
18.79820442199707
 30
25.90600395202637
 70
   192
  0
VERTEX
  5
291
  8
0
 10
9.21628189086914
 20
25.88849639892578
 30
18.82730293273926
 70
   192
  0
VERTEX
  5
292
  8
0
 10
9.21628189086914
 20
30.32177734375
 30
9.898327827453613
 70
   192
  0
VERTEX
  5
293
  8
0
 10
9.21628189086914
 20
-18.81718826293945
 30
25.86701774597168
 70
   192
  0
VERTEX
  5
294
  8
0
 10
9.21628189086914
 20
-25.90538597106934
 30
18.78946876525879
 70
   192
  0
VERTEX
  5
295
  8
0
 10
9.21628189086914
 20
-30.25785446166992
 30
9.845160484313965
 70
   192
  0
VERTEX
  5
296
  8
0
 10
10.27251815795898
 20
15.43518447875977
 30
-77.47386932373047
 70
   192
  0
VERTEX
  5
297
  8
0
 10
10.27251815795898
 20
30.24947166442871
 30
-72.97404479980469
 70
   192
  0
VERTEX
  5
298
  8
0
 10
10.27251815795898
 20
43.90019607543945
 30
-65.6761703491211
 70
   192
  0
VERTEX
  5
299
  8
0
 10
10.27251815795898
 20
73.01360321044922
 30
-30.04052543640137
 70
   192
  0
VERTEX
  5
29A
  8
0
 10
10.27251815795898
 20
65.73686218261719
 30
-43.71787261962891
 70
   192
  0
VERTEX
  5
29B
  8
0
 10
10.27251815795898
 20
55.88214874267578
 30
-55.83151626586914
 70
   192
  0
VERTEX
  5
29C
  8
0
 10
10.27251815795898
 20
77.48284912109375
 30
-15.22830677032471
 70
   192
  0
VERTEX
  5
29D
  8
0
 10
6.0
 20
-77.47932434082031
 30
-15.42545509338379
 70
   192
  0
VERTEX
  5
29E
  8
0
 10
6.0
 20
-55.86137771606445
 30
-55.86137771606445
 70
   192
  0
VERTEX
  5
29F
  8
0
 10
6.0
 20
-65.6754150390625
 30
-43.90604400634766
 70
   192
  0
VERTEX
  5
2A0
  8
0
 10
6.0
 20
-72.99481964111328
 30
-30.2118091583252
 70
   192
  0
VERTEX
  5
2A1
  8
0
 10
6.0
 20
-15.42545509338379
 30
-77.47932434082031
 70
   192
  0
VERTEX
  5
2A2
  8
0
 10
6.0
 20
-0.0000000000000284
 30
-79.0
 70
   192
  0
VERTEX
  5
2A3
  8
0
 10
6.0
 20
-30.2118091583252
 30
-72.99481964111328
 70
   192
  0
VERTEX
  5
2A4
  8
0
 10
6.0
 20
43.90604400634766
 30
-65.6754150390625
 70
   192
  0
VERTEX
  5
2A5
  8
0
 10
6.0
 20
30.2118091583252
 30
-72.99481964111328
 70
   192
  0
VERTEX
  5
2A6
  8
0
 10
6.0
 20
15.42545509338379
 30
-77.47932434082031
 70
   192
  0
VERTEX
  5
2A7
  8
0
 10
6.0
 20
65.6754150390625
 30
-43.90604400634766
 70
   192
  0
VERTEX
  5
2A8
  8
0
 10
6.0
 20
55.86137771606445
 30
-55.86137771606445
 70
   192
  0
VERTEX
  5
2A9
  8
0
 10
6.0
 20
72.99481964111328
 30
-30.2118091583252
 70
   192
  0
VERTEX
  5
2AA
  8
0
 10
6.0
 20
77.47932434082031
 30
-15.42545509338379
 70
   192
  0
VERTEX
  5
2AB
  8
0
 10
6.0
 20
-43.90604400634766
 30
-65.6754150390625
 70
   192
  0
VERTEX
  5
2AC
  8
0
 10
6.0
 20
-51.21490097045898
 30
-67.84593200683594
 70
   192
  0
VERTEX
  5
2AD
  8
0
 10
6.0
 20
-62.80247116088867
 30
-57.28818511962891
 70
   192
  0
VERTEX
  5
2AE
  8
0
 10
6.0
 20
-72.04940795898438
 30
-44.6431884765625
 70
   192
  0
VERTEX
  5
2AF
  8
0
 10
6.0
 20
-83.55602264404297
 30
-15.63436508178711
 70
   192
  0
VERTEX
  5
2B0
  8
0
 10
6.0
 20
-37.8708610534668
 30
-76.10034942626953
 70
   192
  0
VERTEX
  5
2B1
  8
0
 10
6.0
 20
-23.25382041931152
 30
-81.75846099853516
 70
   192
  0
VERTEX
  5
2B2
  8
0
 10
6.0
 20
-7.830256462097168
 30
-84.6380615234375
 70
   192
  0
VERTEX
  5
2B3
  8
0
 10
6.0
 20
7.850414752960205
 30
-84.6357421875
 70
   192
  0
VERTEX
  5
2B4
  8
0
 10
6.0
 20
23.26356887817383
 30
-81.75072479248047
 70
   192
  0
VERTEX
  5
2B5
  8
0
 10
6.0
 20
62.79508209228516
 30
-57.25203323364258
 70
   192
  0
VERTEX
  5
2B6
  8
0
 10
6.0
 20
51.21308898925781
 30
-67.8291015625
 70
   192
  0
VERTEX
  5
2B7
  8
0
 10
6.0
 20
37.89007186889648
 30
-76.07994842529297
 70
   192
  0
VERTEX
  5
2B8
  8
0
 10
6.0
 20
72.2267074584961
 30
-44.7170524597168
 70
   192
  0
VERTEX
  5
2B9
  8
0
 10
6.0
 20
79.21754455566406
 30
-30.68514823913574
 70
   192
  0
VERTEX
  5
2BA
  8
0
 10
6.0
 20
-79.317138671875
 30
-30.75396537780762
 70
   192
  0
VERTEX
  5
2BB
  8
0
 10
6.0
 20
83.54842376708984
 30
-15.60708904266357
 70
   192
  0
VERTEX
  5
2BC
  8
0
 62
     9
 10
0.0
 20
0.0
 30
0.0
 70
   128
 71
     3
 72
     2
 73
     1
  0
VERTEX
  5
2BD
  8
0
 62
     9
 10
0.0
 20
0.0
 30
0.0
 70
   128
 71
     6
 72
     5
 73
     4
  0
VERTEX
  5
2BE
  8
0
 62
     9
 10
0.0
 20
0.0
 30
0.0
 70
   128
 71
     9
 72
     8
 73
     7
  0
VERTEX
  5
2BF
  8
0
 62
     9
 10
0.0
 20
0.0
 30
0.0
 70
   128
 71
    11
 72
    10
 73
     8
  0
VERTEX
  5
2C0
  8
0
 62
     9
 10
0.0
 20
0.0
 30
0.0
 70
   128
 71
    14
 72
    13
 73
    12
  0
VERTEX
  5
2C1
  8
0
 62
     9
 10
0.0
 20
0.0
 30
0.0
 70
   128
 71
     6
 72
     2
 73
     3
  0
VERTEX
  5
2C2
  8
0
 62
     9
 10
0.0
 20
0.0
 30
0.0
 70
   128
 71
    17
 72
    16
 73
    15
  0
VERTEX
  5
2C3
  8
0
 62
     9
 10
0.0
 20
0.0
 30
0.0
 70
   128
 71
    20
 72
    19
 73
    18
  0
VERTEX
  5
2C4
  8
0
 62
     9
 10
0.0
 20
0.0
 30
0.0
 70
   128
 71
    23
 72
    22
 73
    21
  0
VERTEX
  5
2C5
  8
0
 62
     9
 10
0.0
 20
0.0
 30
0.0
 70
   128
 71
    25
 72
    24
 73
    21
  0
VERTEX
  5
2C6
  8
0
 62
     9
 10
0.0
 20
0.0
 30
0.0
 70
   128
 71
    27
 72
    26
 73
    15
  0
VERTEX
  5
2C7
  8
0
 62
     9
 10
0.0
 20
0.0
 30
0.0
 70
   128
 71
    28
 72
    27
 73
    15
  0
VERTEX
  5
2C8
  8
0
 62
     9
 10
0.0
 20
0.0
 30
0.0
 70
   128
 71
    15
 72
    25
 73
    28
  0
VERTEX
  5
2C9
  8
0
 62
     9
 10
0.0
 20
0.0
 30
0.0
 70
   128
 71
    15
 72
    26
 73
    17
  0
VERTEX
  5
2CA
  8
0
 62
     9
 10
0.0
 20
0.0
 30
0.0
 70
   128
 71
    27
 72
    18
 73
    29
  0
VERTEX
  5
2CB
  8
0
 62
     9
 10
0.0
 20
0.0
 30
0.0
 70
   128
 71
    29
 72
    30
 73
    27
  0
VERTEX
  5
2CC
  8
0
 62
     9
 10
0.0
 20
0.0
 30
0.0
 70
   128
 71
    33
 72
    32
 73
    31
  0
VERTEX
  5
2CD
  8
0
 62
     9
 10
0.0
 20
0.0
 30
0.0
 70
   128
 71
    35
 72
    34
 73
    16
  0
VERTEX
  5
2CE
  8
0
 62
     9
 10
0.0
 20
0.0
 30
0.0
 70
   128
 71
    20
 72
    36
 73
    19
  0
VERTEX
  5
2CF
  8
0
 62
     9
 10
0.0
 20
0.0
 30
0.0
 70
   128
 71
    24
 72
     2
 73
    32
  0
VERTEX
  5
2D0
  8
0
 62
     9
 10
0.0
 20
0.0
 30
0.0
 70
   128
 71
    38
 72
     2
 73
    37
  0
VERTEX
  5
2D1
  8
0
 62
     9
 10
0.0
 20
0.0
 30
0.0
 70
   128
 71
    15
 72
    16
 73
    34
  0
VERTEX
  5
2D2
  8
0
 62
     9
 10
0.0
 20
0.0
 30
0.0
 70
   128
 71
    24
 72
    37
 73
     2
  0
VERTEX
  5
2D3
  8
0
 62
     9
 10
0.0
 20
0.0
 30
0.0
 70
   128
 71
    22
 72
    40
 73
    39
  0
VERTEX
  5
2D4
  8
0
 62
     9
 10
0.0
 20
0.0
 30
0.0
 70
   128
 71
    42
 72
    37
 73
    41
  0
VERTEX
  5
2D5
  8
0
 62
     9
 10
0.0
 20
0.0
 30
0.0
 70
   128
 71
    37
 72
    42
 73
    38
  0
VERTEX
  5
2D6
  8
0
 62
     9
 10
0.0
 20
0.0
 30
0.0
 70
   128
 71
    41
 72
    34
 73
    35
  0
VERTEX
  5
2D7
  8
0
 62
     9
 10
0.0
 20
0.0
 30
0.0
 70
   128
 71
    34
 72
    41
 73
    37
  0
VERTEX
  5
2D8
  8
0
 62
     9
 10
0.0
 20
0.0
 30
0.0
 70
   128
 71
    45
 72
    44
 73
    43
  0
VERTEX
  5
2D9
  8
0
 62
     9
 10
0.0
 20
0.0
 30
0.0
 70
   128
 71
    46
 72
     4
 73
     5
  0
VERTEX
  5
2DA
  8
0
 62
     9
 10
0.0
 20
0.0
 30
0.0
 70
   128
 71
    46
 72
    44
 73
    33
  0
VERTEX
  5
2DB
  8
0
 62
     9
 10
0.0
 20
0.0
 30
0.0
 70
   128
 71
     6
 72
     3
 73
     5
  0
VERTEX
  5
2DC
  8
0
 62
     9
 10
0.0
 20
0.0
 30
0.0
 70
   128
 71
     2
 72
    38
 73
     1
  0
VERTEX
  5
2DD
  8
0
 62
     9
 10
0.0
 20
0.0
 30
0.0
 70
   128
 71
    31
 72
     4
 73
    33
  0
VERTEX
  5
2DE
  8
0
 62
     9
 10
0.0
 20
0.0
 30
0.0
 70
   128
 71
    14
 72
    36
 73
    20
  0
VERTEX
  5
2DF
  8
0
 62
     9
 10
0.0
 20
0.0
 30
0.0
 70
   128
 71
    22
 72
    23
 73
    40
  0
VERTEX
  5
2E0
  8
0
 62
     9
 10
0.0
 20
0.0
 30
0.0
 70
   128
 71
    13
 72
     9
 73
    47
  0
VERTEX
  5
2E1
  8
0
 62
     9
 10
0.0
 20
0.0
 30
0.0
 70
   128
 71
    45
 72
    43
 73
    10
  0
VERTEX
  5
2E2
  8
0
 62
     9
 10
0.0
 20
0.0
 30
0.0
 70
   128
 71
    32
 72
    33
 73
    23
  0
VERTEX
  5
2E3
  8
0
 62
     9
 10
0.0
 20
0.0
 30
0.0
 70
   128
 71
    12
 72
    13
 73
    47
  0
VERTEX
  5
2E4
  8
0
 62
     9
 10
0.0
 20
0.0
 30
0.0
 70
   128
 71
     9
 72
    11
 73
     8
  0
VERTEX
  5
2E5
  8
0
 62
     9
 10
0.0
 20
0.0
 30
0.0
 70
   128
 71
    47
 72
     9
 73
     7
  0
VERTEX
  5
2E6
  8
0
 62
     9
 10
0.0
 20
0.0
 30
0.0
 70
   128
 71
     4
 72
    46
 73
    33
  0
VERTEX
  5
2E7
  8
0
 62
     9
 10
0.0
 20
0.0
 30
0.0
 70
   128
 71
    40
 72
    45
 73
    10
  0
VERTEX
  5
2E8
  8
0
 62
     9
 10
0.0
 20
0.0
 30
0.0
 70
   128
 71
    20
 72
    21
 73
    22
  0
VERTEX
  5
2E9
  8
0
 62
     9
 10
0.0
 20
0.0
 30
0.0
 70
   128
 71
    23
 72
    24
 73
    32
  0
VERTEX
  5
2EA
  8
0
 62
     9
 10
0.0
 20
0.0
 30
0.0
 70
   128
 71
    11
 72
    40
 73
    10
  0
VERTEX
  5
2EB
  8
0
 62
     9
 10
0.0
 20
0.0
 30
0.0
 70
   128
 71
    40
 72
    11
 73
    39
  0
VERTEX
  5
2EC
  8
0
 62
     9
 10
0.0
 20
0.0
 30
0.0
 70
   128
 71
    45
 72
    33
 73
    44
  0
VERTEX
  5
2ED
  8
0
 62
     9
 10
0.0
 20
0.0
 30
0.0
 70
   128
 71
    26
 72
    27
 73
    48
  0
VERTEX
  5
2EE
  8
0
 62
     9
 10
0.0
 20
0.0
 30
0.0
 70
   128
 71
    20
 72
    22
 73
    13
  0
VERTEX
  5
2EF
  8
0
 62
     9
 10
0.0
 20
0.0
 30
0.0
 70
   128
 71
    27
 72
    30
 73
    48
  0
VERTEX
  5
2F0
  8
0
 62
     9
 10
0.0
 20
0.0
 30
0.0
 70
   128
 71
    18
 72
    19
 73
    29
  0
VERTEX
  5
2F1
  8
0
 62
     9
 10
0.0
 20
0.0
 30
0.0
 70
   128
 71
    21
 72
    28
 73
    25
  0
VERTEX
  5
2F2
  8
0
 62
     9
 10
0.0
 20
0.0
 30
0.0
 70
   128
 71
    14
 72
    20
 73
    13
  0
VERTEX
  5
2F3
  8
0
 62
     9
 10
0.0
 20
0.0
 30
0.0
 70
   128
 71
    21
 72
    24
 73
    23
  0
VERTEX
  5
2F4
  8
0
 62
   253
 10
0.0
 20
0.0
 30
0.0
 70
   128
 71
    51
 72
    50
 73
    49
  0
VERTEX
  5
2F5
  8
0
 62
   253
 10
0.0
 20
0.0
 30
0.0
 70
   128
 71
    49
 72
    53
 73
    52
  0
VERTEX
  5
2F6
  8
0
 62
   253
 10
0.0
 20
0.0
 30
0.0
 70
   128
 71
    50
 72
    53
 73
    49
  0
VERTEX
  5
2F7
  8
0
 62
   253
 10
0.0
 20
0.0
 30
0.0
 70
   128
 71
    55
 72
    54
 73
    52
  0
VERTEX
  5
2F8
  8
0
 62
   253
 10
0.0
 20
0.0
 30
0.0
 70
   128
 71
    49
 72
    52
 73
    54
  0
VERTEX
  5
2F9
  8
0
 62
   253
 10
0.0
 20
0.0
 30
0.0
 70
   128
 71
    57
 72
    54
 73
    56
  0
VERTEX
  5
2FA
  8
0
 62
   253
 10
0.0
 20
0.0
 30
0.0
 70
   128
 71
    54
 72
    55
 73
    56
  0
VERTEX
  5
2FB
  8
0
 62
   253
 10
0.0
 20
0.0
 30
0.0
 70
   128
 71
    57
 72
    59
 73
    58
  0
VERTEX
  5
2FC
  8
0
 62
   253
 10
0.0
 20
0.0
 30
0.0
 70
   128
 71
    58
 72
    54
 73
    57
  0
VERTEX
  5
2FD
  8
0
 62
   253
 10
0.0
 20
0.0
 30
0.0
 70
   128
 71
    58
 72
    61
 73
    60
  0
VERTEX
  5
2FE
  8
0
 62
   253
 10
0.0
 20
0.0
 30
0.0
 70
   128
 71
    61
 72
    58
 73
    59
  0
VERTEX
  5
2FF
  8
0
 62
   253
 10
0.0
 20
0.0
 30
0.0
 70
   128
 71
    60
 72
    63
 73
    62
  0
VERTEX
  5
300
  8
0
 62
   253
 10
0.0
 20
0.0
 30
0.0
 70
   128
 71
    61
 72
    63
 73
    60
  0
VERTEX
  5
301
  8
0
 62
   253
 10
0.0
 20
0.0
 30
0.0
 70
   128
 71
    65
 72
    60
 73
    64
  0
VERTEX
  5
302
  8
0
 62
   253
 10
0.0
 20
0.0
 30
0.0
 70
   128
 71
    62
 72
    64
 73
    60
  0
VERTEX
  5
303
  8
0
 62
   253
 10
0.0
 20
0.0
 30
0.0
 70
   128
 71
    67
 72
    65
 73
    66
  0
VERTEX
  5
304
  8
0
 62
   253
 10
0.0
 20
0.0
 30
0.0
 70
   128
 71
    65
 72
    64
 73
    66
  0
VERTEX
  5
305
  8
0
 62
   253
 10
0.0
 20
0.0
 30
0.0
 70
   128
 71
    67
 72
    69
 73
    68
  0
VERTEX
  5
306
  8
0
 62
   253
 10
0.0
 20
0.0
 30
0.0
 70
   128
 71
    68
 72
    65
 73
    67
  0
VERTEX
  5
307
  8
0
 62
   253
 10
0.0
 20
0.0
 30
0.0
 70
   128
 71
    71
 72
    70
 73
    68
  0
VERTEX
  5
308
  8
0
 62
   253
 10
0.0
 20
0.0
 30
0.0
 70
   128
 71
    71
 72
    68
 73
    69
  0
VERTEX
  5
309
  8
0
 62
   253
 10
0.0
 20
0.0
 30
0.0
 70
   128
 71
    73
 72
    70
 73
    72
  0
VERTEX
  5
30A
  8
0
 62
   253
 10
0.0
 20
0.0
 30
0.0
 70
   128
 71
    70
 72
    73
 73
    68
  0
VERTEX
  5
30B
  8
0
 62
   253
 10
0.0
 20
0.0
 30
0.0
 70
   128
 71
    75
 72
    73
 73
    74
  0
VERTEX
  5
30C
  8
0
 62
   253
 10
0.0
 20
0.0
 30
0.0
 70
   128
 71
    72
 72
    74
 73
    73
  0
VERTEX
  5
30D
  8
0
 62
   253
 10
0.0
 20
0.0
 30
0.0
 70
   128
 71
    77
 72
    75
 73
    76
  0
VERTEX
  5
30E
  8
0
 62
   253
 10
0.0
 20
0.0
 30
0.0
 70
   128
 71
    75
 72
    74
 73
    76
  0
VERTEX
  5
30F
  8
0
 62
   253
 10
0.0
 20
0.0
 30
0.0
 70
   128
 71
    79
 72
    78
 73
    75
  0
VERTEX
  5
310
  8
0
 62
   253
 10
0.0
 20
0.0
 30
0.0
 70
   128
 71
    75
 72
    77
 73
    79
  0
VERTEX
  5
311
  8
0
 62
   253
 10
0.0
 20
0.0
 30
0.0
 70
   128
 71
    81
 72
    80
 73
    78
  0
VERTEX
  5
312
  8
0
 62
   253
 10
0.0
 20
0.0
 30
0.0
 70
   128
 71
    81
 72
    78
 73
    79
  0
VERTEX
  5
313
  8
0
 62
   253
 10
0.0
 20
0.0
 30
0.0
 70
   128
 71
    78
 72
    83
 73
    82
  0
VERTEX
  5
314
  8
0
 62
   253
 10
0.0
 20
0.0
 30
0.0
 70
   128
 71
    83
 72
    78
 73
    80
  0
VERTEX
  5
315
  8
0
 62
   253
 10
0.0
 20
0.0
 30
0.0
 70
   128
 71
    82
 72
    85
 73
    84
  0
VERTEX
  5
316
  8
0
 62
   253
 10
0.0
 20
0.0
 30
0.0
 70
   128
 71
    83
 72
    85
 73
    82
  0
VERTEX
  5
317
  8
0
 62
   253
 10
0.0
 20
0.0
 30
0.0
 70
   128
 71
    87
 72
    86
 73
    84
  0
VERTEX
  5
318
  8
0
 62
   253
 10
0.0
 20
0.0
 30
0.0
 70
   128
 71
    82
 72
    84
 73
    86
  0
VERTEX
  5
319
  8
0
 62
   253
 10
0.0
 20
0.0
 30
0.0
 70
   128
 71
    89
 72
    86
 73
    88
  0
VERTEX
  5
31A
  8
0
 62
   253
 10
0.0
 20
0.0
 30
0.0
 70
   128
 71
    86
 72
    87
 73
    88
  0
VERTEX
  5
31B
  8
0
 62
   253
 10
0.0
 20
0.0
 30
0.0
 70
   128
 71
    90
 72
    86
 73
    89
  0
VERTEX
  5
31C
  8
0
 62
   253
 10
0.0
 20
0.0
 30
0.0
 70
   128
 71
    91
 72
    90
 73
    89
  0
VERTEX
  5
31D
  8
0
 62
   253
 10
0.0
 20
0.0
 30
0.0
 70
   128
 71
    51
 72
    92
 73
    50
  0
VERTEX
  5
31E
  8
0
 62
   253
 10
0.0
 20
0.0
 30
0.0
 70
   128
 71
    94
 72
    51
 73
    93
  0
VERTEX
  5
31F
  8
0
 62
   253
 10
0.0
 20
0.0
 30
0.0
 70
   128
 71
    94
 72
    92
 73
    51
  0
VERTEX
  5
320
  8
0
 62
   253
 10
0.0
 20
0.0
 30
0.0
 70
   128
 71
    96
 72
    93
 73
    95
  0
VERTEX
  5
321
  8
0
 62
   253
 10
0.0
 20
0.0
 30
0.0
 70
   128
 71
    51
 72
    95
 73
    93
  0
VERTEX
  5
322
  8
0
 62
   253
 10
0.0
 20
0.0
 30
0.0
 70
   128
 71
    98
 72
    95
 73
    97
  0
VERTEX
  5
323
  8
0
 62
   253
 10
0.0
 20
0.0
 30
0.0
 70
   128
 71
    98
 72
    96
 73
    95
  0
VERTEX
  5
324
  8
0
 62
   253
 10
0.0
 20
0.0
 30
0.0
 70
   128
 71
   100
 72
    97
 73
    99
  0
VERTEX
  5
325
  8
0
 62
   253
 10
0.0
 20
0.0
 30
0.0
 70
   128
 71
    95
 72
    99
 73
    97
  0
VERTEX
  5
326
  8
0
 62
   253
 10
0.0
 20
0.0
 30
0.0
 70
   128
 71
    99
 72
   102
 73
   101
  0
VERTEX
  5
327
  8
0
 62
   253
 10
0.0
 20
0.0
 30
0.0
 70
   128
 71
   101
 72
   100
 73
    99
  0
VERTEX
  5
328
  8
0
 62
   253
 10
0.0
 20
0.0
 30
0.0
 70
   128
 71
   104
 72
   103
 73
   102
  0
VERTEX
  5
329
  8
0
 62
   253
 10
0.0
 20
0.0
 30
0.0
 70
   128
 71
   102
 72
   103
 73
   101
  0
VERTEX
  5
32A
  8
0
 62
   253
 10
0.0
 20
0.0
 30
0.0
 70
   128
 71
   102
 72
   106
 73
   105
  0
VERTEX
  5
32B
  8
0
 62
   253
 10
0.0
 20
0.0
 30
0.0
 70
   128
 71
   105
 72
   104
 73
   102
  0
VERTEX
  5
32C
  8
0
 62
   253
 10
0.0
 20
0.0
 30
0.0
 70
   128
 71
   106
 72
   107
 73
   105
  0
VERTEX
  5
32D
  8
0
 62
   253
 10
0.0
 20
0.0
 30
0.0
 70
   128
 71
   110
 72
   109
 73
   108
  0
VERTEX
  5
32E
  8
0
 62
   253
 10
0.0
 20
0.0
 30
0.0
 70
   128
 71
   112
 72
   111
 73
   108
  0
VERTEX
  5
32F
  8
0
 62
   253
 10
0.0
 20
0.0
 30
0.0
 70
   128
 71
   110
 72
   108
 73
   111
  0
VERTEX
  5
330
  8
0
 62
   253
 10
0.0
 20
0.0
 30
0.0
 70
   128
 71
   112
 72
   114
 73
   113
  0
VERTEX
  5
331
  8
0
 62
   253
 10
0.0
 20
0.0
 30
0.0
 70
   128
 71
   113
 72
   111
 73
   112
  0
VERTEX
  5
332
  8
0
 62
   253
 10
0.0
 20
0.0
 30
0.0
 70
   128
 71
   116
 72
   114
 73
   115
  0
VERTEX
  5
333
  8
0
 62
   253
 10
0.0
 20
0.0
 30
0.0
 70
   128
 71
   114
 72
   116
 73
   113
  0
VERTEX
  5
334
  8
0
 62
   253
 10
0.0
 20
0.0
 30
0.0
 70
   128
 71
   118
 72
   117
 73
   115
  0
VERTEX
  5
335
  8
0
 62
   253
 10
0.0
 20
0.0
 30
0.0
 70
   128
 71
   116
 72
   115
 73
   117
  0
VERTEX
  5
336
  8
0
 62
   253
 10
0.0
 20
0.0
 30
0.0
 70
   128
 71
   118
 72
   120
 73
   119
  0
VERTEX
  5
337
  8
0
 62
   253
 10
0.0
 20
0.0
 30
0.0
 70
   128
 71
   119
 72
   117
 73
   118
  0
VERTEX
  5
338
  8
0
 62
   253
 10
0.0
 20
0.0
 30
0.0
 70
   128
 71
   122
 72
   120
 73
   121
  0
VERTEX
  5
339
  8
0
 62
   253
 10
0.0
 20
0.0
 30
0.0
 70
   128
 71
   120
 72
   122
 73
   119
  0
VERTEX
  5
33A
  8
0
 62
   253
 10
0.0
 20
0.0
 30
0.0
 70
   128
 71
   124
 72
   123
 73
   121
  0
VERTEX
  5
33B
  8
0
 62
   253
 10
0.0
 20
0.0
 30
0.0
 70
   128
 71
   122
 72
   121
 73
   123
  0
VERTEX
  5
33C
  8
0
 62
   253
 10
0.0
 20
0.0
 30
0.0
 70
   128
 71
   125
 72
   123
 73
   124
  0
VERTEX
  5
33D
  8
0
 62
   253
 10
0.0
 20
0.0
 30
0.0
 70
   128
 71
   109
 72
   110
 73
   126
  0
VERTEX
  5
33E
  8
0
 62
   253
 10
0.0
 20
0.0
 30
0.0
 70
   128
 71
   126
 72
   128
 73
   127
  0
VERTEX
  5
33F
  8
0
 62
   253
 10
0.0
 20
0.0
 30
0.0
 70
   128
 71
   127
 72
   109
 73
   126
  0
VERTEX
  5
340
  8
0
 62
   253
 10
0.0
 20
0.0
 30
0.0
 70
   128
 71
   130
 72
   128
 73
   129
  0
VERTEX
  5
341
  8
0
 62
   253
 10
0.0
 20
0.0
 30
0.0
 70
   128
 71
   128
 72
   130
 73
   127
  0
VERTEX
  5
342
  8
0
 62
   253
 10
0.0
 20
0.0
 30
0.0
 70
   128
 71
   132
 72
   131
 73
   129
  0
VERTEX
  5
343
  8
0
 62
   253
 10
0.0
 20
0.0
 30
0.0
 70
   128
 71
   130
 72
   129
 73
   131
  0
VERTEX
  5
344
  8
0
 62
   253
 10
0.0
 20
0.0
 30
0.0
 70
   128
 71
   132
 72
   134
 73
   133
  0
VERTEX
  5
345
  8
0
 62
   253
 10
0.0
 20
0.0
 30
0.0
 70
   128
 71
   133
 72
   131
 73
   132
  0
VERTEX
  5
346
  8
0
 62
   253
 10
0.0
 20
0.0
 30
0.0
 70
   128
 71
   136
 72
   134
 73
   135
  0
VERTEX
  5
347
  8
0
 62
   253
 10
0.0
 20
0.0
 30
0.0
 70
   128
 71
   134
 72
   136
 73
   133
  0
VERTEX
  5
348
  8
0
 62
   253
 10
0.0
 20
0.0
 30
0.0
 70
   128
 71
   138
 72
   137
 73
   135
  0
VERTEX
  5
349
  8
0
 62
   253
 10
0.0
 20
0.0
 30
0.0
 70
   128
 71
   136
 72
   135
 73
   137
  0
VERTEX
  5
34A
  8
0
 62
   253
 10
0.0
 20
0.0
 30
0.0
 70
   128
 71
   138
 72
   140
 73
   139
  0
VERTEX
  5
34B
  8
0
 62
   253
 10
0.0
 20
0.0
 30
0.0
 70
   128
 71
   139
 72
   137
 73
   138
  0
VERTEX
  5
34C
  8
0
 62
   253
 10
0.0
 20
0.0
 30
0.0
 70
   128
 71
   140
 72
   141
 73
   139
  0
VERTEX
  5
34D
  8
0
 62
   253
 10
0.0
 20
0.0
 30
0.0
 70
   128
 71
   140
 72
   142
 73
   141
  0
VERTEX
  5
34E
  8
0
 62
   253
 10
0.0
 20
0.0
 30
0.0
 70
   128
 71
   145
 72
   144
 73
   143
  0
VERTEX
  5
34F
  8
0
 62
   253
 10
0.0
 20
0.0
 30
0.0
 70
   128
 71
   145
 72
   146
 73
   144
  0
VERTEX
  5
350
  8
0
 62
   253
 10
0.0
 20
0.0
 30
0.0
 70
   128
 71
   143
 72
   147
 73
   145
  0
VERTEX
  5
351
  8
0
 62
   253
 10
0.0
 20
0.0
 30
0.0
 70
   128
 71
   148
 72
   145
 73
   147
  0
VERTEX
  5
352
  8
0
 62
   253
 10
0.0
 20
0.0
 30
0.0
 70
   128
 71
   148
 72
   147
 73
   149
  0
VERTEX
  5
353
  8
0
 62
   253
 10
0.0
 20
0.0
 30
0.0
 70
   128
 71
   146
 72
   150
 73
   144
  0
VERTEX
  5
354
  8
0
 62
   253
 10
0.0
 20
0.0
 30
0.0
 70
   128
 71
   151
 72
   148
 73
   149
  0
VERTEX
  5
355
  8
0
 62
   253
 10
0.0
 20
0.0
 30
0.0
 70
   128
 71
   152
 72
   151
 73
   149
  0
VERTEX
  5
356
  8
0
 62
   253
 10
0.0
 20
0.0
 30
0.0
 70
   128
 71
   150
 72
   146
 73
   153
  0
VERTEX
  5
357
  8
0
 62
   253
 10
0.0
 20
0.0
 30
0.0
 70
   128
 71
   153
 72
   155
 73
   154
  0
VERTEX
  5
358
  8
0
 62
   253
 10
0.0
 20
0.0
 30
0.0
 70
   128
 71
   150
 72
   153
 73
   154
  0
VERTEX
  5
359
  8
0
 62
   253
 10
0.0
 20
0.0
 30
0.0
 70
   128
 71
   156
 72
   155
 73
   153
  0
VERTEX
  5
35A
  8
0
 62
   253
 10
0.0
 20
0.0
 30
0.0
 70
   128
 71
   156
 72
   125
 73
   155
  0
VERTEX
  5
35B
  8
0
 62
   253
 10
0.0
 20
0.0
 30
0.0
 70
   128
 71
   157
 72
   117
 73
   119
  0
VERTEX
  5
35C
  8
0
 62
   253
 10
0.0
 20
0.0
 30
0.0
 70
   128
 71
   157
 72
   158
 73
   117
  0
VERTEX
  5
35D
  8
0
 62
   253
 10
0.0
 20
0.0
 30
0.0
 70
   128
 71
   119
 72
   122
 73
   157
  0
VERTEX
  5
35E
  8
0
 62
   253
 10
0.0
 20
0.0
 30
0.0
 70
   128
 71
   159
 72
   157
 73
   122
  0
VERTEX
  5
35F
  8
0
 62
   253
 10
0.0
 20
0.0
 30
0.0
 70
   128
 71
   159
 72
   122
 73
   123
  0
VERTEX
  5
360
  8
0
 62
   253
 10
0.0
 20
0.0
 30
0.0
 70
   128
 71
   158
 72
   116
 73
   117
  0
VERTEX
  5
361
  8
0
 62
   253
 10
0.0
 20
0.0
 30
0.0
 70
   128
 71
   156
 72
   159
 73
   123
  0
VERTEX
  5
362
  8
0
 62
   253
 10
0.0
 20
0.0
 30
0.0
 70
   128
 71
   125
 72
   156
 73
   123
  0
VERTEX
  5
363
  8
0
 62
   253
 10
0.0
 20
0.0
 30
0.0
 70
   128
 71
   116
 72
   158
 73
   160
  0
VERTEX
  5
364
  8
0
 62
   253
 10
0.0
 20
0.0
 30
0.0
 70
   128
 71
   160
 72
   111
 73
   113
  0
VERTEX
  5
365
  8
0
 62
   253
 10
0.0
 20
0.0
 30
0.0
 70
   128
 71
   116
 72
   160
 73
   113
  0
VERTEX
  5
366
  8
0
 62
   253
 10
0.0
 20
0.0
 30
0.0
 70
   128
 71
   161
 72
   111
 73
   160
  0
VERTEX
  5
367
  8
0
 62
   253
 10
0.0
 20
0.0
 30
0.0
 70
   128
 71
   161
 72
   110
 73
   111
  0
VERTEX
  5
368
  8
0
 62
   253
 10
0.0
 20
0.0
 30
0.0
 70
   128
 71
   163
 72
   162
 73
   132
  0
VERTEX
  5
369
  8
0
 62
   253
 10
0.0
 20
0.0
 30
0.0
 70
   128
 71
   132
 72
   162
 73
   134
  0
VERTEX
  5
36A
  8
0
 62
   253
 10
0.0
 20
0.0
 30
0.0
 70
   128
 71
   164
 72
   163
 73
   129
  0
VERTEX
  5
36B
  8
0
 62
   253
 10
0.0
 20
0.0
 30
0.0
 70
   128
 71
   129
 72
   163
 73
   132
  0
VERTEX
  5
36C
  8
0
 62
   253
 10
0.0
 20
0.0
 30
0.0
 70
   128
 71
   135
 72
   134
 73
   162
  0
VERTEX
  5
36D
  8
0
 62
   253
 10
0.0
 20
0.0
 30
0.0
 70
   128
 71
   129
 72
   128
 73
   164
  0
VERTEX
  5
36E
  8
0
 62
   253
 10
0.0
 20
0.0
 30
0.0
 70
   128
 71
   164
 72
   128
 73
   126
  0
VERTEX
  5
36F
  8
0
 62
   253
 10
0.0
 20
0.0
 30
0.0
 70
   128
 71
   161
 72
   164
 73
   126
  0
VERTEX
  5
370
  8
0
 62
   253
 10
0.0
 20
0.0
 30
0.0
 70
   128
 71
   110
 72
   161
 73
   126
  0
VERTEX
  5
371
  8
0
 62
   253
 10
0.0
 20
0.0
 30
0.0
 70
   128
 71
   162
 72
   165
 73
   135
  0
VERTEX
  5
372
  8
0
 62
   253
 10
0.0
 20
0.0
 30
0.0
 70
   128
 71
   165
 72
   140
 73
   138
  0
VERTEX
  5
373
  8
0
 62
   253
 10
0.0
 20
0.0
 30
0.0
 70
   128
 71
   135
 72
   165
 73
   138
  0
VERTEX
  5
374
  8
0
 62
   253
 10
0.0
 20
0.0
 30
0.0
 70
   128
 71
   166
 72
   140
 73
   165
  0
VERTEX
  5
375
  8
0
 62
   253
 10
0.0
 20
0.0
 30
0.0
 70
   128
 71
   166
 72
   142
 73
   140
  0
VERTEX
  5
376
  8
0
 62
   253
 10
0.0
 20
0.0
 30
0.0
 70
   128
 71
   168
 72
   167
 73
   151
  0
VERTEX
  5
377
  8
0
 62
   253
 10
0.0
 20
0.0
 30
0.0
 70
   128
 71
   167
 72
   148
 73
   151
  0
VERTEX
  5
378
  8
0
 62
   253
 10
0.0
 20
0.0
 30
0.0
 70
   128
 71
   148
 72
   167
 73
   169
  0
VERTEX
  5
379
  8
0
 62
   253
 10
0.0
 20
0.0
 30
0.0
 70
   128
 71
   145
 72
   170
 73
   146
  0
VERTEX
  5
37A
  8
0
 62
   253
 10
0.0
 20
0.0
 30
0.0
 70
   128
 71
   169
 72
   170
 73
   145
  0
VERTEX
  5
37B
  8
0
 62
   253
 10
0.0
 20
0.0
 30
0.0
 70
   128
 71
   146
 72
   170
 73
   171
  0
VERTEX
  5
37C
  8
0
 62
   253
 10
0.0
 20
0.0
 30
0.0
 70
   128
 71
   145
 72
   148
 73
   169
  0
VERTEX
  5
37D
  8
0
 62
   253
 10
0.0
 20
0.0
 30
0.0
 70
   128
 71
   146
 72
   171
 73
   153
  0
VERTEX
  5
37E
  8
0
 62
   253
 10
0.0
 20
0.0
 30
0.0
 70
   128
 71
   171
 72
   172
 73
   153
  0
VERTEX
  5
37F
  8
0
 62
   253
 10
0.0
 20
0.0
 30
0.0
 70
   128
 71
   156
 72
   153
 73
   172
  0
VERTEX
  5
380
  8
0
 62
   253
 10
0.0
 20
0.0
 30
0.0
 70
   128
 71
   168
 72
   151
 73
   173
  0
VERTEX
  5
381
  8
0
 62
   253
 10
0.0
 20
0.0
 30
0.0
 70
   128
 71
   173
 72
   175
 73
   174
  0
VERTEX
  5
382
  8
0
 62
   253
 10
0.0
 20
0.0
 30
0.0
 70
   128
 71
   174
 72
   168
 73
   173
  0
VERTEX
  5
383
  8
0
 62
   253
 10
0.0
 20
0.0
 30
0.0
 70
   128
 71
   175
 72
   176
 73
   174
  0
VERTEX
  5
384
  8
0
 62
   253
 10
0.0
 20
0.0
 30
0.0
 70
   128
 71
   175
 72
   177
 73
   176
  0
VERTEX
  5
385
  8
0
 62
   253
 10
0.0
 20
0.0
 30
0.0
 70
   128
 71
   179
 72
   178
 73
   177
  0
VERTEX
  5
386
  8
0
 62
   253
 10
0.0
 20
0.0
 30
0.0
 70
   128
 71
   176
 72
   177
 73
   178
  0
VERTEX
  5
387
  8
0
 62
   253
 10
0.0
 20
0.0
 30
0.0
 70
   128
 71
   166
 72
   178
 73
   179
  0
VERTEX
  5
388
  8
0
 62
   253
 10
0.0
 20
0.0
 30
0.0
 70
   128
 71
   181
 72
   180
 73
    61
  0
VERTEX
  5
389
  8
0
 62
   253
 10
0.0
 20
0.0
 30
0.0
 70
   128
 71
    63
 72
   180
 73
   182
  0
VERTEX
  5
38A
  8
0
 62
   253
 10
0.0
 20
0.0
 30
0.0
 70
   128
 71
   181
 72
    61
 73
    59
  0
VERTEX
  5
38B
  8
0
 62
   253
 10
0.0
 20
0.0
 30
0.0
 70
   128
 71
    59
 72
   183
 73
   181
  0
VERTEX
  5
38C
  8
0
 62
   253
 10
0.0
 20
0.0
 30
0.0
 70
   128
 71
    57
 72
   183
 73
    59
  0
VERTEX
  5
38D
  8
0
 62
   253
 10
0.0
 20
0.0
 30
0.0
 70
   128
 71
   185
 72
   184
 73
    56
  0
VERTEX
  5
38E
  8
0
 62
   253
 10
0.0
 20
0.0
 30
0.0
 70
   128
 71
    56
 72
    55
 73
   185
  0
VERTEX
  5
38F
  8
0
 62
   253
 10
0.0
 20
0.0
 30
0.0
 70
   128
 71
    57
 72
    56
 73
   184
  0
VERTEX
  5
390
  8
0
 62
   253
 10
0.0
 20
0.0
 30
0.0
 70
   128
 71
    63
 72
    61
 73
   180
  0
VERTEX
  5
391
  8
0
 62
   253
 10
0.0
 20
0.0
 30
0.0
 70
   128
 71
   183
 72
    57
 73
   184
  0
VERTEX
  5
392
  8
0
 62
   253
 10
0.0
 20
0.0
 30
0.0
 70
   128
 71
   187
 72
   186
 73
    52
  0
VERTEX
  5
393
  8
0
 62
   253
 10
0.0
 20
0.0
 30
0.0
 70
   128
 71
    52
 72
   186
 73
    55
  0
VERTEX
  5
394
  8
0
 62
   253
 10
0.0
 20
0.0
 30
0.0
 70
   128
 71
    53
 72
   188
 73
   187
  0
VERTEX
  5
395
  8
0
 62
   253
 10
0.0
 20
0.0
 30
0.0
 70
   128
 71
    52
 72
    53
 73
   187
  0
VERTEX
  5
396
  8
0
 62
   253
 10
0.0
 20
0.0
 30
0.0
 70
   128
 71
   188
 72
    53
 73
    50
  0
VERTEX
  5
397
  8
0
 62
   253
 10
0.0
 20
0.0
 30
0.0
 70
   128
 71
    92
 72
   190
 73
   189
  0
VERTEX
  5
398
  8
0
 62
   253
 10
0.0
 20
0.0
 30
0.0
 70
   128
 71
   189
 72
   188
 73
    50
  0
VERTEX
  5
399
  8
0
 62
   253
 10
0.0
 20
0.0
 30
0.0
 70
   128
 71
    94
 72
   190
 73
    92
  0
VERTEX
  5
39A
  8
0
 62
   253
 10
0.0
 20
0.0
 30
0.0
 70
   128
 71
    92
 72
   189
 73
    50
  0
VERTEX
  5
39B
  8
0
 62
   253
 10
0.0
 20
0.0
 30
0.0
 70
   128
 71
   191
 72
   190
 73
    94
  0
VERTEX
  5
39C
  8
0
 62
   253
 10
0.0
 20
0.0
 30
0.0
 70
   128
 71
   191
 72
    94
 73
    93
  0
VERTEX
  5
39D
  8
0
 62
   253
 10
0.0
 20
0.0
 30
0.0
 70
   128
 71
   101
 72
   192
 73
   100
  0
VERTEX
  5
39E
  8
0
 62
   253
 10
0.0
 20
0.0
 30
0.0
 70
   128
 71
   191
 72
    93
 73
   193
  0
VERTEX
  5
39F
  8
0
 62
   253
 10
0.0
 20
0.0
 30
0.0
 70
   128
 71
   193
 72
    96
 73
   194
  0
VERTEX
  5
3A0
  8
0
 62
   253
 10
0.0
 20
0.0
 30
0.0
 70
   128
 71
   194
 72
    96
 73
   195
  0
VERTEX
  5
3A1
  8
0
 62
   253
 10
0.0
 20
0.0
 30
0.0
 70
   128
 71
    98
 72
   195
 73
    96
  0
VERTEX
  5
3A2
  8
0
 62
   253
 10
0.0
 20
0.0
 30
0.0
 70
   128
 71
    97
 72
   100
 73
   196
  0
VERTEX
  5
3A3
  8
0
 62
   253
 10
0.0
 20
0.0
 30
0.0
 70
   128
 71
   196
 72
   195
 73
    98
  0
VERTEX
  5
3A4
  8
0
 62
   253
 10
0.0
 20
0.0
 30
0.0
 70
   128
 71
    97
 72
   196
 73
    98
  0
VERTEX
  5
3A5
  8
0
 62
   253
 10
0.0
 20
0.0
 30
0.0
 70
   128
 71
   193
 72
    93
 73
    96
  0
VERTEX
  5
3A6
  8
0
 62
   253
 10
0.0
 20
0.0
 30
0.0
 70
   128
 71
   100
 72
   192
 73
   196
  0
VERTEX
  5
3A7
  8
0
 62
   253
 10
0.0
 20
0.0
 30
0.0
 70
   128
 71
   185
 72
    55
 73
   186
  0
VERTEX
  5
3A8
  8
0
 62
   253
 10
0.0
 20
0.0
 30
0.0
 70
   128
 71
   192
 72
   101
 73
   197
  0
VERTEX
  5
3A9
  8
0
 62
   253
 10
0.0
 20
0.0
 30
0.0
 70
   128
 71
   104
 72
   198
 73
   103
  0
VERTEX
  5
3AA
  8
0
 62
   253
 10
0.0
 20
0.0
 30
0.0
 70
   128
 71
   198
 72
   197
 73
   103
  0
VERTEX
  5
3AB
  8
0
 62
   253
 10
0.0
 20
0.0
 30
0.0
 70
   128
 71
   105
 72
   200
 73
   199
  0
VERTEX
  5
3AC
  8
0
 62
   253
 10
0.0
 20
0.0
 30
0.0
 70
   128
 71
   105
 72
   199
 73
   104
  0
VERTEX
  5
3AD
  8
0
 62
   253
 10
0.0
 20
0.0
 30
0.0
 70
   128
 71
   201
 72
   200
 73
   107
  0
VERTEX
  5
3AE
  8
0
 62
   253
 10
0.0
 20
0.0
 30
0.0
 70
   128
 71
   199
 72
   198
 73
   104
  0
VERTEX
  5
3AF
  8
0
 62
   253
 10
0.0
 20
0.0
 30
0.0
 70
   128
 71
   200
 72
   105
 73
   107
  0
VERTEX
  5
3B0
  8
0
 62
   253
 10
0.0
 20
0.0
 30
0.0
 70
   128
 71
   103
 72
   197
 73
   101
  0
VERTEX
  5
3B1
  8
0
 62
   253
 10
0.0
 20
0.0
 30
0.0
 70
   128
 71
    63
 72
   182
 73
    62
  0
VERTEX
  5
3B2
  8
0
 62
   253
 10
0.0
 20
0.0
 30
0.0
 70
   128
 71
   202
 72
    64
 73
    62
  0
VERTEX
  5
3B3
  8
0
 62
   253
 10
0.0
 20
0.0
 30
0.0
 70
   128
 71
    62
 72
   182
 73
   202
  0
VERTEX
  5
3B4
  8
0
 62
   253
 10
0.0
 20
0.0
 30
0.0
 70
   128
 71
    64
 72
   203
 73
    66
  0
VERTEX
  5
3B5
  8
0
 62
   253
 10
0.0
 20
0.0
 30
0.0
 70
   128
 71
   203
 72
    64
 73
   202
  0
VERTEX
  5
3B6
  8
0
 62
   253
 10
0.0
 20
0.0
 30
0.0
 70
   128
 71
    67
 72
    66
 73
   204
  0
VERTEX
  5
3B7
  8
0
 62
   253
 10
0.0
 20
0.0
 30
0.0
 70
   128
 71
   203
 72
   204
 73
    66
  0
VERTEX
  5
3B8
  8
0
 62
   253
 10
0.0
 20
0.0
 30
0.0
 70
   128
 71
   205
 72
    69
 73
    67
  0
VERTEX
  5
3B9
  8
0
 62
   253
 10
0.0
 20
0.0
 30
0.0
 70
   128
 71
    67
 72
   204
 73
   205
  0
VERTEX
  5
3BA
  8
0
 62
   253
 10
0.0
 20
0.0
 30
0.0
 70
   128
 71
    69
 72
   206
 73
    71
  0
VERTEX
  5
3BB
  8
0
 62
   253
 10
0.0
 20
0.0
 30
0.0
 70
   128
 71
   206
 72
    69
 73
   205
  0
VERTEX
  5
3BC
  8
0
 62
   253
 10
0.0
 20
0.0
 30
0.0
 70
   128
 71
    70
 72
    71
 73
   207
  0
VERTEX
  5
3BD
  8
0
 62
   253
 10
0.0
 20
0.0
 30
0.0
 70
   128
 71
   206
 72
   207
 73
    71
  0
VERTEX
  5
3BE
  8
0
 62
   253
 10
0.0
 20
0.0
 30
0.0
 70
   128
 71
   208
 72
    72
 73
    70
  0
VERTEX
  5
3BF
  8
0
 62
   253
 10
0.0
 20
0.0
 30
0.0
 70
   128
 71
    70
 72
   207
 73
   208
  0
VERTEX
  5
3C0
  8
0
 62
   253
 10
0.0
 20
0.0
 30
0.0
 70
   128
 71
    72
 72
   209
 73
    74
  0
VERTEX
  5
3C1
  8
0
 62
   253
 10
0.0
 20
0.0
 30
0.0
 70
   128
 71
   209
 72
    72
 73
   208
  0
VERTEX
  5
3C2
  8
0
 62
   253
 10
0.0
 20
0.0
 30
0.0
 70
   128
 71
    76
 72
    74
 73
   210
  0
VERTEX
  5
3C3
  8
0
 62
   253
 10
0.0
 20
0.0
 30
0.0
 70
   128
 71
   209
 72
   210
 73
    74
  0
VERTEX
  5
3C4
  8
0
 62
   253
 10
0.0
 20
0.0
 30
0.0
 70
   128
 71
   211
 72
    77
 73
    76
  0
VERTEX
  5
3C5
  8
0
 62
   253
 10
0.0
 20
0.0
 30
0.0
 70
   128
 71
    76
 72
   210
 73
   211
  0
VERTEX
  5
3C6
  8
0
 62
   253
 10
0.0
 20
0.0
 30
0.0
 70
   128
 71
    77
 72
   212
 73
    79
  0
VERTEX
  5
3C7
  8
0
 62
   253
 10
0.0
 20
0.0
 30
0.0
 70
   128
 71
   212
 72
    77
 73
   211
  0
VERTEX
  5
3C8
  8
0
 62
   253
 10
0.0
 20
0.0
 30
0.0
 70
   128
 71
    81
 72
    79
 73
   213
  0
VERTEX
  5
3C9
  8
0
 62
   253
 10
0.0
 20
0.0
 30
0.0
 70
   128
 71
   212
 72
   213
 73
    79
  0
VERTEX
  5
3CA
  8
0
 62
   253
 10
0.0
 20
0.0
 30
0.0
 70
   128
 71
   213
 72
   214
 73
    80
  0
VERTEX
  5
3CB
  8
0
 62
   253
 10
0.0
 20
0.0
 30
0.0
 70
   128
 71
    80
 72
    81
 73
   213
  0
VERTEX
  5
3CC
  8
0
 62
   253
 10
0.0
 20
0.0
 30
0.0
 70
   128
 71
    83
 72
   214
 73
   215
  0
VERTEX
  5
3CD
  8
0
 62
   253
 10
0.0
 20
0.0
 30
0.0
 70
   128
 71
   214
 72
    83
 73
    80
  0
VERTEX
  5
3CE
  8
0
 62
   253
 10
0.0
 20
0.0
 30
0.0
 70
   128
 71
    85
 72
    83
 73
   216
  0
VERTEX
  5
3CF
  8
0
 62
   253
 10
0.0
 20
0.0
 30
0.0
 70
   128
 71
   215
 72
   216
 73
    83
  0
VERTEX
  5
3D0
  8
0
 62
   253
 10
0.0
 20
0.0
 30
0.0
 70
   128
 71
   217
 72
    84
 73
    85
  0
VERTEX
  5
3D1
  8
0
 62
   253
 10
0.0
 20
0.0
 30
0.0
 70
   128
 71
    85
 72
   216
 73
   217
  0
VERTEX
  5
3D2
  8
0
 62
   253
 10
0.0
 20
0.0
 30
0.0
 70
   128
 71
    84
 72
   218
 73
    87
  0
VERTEX
  5
3D3
  8
0
 62
   253
 10
0.0
 20
0.0
 30
0.0
 70
   128
 71
   218
 72
    84
 73
   217
  0
VERTEX
  5
3D4
  8
0
 62
   253
 10
0.0
 20
0.0
 30
0.0
 70
   128
 71
    88
 72
    87
 73
   219
  0
VERTEX
  5
3D5
  8
0
 62
   253
 10
0.0
 20
0.0
 30
0.0
 70
   128
 71
   218
 72
   219
 73
    87
  0
VERTEX
  5
3D6
  8
0
 62
   253
 10
0.0
 20
0.0
 30
0.0
 70
   128
 71
   220
 72
    89
 73
    88
  0
VERTEX
  5
3D7
  8
0
 62
   253
 10
0.0
 20
0.0
 30
0.0
 70
   128
 71
    88
 72
   219
 73
   220
  0
VERTEX
  5
3D8
  8
0
 62
   253
 10
0.0
 20
0.0
 30
0.0
 70
   128
 71
   221
 72
    89
 73
   220
  0
VERTEX
  5
3D9
  8
0
 62
   253
 10
0.0
 20
0.0
 30
0.0
 70
   128
 71
   221
 72
    91
 73
    89
  0
VERTEX
  5
3DA
  8
0
 62
   253
 10
0.0
 20
0.0
 30
0.0
 70
   128
 71
   224
 72
   223
 73
   222
  0
VERTEX
  5
3DB
  8
0
 62
   253
 10
0.0
 20
0.0
 30
0.0
 70
   128
 71
   227
 72
   226
 73
   225
  0
VERTEX
  5
3DC
  8
0
 62
   253
 10
0.0
 20
0.0
 30
0.0
 70
   128
 71
   107
 72
   228
 73
   201
  0
VERTEX
  5
3DD
  8
0
 62
   253
 10
0.0
 20
0.0
 30
0.0
 70
   128
 71
   231
 72
   230
 73
   229
  0
VERTEX
  5
3DE
  8
0
 62
   253
 10
0.0
 20
0.0
 30
0.0
 70
   128
 71
   234
 72
   233
 73
   232
  0
VERTEX
  5
3DF
  8
0
 62
   253
 10
0.0
 20
0.0
 30
0.0
 70
   128
 71
   237
 72
   236
 73
   235
  0
VERTEX
  5
3E0
  8
0
 62
   253
 10
0.0
 20
0.0
 30
0.0
 70
   128
 71
   240
 72
   239
 73
   238
  0
VERTEX
  5
3E1
  8
0
 62
   253
 10
0.0
 20
0.0
 30
0.0
 70
   128
 71
   243
 72
   242
 73
   241
  0
VERTEX
  5
3E2
  8
0
 62
   253
 10
0.0
 20
0.0
 30
0.0
 70
   128
 71
   246
 72
   245
 73
   244
  0
VERTEX
  5
3E3
  8
0
 62
   253
 10
0.0
 20
0.0
 30
0.0
 70
   128
 71
   249
 72
   248
 73
   247
  0
VERTEX
  5
3E4
  8
0
 62
   253
 10
0.0
 20
0.0
 30
0.0
 70
   128
 71
   252
 72
   251
 73
   250
  0
VERTEX
  5
3E5
  8
0
 62
   253
 10
0.0
 20
0.0
 30
0.0
 70
   128
 71
   255
 72
   254
 73
   253
  0
VERTEX
  5
3E6
  8
0
 62
   253
 10
0.0
 20
0.0
 30
0.0
 70
   128
 71
   258
 72
   257
 73
   256
  0
VERTEX
  5
3E7
  8
0
 62
   253
 10
0.0
 20
0.0
 30
0.0
 70
   128
 71
   261
 72
   260
 73
   259
  0
VERTEX
  5
3E8
  8
0
 62
   253
 10
0.0
 20
0.0
 30
0.0
 70
   128
 71
   264
 72
   263
 73
   262
  0
VERTEX
  5
3E9
  8
0
 62
   253
 10
0.0
 20
0.0
 30
0.0
 70
   128
 71
   267
 72
   266
 73
   265
  0
VERTEX
  5
3EA
  8
0
 62
   253
 10
0.0
 20
0.0
 30
0.0
 70
   128
 71
   261
 72
   269
 73
   268
  0
VERTEX
  5
3EB
  8
0
 62
   253
 10
0.0
 20
0.0
 30
0.0
 70
   128
 71
   272
 72
   271
 73
   270
  0
VERTEX
  5
3EC
  8
0
 62
   253
 10
0.0
 20
0.0
 30
0.0
 70
   128
 71
   265
 72
   271
 73
   273
  0
VERTEX
  5
3ED
  8
0
 62
   253
 10
0.0
 20
0.0
 30
0.0
 70
   128
 71
   276
 72
   275
 73
   274
  0
VERTEX
  5
3EE
  8
0
 62
   253
 10
0.0
 20
0.0
 30
0.0
 70
   128
 71
   270
 72
   275
 73
   277
  0
VERTEX
  5
3EF
  8
0
 62
   253
 10
0.0
 20
0.0
 30
0.0
 70
   128
 71
   280
 72
   279
 73
   278
  0
VERTEX
  5
3F0
  8
0
 62
   253
 10
0.0
 20
0.0
 30
0.0
 70
   128
 71
   274
 72
   279
 73
   281
  0
VERTEX
  5
3F1
  8
0
 62
   253
 10
0.0
 20
0.0
 30
0.0
 70
   128
 71
   283
 72
   282
 73
   278
  0
VERTEX
  5
3F2
  8
0
 62
   253
 10
0.0
 20
0.0
 30
0.0
 70
   128
 71
   280
 72
   278
 73
   282
  0
VERTEX
  5
3F3
  8
0
 62
   253
 10
0.0
 20
0.0
 30
0.0
 70
   128
 71
   283
 72
   285
 73
   284
  0
VERTEX
  5
3F4
  8
0
 62
   253
 10
0.0
 20
0.0
 30
0.0
 70
   128
 71
   284
 72
   282
 73
   283
  0
VERTEX
  5
3F5
  8
0
 62
   253
 10
0.0
 20
0.0
 30
0.0
 70
   128
 71
   287
 72
   285
 73
   286
  0
VERTEX
  5
3F6
  8
0
 62
   253
 10
0.0
 20
0.0
 30
0.0
 70
   128
 71
   285
 72
   287
 73
   284
  0
VERTEX
  5
3F7
  8
0
 62
   253
 10
0.0
 20
0.0
 30
0.0
 70
   128
 71
   289
 72
   288
 73
   286
  0
VERTEX
  5
3F8
  8
0
 62
   253
 10
0.0
 20
0.0
 30
0.0
 70
   128
 71
   287
 72
   286
 73
   288
  0
VERTEX
  5
3F9
  8
0
 62
   253
 10
0.0
 20
0.0
 30
0.0
 70
   128
 71
   289
 72
   291
 73
   290
  0
VERTEX
  5
3FA
  8
0
 62
   253
 10
0.0
 20
0.0
 30
0.0
 70
   128
 71
   290
 72
   288
 73
   289
  0
VERTEX
  5
3FB
  8
0
 62
   253
 10
0.0
 20
0.0
 30
0.0
 70
   128
 71
   293
 72
   291
 73
   292
  0
VERTEX
  5
3FC
  8
0
 62
   253
 10
0.0
 20
0.0
 30
0.0
 70
   128
 71
   291
 72
   293
 73
   290
  0
VERTEX
  5
3FD
  8
0
 62
   253
 10
0.0
 20
0.0
 30
0.0
 70
   128
 71
   295
 72
   294
 73
   292
  0
VERTEX
  5
3FE
  8
0
 62
   253
 10
0.0
 20
0.0
 30
0.0
 70
   128
 71
   293
 72
   292
 73
   294
  0
VERTEX
  5
3FF
  8
0
 62
   253
 10
0.0
 20
0.0
 30
0.0
 70
   128
 71
   295
 72
   297
 73
   296
  0
VERTEX
  5
400
  8
0
 62
   253
 10
0.0
 20
0.0
 30
0.0
 70
   128
 71
   296
 72
   294
 73
   295
  0
VERTEX
  5
401
  8
0
 62
   253
 10
0.0
 20
0.0
 30
0.0
 70
   128
 71
   299
 72
   297
 73
   298
  0
VERTEX
  5
402
  8
0
 62
   253
 10
0.0
 20
0.0
 30
0.0
 70
   128
 71
   297
 72
   299
 73
   296
  0
VERTEX
  5
403
  8
0
 62
   253
 10
0.0
 20
0.0
 30
0.0
 70
   128
 71
    91
 72
   221
 73
   298
  0
VERTEX
  5
404
  8
0
 62
   253
 10
0.0
 20
0.0
 30
0.0
 70
   128
 71
   299
 72
   298
 73
   221
  0
VERTEX
  5
405
  8
0
 62
   253
 10
0.0
 20
0.0
 30
0.0
 70
   128
 71
   281
 72
   279
 73
   280
  0
VERTEX
  5
406
  8
0
 62
   253
 10
0.0
 20
0.0
 30
0.0
 70
   128
 71
   276
 72
   274
 73
   281
  0
VERTEX
  5
407
  8
0
 62
   253
 10
0.0
 20
0.0
 30
0.0
 70
   128
 71
   270
 72
   277
 73
   272
  0
VERTEX
  5
408
  8
0
 62
   253
 10
0.0
 20
0.0
 30
0.0
 70
   128
 71
   275
 72
   276
 73
   277
  0
VERTEX
  5
409
  8
0
 62
   253
 10
0.0
 20
0.0
 30
0.0
 70
   128
 71
   265
 72
   273
 73
   267
  0
VERTEX
  5
40A
  8
0
 62
   253
 10
0.0
 20
0.0
 30
0.0
 70
   128
 71
   273
 72
   271
 73
   272
  0
VERTEX
  5
40B
  8
0
 62
   253
 10
0.0
 20
0.0
 30
0.0
 70
   128
 71
   300
 72
   230
 73
   231
  0
VERTEX
  5
40C
  8
0
 62
   253
 10
0.0
 20
0.0
 30
0.0
 70
   128
 71
   268
 72
   269
 73
   266
  0
VERTEX
  5
40D
  8
0
 62
   253
 10
0.0
 20
0.0
 30
0.0
 70
   128
 71
   268
 72
   266
 73
   267
  0
VERTEX
  5
40E
  8
0
 62
   253
 10
0.0
 20
0.0
 30
0.0
 70
   128
 71
   247
 72
   256
 73
   249
  0
VERTEX
  5
40F
  8
0
 62
   253
 10
0.0
 20
0.0
 30
0.0
 70
   128
 71
   262
 72
   259
 73
   260
  0
VERTEX
  5
410
  8
0
 62
   253
 10
0.0
 20
0.0
 30
0.0
 70
   128
 71
   261
 72
   259
 73
   269
  0
VERTEX
  5
411
  8
0
 62
   253
 10
0.0
 20
0.0
 30
0.0
 70
   128
 71
   253
 72
   263
 73
   264
  0
VERTEX
  5
412
  8
0
 62
   253
 10
0.0
 20
0.0
 30
0.0
 70
   128
 71
   260
 72
   264
 73
   262
  0
VERTEX
  5
413
  8
0
 62
   253
 10
0.0
 20
0.0
 30
0.0
 70
   128
 71
   253
 72
   257
 73
   255
  0
VERTEX
  5
414
  8
0
 62
   253
 10
0.0
 20
0.0
 30
0.0
 70
   128
 71
   263
 72
   253
 73
   254
  0
VERTEX
  5
415
  8
0
 62
   253
 10
0.0
 20
0.0
 30
0.0
 70
   128
 71
   258
 72
   256
 73
   247
  0
VERTEX
  5
416
  8
0
 62
   253
 10
0.0
 20
0.0
 30
0.0
 70
   128
 71
   258
 72
   255
 73
   257
  0
VERTEX
  5
417
  8
0
 62
   253
 10
0.0
 20
0.0
 30
0.0
 70
   128
 71
   250
 72
   251
 73
   248
  0
VERTEX
  5
418
  8
0
 62
   253
 10
0.0
 20
0.0
 30
0.0
 70
   128
 71
   250
 72
   248
 73
   249
  0
VERTEX
  5
419
  8
0
 62
   253
 10
0.0
 20
0.0
 30
0.0
 70
   128
 71
   240
 72
   230
 73
   300
  0
VERTEX
  5
41A
  8
0
 62
   253
 10
0.0
 20
0.0
 30
0.0
 70
   128
 71
   301
 72
   252
 73
   242
  0
VERTEX
  5
41B
  8
0
 62
   253
 10
0.0
 20
0.0
 30
0.0
 70
   128
 71
   252
 72
   301
 73
   251
  0
VERTEX
  5
41C
  8
0
 62
   253
 10
0.0
 20
0.0
 30
0.0
 70
   128
 71
   301
 72
   242
 73
   243
  0
VERTEX
  5
41D
  8
0
 62
   253
 10
0.0
 20
0.0
 30
0.0
 70
   128
 71
   246
 72
   241
 73
   245
  0
VERTEX
  5
41E
  8
0
 62
   253
 10
0.0
 20
0.0
 30
0.0
 70
   128
 71
   243
 72
   241
 73
   246
  0
VERTEX
  5
41F
  8
0
 62
   253
 10
0.0
 20
0.0
 30
0.0
 70
   128
 71
   235
 72
   244
 73
   302
  0
VERTEX
  5
420
  8
0
 62
   253
 10
0.0
 20
0.0
 30
0.0
 70
   128
 71
   244
 72
   245
 73
   302
  0
VERTEX
  5
421
  8
0
 62
   253
 10
0.0
 20
0.0
 30
0.0
 70
   128
 71
   236
 72
   237
 73
   238
  0
VERTEX
  5
422
  8
0
 62
   253
 10
0.0
 20
0.0
 30
0.0
 70
   128
 71
   237
 72
   235
 73
   302
  0
VERTEX
  5
423
  8
0
 62
   253
 10
0.0
 20
0.0
 30
0.0
 70
   128
 71
   300
 72
   239
 73
   240
  0
VERTEX
  5
424
  8
0
 62
   253
 10
0.0
 20
0.0
 30
0.0
 70
   128
 71
   238
 72
   239
 73
   236
  0
VERTEX
  5
425
  8
0
 62
   253
 10
0.0
 20
0.0
 30
0.0
 70
   128
 71
   229
 72
   234
 73
   231
  0
VERTEX
  5
426
  8
0
 62
   253
 10
0.0
 20
0.0
 30
0.0
 70
   128
 71
   232
 72
   226
 73
   227
  0
VERTEX
  5
427
  8
0
 62
   253
 10
0.0
 20
0.0
 30
0.0
 70
   128
 71
   233
 72
   226
 73
   232
  0
VERTEX
  5
428
  8
0
 62
   253
 10
0.0
 20
0.0
 30
0.0
 70
   128
 71
   234
 72
   229
 73
   233
  0
VERTEX
  5
429
  8
0
 62
   253
 10
0.0
 20
0.0
 30
0.0
 70
   128
 71
   225
 72
   224
 73
   303
  0
VERTEX
  5
42A
  8
0
 62
   253
 10
0.0
 20
0.0
 30
0.0
 70
   128
 71
   303
 72
   227
 73
   225
  0
VERTEX
  5
42B
  8
0
 62
   253
 10
0.0
 20
0.0
 30
0.0
 70
   128
 71
   224
 72
   222
 73
   303
  0
VERTEX
  5
42C
  8
0
 62
   253
 10
0.0
 20
0.0
 30
0.0
 70
   128
 71
   228
 72
   223
 73
   201
  0
VERTEX
  5
42D
  8
0
 62
   253
 10
0.0
 20
0.0
 30
0.0
 70
   128
 71
   223
 72
   228
 73
   222
  0
VERTEX
  5
42E
  8
0
 62
   253
 10
0.0
 20
0.0
 30
0.0
 70
   128
 71
   305
 72
   304
 73
   161
  0
VERTEX
  5
42F
  8
0
 62
   253
 10
0.0
 20
0.0
 30
0.0
 70
   128
 71
   304
 72
   164
 73
   161
  0
VERTEX
  5
430
  8
0
 62
   253
 10
0.0
 20
0.0
 30
0.0
 70
   128
 71
   164
 72
   304
 73
   306
  0
VERTEX
  5
431
  8
0
 62
   253
 10
0.0
 20
0.0
 30
0.0
 70
   128
 71
   163
 72
   307
 73
   162
  0
VERTEX
  5
432
  8
0
 62
   253
 10
0.0
 20
0.0
 30
0.0
 70
   128
 71
   306
 72
   307
 73
   163
  0
VERTEX
  5
433
  8
0
 62
   253
 10
0.0
 20
0.0
 30
0.0
 70
   128
 71
   162
 72
   307
 73
   308
  0
VERTEX
  5
434
  8
0
 62
   253
 10
0.0
 20
0.0
 30
0.0
 70
   128
 71
   163
 72
   164
 73
   306
  0
VERTEX
  5
435
  8
0
 62
   253
 10
0.0
 20
0.0
 30
0.0
 70
   128
 71
   162
 72
   308
 73
   165
  0
VERTEX
  5
436
  8
0
 62
   253
 10
0.0
 20
0.0
 30
0.0
 70
   128
 71
   308
 72
   309
 73
   165
  0
VERTEX
  5
437
  8
0
 62
   253
 10
0.0
 20
0.0
 30
0.0
 70
   128
 71
   166
 72
   165
 73
   309
  0
VERTEX
  5
438
  8
0
 62
   253
 10
0.0
 20
0.0
 30
0.0
 70
   128
 71
   305
 72
   161
 73
   160
  0
VERTEX
  5
439
  8
0
 62
   253
 10
0.0
 20
0.0
 30
0.0
 70
   128
 71
   160
 72
   158
 73
   310
  0
VERTEX
  5
43A
  8
0
 62
   253
 10
0.0
 20
0.0
 30
0.0
 70
   128
 71
   310
 72
   305
 73
   160
  0
VERTEX
  5
43B
  8
0
 62
   253
 10
0.0
 20
0.0
 30
0.0
 70
   128
 71
   158
 72
   311
 73
   310
  0
VERTEX
  5
43C
  8
0
 62
   253
 10
0.0
 20
0.0
 30
0.0
 70
   128
 71
   158
 72
   157
 73
   311
  0
VERTEX
  5
43D
  8
0
 62
   253
 10
0.0
 20
0.0
 30
0.0
 70
   128
 71
   159
 72
   312
 73
   157
  0
VERTEX
  5
43E
  8
0
 62
   253
 10
0.0
 20
0.0
 30
0.0
 70
   128
 71
   311
 72
   157
 73
   312
  0
VERTEX
  5
43F
  8
0
 62
   253
 10
0.0
 20
0.0
 30
0.0
 70
   128
 71
   156
 72
   312
 73
   159
  0
VERTEX
  5
440
  8
0
 62
   253
 10
0.0
 20
0.0
 30
0.0
 70
   128
 71
   314
 72
   173
 73
   313
  0
VERTEX
  5
441
  8
0
 62
   253
 10
0.0
 20
0.0
 30
0.0
 70
   128
 71
   173
 72
   315
 73
   175
  0
VERTEX
  5
442
  8
0
 62
   253
 10
0.0
 20
0.0
 30
0.0
 70
   128
 71
   152
 72
   313
 73
   151
  0
VERTEX
  5
443
  8
0
 62
   253
 10
0.0
 20
0.0
 30
0.0
 70
   128
 71
   177
 72
   316
 73
   179
  0
VERTEX
  5
444
  8
0
 62
   253
 10
0.0
 20
0.0
 30
0.0
 70
   128
 71
   318
 72
   317
 73
   177
  0
VERTEX
  5
445
  8
0
 62
   253
 10
0.0
 20
0.0
 30
0.0
 70
   128
 71
   166
 72
   179
 73
   319
  0
VERTEX
  5
446
  8
0
 62
   253
 10
0.0
 20
0.0
 30
0.0
 70
   128
 71
   316
 72
   319
 73
   179
  0
VERTEX
  5
447
  8
0
 62
   253
 10
0.0
 20
0.0
 30
0.0
 70
   128
 71
   166
 72
   319
 73
   142
  0
VERTEX
  5
448
  8
0
 62
   253
 10
0.0
 20
0.0
 30
0.0
 70
   128
 71
   177
 72
   317
 73
   316
  0
VERTEX
  5
449
  8
0
 62
   253
 10
0.0
 20
0.0
 30
0.0
 70
   128
 71
   177
 72
   175
 73
   318
  0
VERTEX
  5
44A
  8
0
 62
   253
 10
0.0
 20
0.0
 30
0.0
 70
   128
 71
   315
 72
   318
 73
   175
  0
VERTEX
  5
44B
  8
0
 62
   253
 10
0.0
 20
0.0
 30
0.0
 70
   128
 71
   173
 72
   151
 73
   313
  0
VERTEX
  5
44C
  8
0
 62
   253
 10
0.0
 20
0.0
 30
0.0
 70
   128
 71
   173
 72
   314
 73
   315
  0
VERTEX
  5
44D
  8
0
 62
   253
 10
0.0
 20
0.0
 30
0.0
 70
   128
 71
   124
 72
   320
 73
   155
  0
VERTEX
  5
44E
  8
0
 62
   253
 10
0.0
 20
0.0
 30
0.0
 70
   128
 71
   144
 72
   322
 73
   321
  0
VERTEX
  5
44F
  8
0
 62
   253
 10
0.0
 20
0.0
 30
0.0
 70
   128
 71
   150
 72
   154
 73
   323
  0
VERTEX
  5
450
  8
0
 62
   253
 10
0.0
 20
0.0
 30
0.0
 70
   128
 71
   325
 72
   149
 73
   324
  0
VERTEX
  5
451
  8
0
 62
   253
 10
0.0
 20
0.0
 30
0.0
 70
   128
 71
   147
 72
   143
 73
   326
  0
VERTEX
  5
452
  8
0
 62
   253
 10
0.0
 20
0.0
 30
0.0
 70
   128
 71
   314
 72
   328
 73
   327
  0
VERTEX
  5
453
  8
0
 62
   253
 10
0.0
 20
0.0
 30
0.0
 70
   128
 71
   152
 72
   329
 73
   313
  0
VERTEX
  5
454
  8
0
 62
   253
 10
0.0
 20
0.0
 30
0.0
 70
   128
 71
   318
 72
   331
 73
   330
  0
VERTEX
  5
455
  8
0
 62
   253
 10
0.0
 20
0.0
 30
0.0
 70
   128
 71
   327
 72
   331
 73
   315
  0
VERTEX
  5
456
  8
0
 62
   253
 10
0.0
 20
0.0
 30
0.0
 70
   128
 71
   332
 72
   317
 73
   330
  0
VERTEX
  5
457
  8
0
 62
   253
 10
0.0
 20
0.0
 30
0.0
 70
   128
 71
   318
 72
   330
 73
   317
  0
VERTEX
  5
458
  8
0
 62
   253
 10
0.0
 20
0.0
 30
0.0
 70
   128
 71
   332
 72
   333
 73
   316
  0
VERTEX
  5
459
  8
0
 62
   253
 10
0.0
 20
0.0
 30
0.0
 70
   128
 71
   316
 72
   317
 73
   332
  0
VERTEX
  5
45A
  8
0
 62
   253
 10
0.0
 20
0.0
 30
0.0
 70
   128
 71
   319
 72
   333
 73
   141
  0
VERTEX
  5
45B
  8
0
 62
   253
 10
0.0
 20
0.0
 30
0.0
 70
   128
 71
   333
 72
   319
 73
   316
  0
VERTEX
  5
45C
  8
0
 62
   253
 10
0.0
 20
0.0
 30
0.0
 70
   128
 71
   319
 72
   141
 73
   142
  0
VERTEX
  5
45D
  8
0
 62
   253
 10
0.0
 20
0.0
 30
0.0
 70
   128
 71
   314
 72
   327
 73
   315
  0
VERTEX
  5
45E
  8
0
 62
   253
 10
0.0
 20
0.0
 30
0.0
 70
   128
 71
   315
 72
   331
 73
   318
  0
VERTEX
  5
45F
  8
0
 62
   253
 10
0.0
 20
0.0
 30
0.0
 70
   128
 71
   313
 72
   329
 73
   328
  0
VERTEX
  5
460
  8
0
 62
   253
 10
0.0
 20
0.0
 30
0.0
 70
   128
 71
   313
 72
   328
 73
   314
  0
VERTEX
  5
461
  8
0
 62
   253
 10
0.0
 20
0.0
 30
0.0
 70
   128
 71
   152
 72
   149
 73
   325
  0
VERTEX
  5
462
  8
0
 62
   253
 10
0.0
 20
0.0
 30
0.0
 70
   128
 71
   152
 72
   325
 73
   329
  0
VERTEX
  5
463
  8
0
 62
   253
 10
0.0
 20
0.0
 30
0.0
 70
   128
 71
   324
 72
   147
 73
   326
  0
VERTEX
  5
464
  8
0
 62
   253
 10
0.0
 20
0.0
 30
0.0
 70
   128
 71
   149
 72
   147
 73
   324
  0
VERTEX
  5
465
  8
0
 62
   253
 10
0.0
 20
0.0
 30
0.0
 70
   128
 71
   321
 72
   334
 73
   143
  0
VERTEX
  5
466
  8
0
 62
   253
 10
0.0
 20
0.0
 30
0.0
 70
   128
 71
   326
 72
   143
 73
   334
  0
VERTEX
  5
467
  8
0
 62
   253
 10
0.0
 20
0.0
 30
0.0
 70
   128
 71
   150
 72
   322
 73
   144
  0
VERTEX
  5
468
  8
0
 62
   253
 10
0.0
 20
0.0
 30
0.0
 70
   128
 71
   144
 72
   321
 73
   143
  0
VERTEX
  5
469
  8
0
 62
   253
 10
0.0
 20
0.0
 30
0.0
 70
   128
 71
   154
 72
   320
 73
   323
  0
VERTEX
  5
46A
  8
0
 62
   253
 10
0.0
 20
0.0
 30
0.0
 70
   128
 71
   150
 72
   323
 73
   322
  0
VERTEX
  5
46B
  8
0
 62
   253
 10
0.0
 20
0.0
 30
0.0
 70
   128
 71
   155
 72
   125
 73
   124
  0
VERTEX
  5
46C
  8
0
 62
   253
 10
0.0
 20
0.0
 30
0.0
 70
   128
 71
   154
 72
   155
 73
   320
  0
VERTEX
  5
46D
  8
0
 62
   253
 10
0.0
 20
0.0
 30
0.0
 70
   128
 71
   335
 72
   334
 73
   321
  0
VERTEX
  5
46E
  8
0
 62
   253
 10
0.0
 20
0.0
 30
0.0
 70
   128
 71
    90
 72
   121
 73
    86
  0
VERTEX
  5
46F
  8
0
 62
   253
 10
0.0
 20
0.0
 30
0.0
 70
   128
 71
    90
 72
   124
 73
   121
  0
VERTEX
  5
470
  8
0
 62
   253
 10
0.0
 20
0.0
 30
0.0
 70
   128
 71
   108
 72
    60
 73
    65
  0
VERTEX
  5
471
  8
0
 62
   253
 10
0.0
 20
0.0
 30
0.0
 70
   128
 71
   118
 72
    82
 73
   120
  0
VERTEX
  5
472
  8
0
 62
   253
 10
0.0
 20
0.0
 30
0.0
 70
   128
 71
    78
 72
   118
 73
   115
  0
VERTEX
  5
473
  8
0
 62
   253
 10
0.0
 20
0.0
 30
0.0
 70
   128
 71
    73
 72
    75
 73
   115
  0
VERTEX
  5
474
  8
0
 62
   253
 10
0.0
 20
0.0
 30
0.0
 70
   128
 71
    86
 72
   121
 73
   120
  0
VERTEX
  5
475
  8
0
 62
   253
 10
0.0
 20
0.0
 30
0.0
 70
   128
 71
    73
 72
   114
 73
    68
  0
VERTEX
  5
476
  8
0
 62
   253
 10
0.0
 20
0.0
 30
0.0
 70
   128
 71
   322
 72
   337
 73
   336
  0
VERTEX
  5
477
  8
0
 62
   253
 10
0.0
 20
0.0
 30
0.0
 70
   128
 71
   338
 72
   124
 73
    90
  0
VERTEX
  5
478
  8
0
 62
   253
 10
0.0
 20
0.0
 30
0.0
 70
   128
 71
   127
 72
    54
 73
    58
  0
VERTEX
  5
479
  8
0
 62
   253
 10
0.0
 20
0.0
 30
0.0
 70
   128
 71
    60
 72
   109
 73
    58
  0
VERTEX
  5
47A
  8
0
 62
   253
 10
0.0
 20
0.0
 30
0.0
 70
   128
 71
    54
 72
   130
 73
    49
  0
VERTEX
  5
47B
  8
0
 62
   253
 10
0.0
 20
0.0
 30
0.0
 70
   128
 71
   326
 72
   334
 73
   339
  0
VERTEX
  5
47C
  8
0
 62
   253
 10
0.0
 20
0.0
 30
0.0
 70
   128
 71
   324
 72
   326
 73
   340
  0
VERTEX
  5
47D
  8
0
 62
   253
 10
0.0
 20
0.0
 30
0.0
 70
   128
 71
   341
 72
   325
 73
   324
  0
VERTEX
  5
47E
  8
0
 62
   253
 10
0.0
 20
0.0
 30
0.0
 70
   128
 71
   131
 72
    51
 73
    49
  0
VERTEX
  5
47F
  8
0
 62
   253
 10
0.0
 20
0.0
 30
0.0
 70
   128
 71
   136
 72
    51
 73
   133
  0
VERTEX
  5
480
  8
0
 62
   253
 10
0.0
 20
0.0
 30
0.0
 70
   128
 71
   137
 72
    95
 73
   136
  0
VERTEX
  5
481
  8
0
 62
   253
 10
0.0
 20
0.0
 30
0.0
 70
   128
 71
   329
 72
   325
 73
   342
  0
VERTEX
  5
482
  8
0
 62
   253
 10
0.0
 20
0.0
 30
0.0
 70
   128
 71
    99
 72
   137
 73
   139
  0
VERTEX
  5
483
  8
0
 62
   253
 10
0.0
 20
0.0
 30
0.0
 70
   128
 71
   343
 72
   329
 73
   342
  0
VERTEX
  5
484
  8
0
 62
   253
 10
0.0
 20
0.0
 30
0.0
 70
   128
 71
   345
 72
   344
 73
   331
  0
VERTEX
  5
485
  8
0
 62
   253
 10
0.0
 20
0.0
 30
0.0
 70
   128
 71
   343
 72
   346
 73
   328
  0
VERTEX
  5
486
  8
0
 62
   253
 10
0.0
 20
0.0
 30
0.0
 70
   128
 71
   347
 72
   330
 73
   344
  0
VERTEX
  5
487
  8
0
 62
   253
 10
0.0
 20
0.0
 30
0.0
 70
   128
 71
   347
 72
   348
 73
   332
  0
VERTEX
  5
488
  8
0
 62
   253
 10
0.0
 20
0.0
 30
0.0
 70
   128
 71
   139
 72
   141
 73
   102
  0
VERTEX
  5
489
  8
0
 62
   253
 10
0.0
 20
0.0
 30
0.0
 70
   128
 71
   346
 72
   345
 73
   327
  0
VERTEX
  5
48A
  8
0
 62
   253
 10
0.0
 20
0.0
 30
0.0
 70
   128
 71
   323
 72
   320
 73
   349
  0
VERTEX
  5
48B
  8
0
 62
   253
 10
0.0
 20
0.0
 30
0.0
 70
   128
 71
    68
 72
   112
 73
    65
  0
VERTEX
  5
48C
  8
0
 62
   253
 10
0.0
 20
0.0
 30
0.0
 70
   128
 71
   336
 72
   321
 73
   322
  0
VERTEX
  5
48D
  8
0
 62
   253
 10
0.0
 20
0.0
 30
0.0
 70
   128
 71
   120
 72
    82
 73
    86
  0
VERTEX
  5
48E
  8
0
 62
   253
 10
0.0
 20
0.0
 30
0.0
 70
   128
 71
   118
 72
    78
 73
    82
  0
VERTEX
  5
48F
  8
0
 62
   253
 10
0.0
 20
0.0
 30
0.0
 70
   128
 71
   115
 72
    75
 73
    78
  0
VERTEX
  5
490
  8
0
 62
   253
 10
0.0
 20
0.0
 30
0.0
 70
   128
 71
   115
 72
   114
 73
    73
  0
VERTEX
  5
491
  8
0
 62
   253
 10
0.0
 20
0.0
 30
0.0
 70
   128
 71
   114
 72
   112
 73
    68
  0
VERTEX
  5
492
  8
0
 62
   253
 10
0.0
 20
0.0
 30
0.0
 70
   128
 71
   112
 72
   108
 73
    65
  0
VERTEX
  5
493
  8
0
 62
   253
 10
0.0
 20
0.0
 30
0.0
 70
   128
 71
   108
 72
   109
 73
    60
  0
VERTEX
  5
494
  8
0
 62
   253
 10
0.0
 20
0.0
 30
0.0
 70
   128
 71
   109
 72
   127
 73
    58
  0
VERTEX
  5
495
  8
0
 62
   253
 10
0.0
 20
0.0
 30
0.0
 70
   128
 71
   127
 72
   130
 73
    54
  0
VERTEX
  5
496
  8
0
 62
   253
 10
0.0
 20
0.0
 30
0.0
 70
   128
 71
   130
 72
   131
 73
    49
  0
VERTEX
  5
497
  8
0
 62
   253
 10
0.0
 20
0.0
 30
0.0
 70
   128
 71
   131
 72
   133
 73
    51
  0
VERTEX
  5
498
  8
0
 62
   253
 10
0.0
 20
0.0
 30
0.0
 70
   128
 71
   136
 72
    95
 73
    51
  0
VERTEX
  5
499
  8
0
 62
   253
 10
0.0
 20
0.0
 30
0.0
 70
   128
 71
   137
 72
    99
 73
    95
  0
VERTEX
  5
49A
  8
0
 62
   253
 10
0.0
 20
0.0
 30
0.0
 70
   128
 71
   139
 72
   102
 73
    99
  0
VERTEX
  5
49B
  8
0
 62
   253
 10
0.0
 20
0.0
 30
0.0
 70
   128
 71
   141
 72
   106
 73
   102
  0
VERTEX
  5
49C
  8
0
 62
   253
 10
0.0
 20
0.0
 30
0.0
 70
   128
 71
   141
 72
   333
 73
   350
  0
VERTEX
  5
49D
  8
0
 62
   253
 10
0.0
 20
0.0
 30
0.0
 70
   128
 71
   141
 72
   350
 73
   106
  0
VERTEX
  5
49E
  8
0
 62
   253
 10
0.0
 20
0.0
 30
0.0
 70
   128
 71
   333
 72
   332
 73
   348
  0
VERTEX
  5
49F
  8
0
 62
   253
 10
0.0
 20
0.0
 30
0.0
 70
   128
 71
   333
 72
   348
 73
   350
  0
VERTEX
  5
4A0
  8
0
 62
   253
 10
0.0
 20
0.0
 30
0.0
 70
   128
 71
   332
 72
   330
 73
   347
  0
VERTEX
  5
4A1
  8
0
 62
   253
 10
0.0
 20
0.0
 30
0.0
 70
   128
 71
   330
 72
   331
 73
   344
  0
VERTEX
  5
4A2
  8
0
 62
   253
 10
0.0
 20
0.0
 30
0.0
 70
   128
 71
   331
 72
   327
 73
   345
  0
VERTEX
  5
4A3
  8
0
 62
   253
 10
0.0
 20
0.0
 30
0.0
 70
   128
 71
   327
 72
   328
 73
   346
  0
VERTEX
  5
4A4
  8
0
 62
   253
 10
0.0
 20
0.0
 30
0.0
 70
   128
 71
   328
 72
   329
 73
   343
  0
VERTEX
  5
4A5
  8
0
 62
   253
 10
0.0
 20
0.0
 30
0.0
 70
   128
 71
   325
 72
   341
 73
   342
  0
VERTEX
  5
4A6
  8
0
 62
   253
 10
0.0
 20
0.0
 30
0.0
 70
   128
 71
   324
 72
   340
 73
   341
  0
VERTEX
  5
4A7
  8
0
 62
   253
 10
0.0
 20
0.0
 30
0.0
 70
   128
 71
   326
 72
   339
 73
   340
  0
VERTEX
  5
4A8
  8
0
 62
   253
 10
0.0
 20
0.0
 30
0.0
 70
   128
 71
   334
 72
   335
 73
   339
  0
VERTEX
  5
4A9
  8
0
 62
   253
 10
0.0
 20
0.0
 30
0.0
 70
   128
 71
   321
 72
   336
 73
   335
  0
VERTEX
  5
4AA
  8
0
 62
   253
 10
0.0
 20
0.0
 30
0.0
 70
   128
 71
   323
 72
   337
 73
   322
  0
VERTEX
  5
4AB
  8
0
 62
   253
 10
0.0
 20
0.0
 30
0.0
 70
   128
 71
   320
 72
   338
 73
   349
  0
VERTEX
  5
4AC
  8
0
 62
   253
 10
0.0
 20
0.0
 30
0.0
 70
   128
 71
   323
 72
   349
 73
   337
  0
VERTEX
  5
4AD
  8
0
 62
   253
 10
0.0
 20
0.0
 30
0.0
 70
   128
 71
   338
 72
   320
 73
   124
  0
VERTEX
  5
4AE
  8
0
 62
   253
 10
0.0
 20
0.0
 30
0.0
 70
   128
 71
    90
 72
    91
 73
   298
  0
VERTEX
  5
4AF
  8
0
 62
   253
 10
0.0
 20
0.0
 30
0.0
 70
   128
 71
   338
 72
   295
 73
   292
  0
VERTEX
  5
4B0
  8
0
 62
   253
 10
0.0
 20
0.0
 30
0.0
 70
   128
 71
   297
 72
   338
 73
   298
  0
VERTEX
  5
4B1
  8
0
 62
   253
 10
0.0
 20
0.0
 30
0.0
 70
   128
 71
   349
 72
   289
 73
   337
  0
VERTEX
  5
4B2
  8
0
 62
   253
 10
0.0
 20
0.0
 30
0.0
 70
   128
 71
   292
 72
   291
 73
   349
  0
VERTEX
  5
4B3
  8
0
 62
   253
 10
0.0
 20
0.0
 30
0.0
 70
   128
 71
   283
 72
   336
 73
   337
  0
VERTEX
  5
4B4
  8
0
 62
   253
 10
0.0
 20
0.0
 30
0.0
 70
   128
 71
   285
 72
   337
 73
   286
  0
VERTEX
  5
4B5
  8
0
 62
   253
 10
0.0
 20
0.0
 30
0.0
 70
   128
 71
   274
 72
   335
 73
   279
  0
VERTEX
  5
4B6
  8
0
 62
   253
 10
0.0
 20
0.0
 30
0.0
 70
   128
 71
   336
 72
   278
 73
   279
  0
VERTEX
  5
4B7
  8
0
 62
   253
 10
0.0
 20
0.0
 30
0.0
 70
   128
 71
   339
 72
   270
 73
   271
  0
VERTEX
  5
4B8
  8
0
 62
   253
 10
0.0
 20
0.0
 30
0.0
 70
   128
 71
   275
 72
   270
 73
   335
  0
VERTEX
  5
4B9
  8
0
 62
   253
 10
0.0
 20
0.0
 30
0.0
 70
   128
 71
   340
 72
   265
 73
   266
  0
VERTEX
  5
4BA
  8
0
 62
   253
 10
0.0
 20
0.0
 30
0.0
 70
   128
 71
   271
 72
   265
 73
   339
  0
VERTEX
  5
4BB
  8
0
 62
   253
 10
0.0
 20
0.0
 30
0.0
 70
   128
 71
   259
 72
   262
 73
   341
  0
VERTEX
  5
4BC
  8
0
 62
   253
 10
0.0
 20
0.0
 30
0.0
 70
   128
 71
   259
 72
   340
 73
   269
  0
VERTEX
  5
4BD
  8
0
 62
   253
 10
0.0
 20
0.0
 30
0.0
 70
   128
 71
   254
 72
   342
 73
   341
  0
VERTEX
  5
4BE
  8
0
 62
   253
 10
0.0
 20
0.0
 30
0.0
 70
   128
 71
   263
 72
   341
 73
   262
  0
VERTEX
  5
4BF
  8
0
 62
   253
 10
0.0
 20
0.0
 30
0.0
 70
   128
 71
   258
 72
   343
 73
   342
  0
VERTEX
  5
4C0
  8
0
 62
   253
 10
0.0
 20
0.0
 30
0.0
 70
   128
 71
   342
 72
   255
 73
   258
  0
VERTEX
  5
4C1
  8
0
 62
   253
 10
0.0
 20
0.0
 30
0.0
 70
   128
 71
   251
 72
   343
 73
   248
  0
VERTEX
  5
4C2
  8
0
 62
   253
 10
0.0
 20
0.0
 30
0.0
 70
   128
 71
   343
 72
   247
 73
   248
  0
VERTEX
  5
4C3
  8
0
 62
   253
 10
0.0
 20
0.0
 30
0.0
 70
   128
 71
   243
 72
   346
 73
   301
  0
VERTEX
  5
4C4
  8
0
 62
   253
 10
0.0
 20
0.0
 30
0.0
 70
   128
 71
   346
 72
   343
 73
   251
  0
VERTEX
  5
4C5
  8
0
 62
   253
 10
0.0
 20
0.0
 30
0.0
 70
   128
 71
   243
 72
   246
 73
   345
  0
VERTEX
  5
4C6
  8
0
 62
   253
 10
0.0
 20
0.0
 30
0.0
 70
   128
 71
   345
 72
   346
 73
   243
  0
VERTEX
  5
4C7
  8
0
 62
   253
 10
0.0
 20
0.0
 30
0.0
 70
   128
 71
   244
 72
   235
 73
   345
  0
VERTEX
  5
4C8
  8
0
 62
   253
 10
0.0
 20
0.0
 30
0.0
 70
   128
 71
   244
 72
   345
 73
   246
  0
VERTEX
  5
4C9
  8
0
 62
   253
 10
0.0
 20
0.0
 30
0.0
 70
   128
 71
   344
 72
   235
 73
   236
  0
VERTEX
  5
4CA
  8
0
 62
   253
 10
0.0
 20
0.0
 30
0.0
 70
   128
 71
   235
 72
   344
 73
   345
  0
VERTEX
  5
4CB
  8
0
 62
   253
 10
0.0
 20
0.0
 30
0.0
 70
   128
 71
   347
 72
   344
 73
   239
  0
VERTEX
  5
4CC
  8
0
 62
   253
 10
0.0
 20
0.0
 30
0.0
 70
   128
 71
   236
 72
   239
 73
   344
  0
VERTEX
  5
4CD
  8
0
 62
   253
 10
0.0
 20
0.0
 30
0.0
 70
   128
 71
   231
 72
   347
 73
   300
  0
VERTEX
  5
4CE
  8
0
 62
   253
 10
0.0
 20
0.0
 30
0.0
 70
   128
 71
   347
 72
   239
 73
   300
  0
VERTEX
  5
4CF
  8
0
 62
   253
 10
0.0
 20
0.0
 30
0.0
 70
   128
 71
   234
 72
   348
 73
   347
  0
VERTEX
  5
4D0
  8
0
 62
   253
 10
0.0
 20
0.0
 30
0.0
 70
   128
 71
   347
 72
   231
 73
   234
  0
VERTEX
  5
4D1
  8
0
 62
   253
 10
0.0
 20
0.0
 30
0.0
 70
   128
 71
   232
 72
   227
 73
   348
  0
VERTEX
  5
4D2
  8
0
 62
   253
 10
0.0
 20
0.0
 30
0.0
 70
   128
 71
   232
 72
   348
 73
   234
  0
VERTEX
  5
4D3
  8
0
 62
   253
 10
0.0
 20
0.0
 30
0.0
 70
   128
 71
   350
 72
   227
 73
   303
  0
VERTEX
  5
4D4
  8
0
 62
   253
 10
0.0
 20
0.0
 30
0.0
 70
   128
 71
   227
 72
   350
 73
   348
  0
VERTEX
  5
4D5
  8
0
 62
   253
 10
0.0
 20
0.0
 30
0.0
 70
   128
 71
   350
 72
   222
 73
   228
  0
VERTEX
  5
4D6
  8
0
 62
   253
 10
0.0
 20
0.0
 30
0.0
 70
   128
 71
   303
 72
   222
 73
   350
  0
VERTEX
  5
4D7
  8
0
 62
   253
 10
0.0
 20
0.0
 30
0.0
 70
   128
 71
   107
 72
   106
 73
   228
  0
VERTEX
  5
4D8
  8
0
 62
   253
 10
0.0
 20
0.0
 30
0.0
 70
   128
 71
   350
 72
   228
 73
   106
  0
VERTEX
  5
4D9
  8
0
 62
   253
 10
0.0
 20
0.0
 30
0.0
 70
   128
 71
   247
 72
   343
 73
   258
  0
VERTEX
  5
4DA
  8
0
 62
   253
 10
0.0
 20
0.0
 30
0.0
 70
   128
 71
   301
 72
   346
 73
   251
  0
VERTEX
  5
4DB
  8
0
 62
   253
 10
0.0
 20
0.0
 30
0.0
 70
   128
 71
   263
 72
   254
 73
   341
  0
VERTEX
  5
4DC
  8
0
 62
   253
 10
0.0
 20
0.0
 30
0.0
 70
   128
 71
   255
 72
   342
 73
   254
  0
VERTEX
  5
4DD
  8
0
 62
   253
 10
0.0
 20
0.0
 30
0.0
 70
   128
 71
   340
 72
   266
 73
   269
  0
VERTEX
  5
4DE
  8
0
 62
   253
 10
0.0
 20
0.0
 30
0.0
 70
   128
 71
   259
 72
   341
 73
   340
  0
VERTEX
  5
4DF
  8
0
 62
   253
 10
0.0
 20
0.0
 30
0.0
 70
   128
 71
   339
 72
   335
 73
   270
  0
VERTEX
  5
4E0
  8
0
 62
   253
 10
0.0
 20
0.0
 30
0.0
 70
   128
 71
   339
 72
   265
 73
   340
  0
VERTEX
  5
4E1
  8
0
 62
   253
 10
0.0
 20
0.0
 30
0.0
 70
   128
 71
   336
 72
   279
 73
   335
  0
VERTEX
  5
4E2
  8
0
 62
   253
 10
0.0
 20
0.0
 30
0.0
 70
   128
 71
   335
 72
   274
 73
   275
  0
VERTEX
  5
4E3
  8
0
 62
   253
 10
0.0
 20
0.0
 30
0.0
 70
   128
 71
   337
 72
   285
 73
   283
  0
VERTEX
  5
4E4
  8
0
 62
   253
 10
0.0
 20
0.0
 30
0.0
 70
   128
 71
   278
 72
   336
 73
   283
  0
VERTEX
  5
4E5
  8
0
 62
   253
 10
0.0
 20
0.0
 30
0.0
 70
   128
 71
   289
 72
   349
 73
   291
  0
VERTEX
  5
4E6
  8
0
 62
   253
 10
0.0
 20
0.0
 30
0.0
 70
   128
 71
   289
 72
   286
 73
   337
  0
VERTEX
  5
4E7
  8
0
 62
   253
 10
0.0
 20
0.0
 30
0.0
 70
   128
 71
   297
 72
   295
 73
   338
  0
VERTEX
  5
4E8
  8
0
 62
   253
 10
0.0
 20
0.0
 30
0.0
 70
   128
 71
   338
 72
   292
 73
   349
  0
VERTEX
  5
4E9
  8
0
 62
   253
 10
0.0
 20
0.0
 30
0.0
 70
   128
 71
   338
 72
    90
 73
   298
  0
VERTEX
  5
4EA
  8
0
 62
     9
 10
0.0
 20
0.0
 30
0.0
 70
   128
 71
   237
 72
   210
 73
   238
  0
VERTEX
  5
4EB
  8
0
 62
     9
 10
0.0
 20
0.0
 30
0.0
 70
   128
 71
   302
 72
   212
 73
   211
  0
VERTEX
  5
4EC
  8
0
 62
     9
 10
0.0
 20
0.0
 30
0.0
 70
   128
 71
   233
 72
   206
 73
   226
  0
VERTEX
  5
4ED
  8
0
 62
     9
 10
0.0
 20
0.0
 30
0.0
 70
   128
 71
   240
 72
   238
 73
   209
  0
VERTEX
  5
4EE
  8
0
 62
     9
 10
0.0
 20
0.0
 30
0.0
 70
   128
 71
   223
 72
   202
 73
   182
  0
VERTEX
  5
4EF
  8
0
 62
     9
 10
0.0
 20
0.0
 30
0.0
 70
   128
 71
   204
 72
   225
 73
   226
  0
VERTEX
  5
4F0
  8
0
 62
     9
 10
0.0
 20
0.0
 30
0.0
 70
   128
 71
   209
 72
   208
 73
   230
  0
VERTEX
  5
4F1
  8
0
 62
     9
 10
0.0
 20
0.0
 30
0.0
 70
   128
 71
   182
 72
   181
 73
   200
  0
VERTEX
  5
4F2
  8
0
 62
     9
 10
0.0
 20
0.0
 30
0.0
 70
   128
 71
   193
 72
   190
 73
   191
  0
VERTEX
  5
4F3
  8
0
 62
     9
 10
0.0
 20
0.0
 30
0.0
 70
   128
 71
   192
 72
   197
 73
   196
  0
VERTEX
  5
4F4
  8
0
 62
     9
 10
0.0
 20
0.0
 30
0.0
 70
   128
 71
   196
 72
   187
 73
   193
  0
VERTEX
  5
4F5
  8
0
 62
     9
 10
0.0
 20
0.0
 30
0.0
 70
   128
 71
   203
 72
   202
 73
   224
  0
VERTEX
  5
4F6
  8
0
 62
     9
 10
0.0
 20
0.0
 30
0.0
 70
   128
 71
   188
 72
   189
 73
   190
  0
VERTEX
  5
4F7
  8
0
 62
     9
 10
0.0
 20
0.0
 30
0.0
 70
   128
 71
   198
 72
   196
 73
   197
  0
VERTEX
  5
4F8
  8
0
 62
     9
 10
0.0
 20
0.0
 30
0.0
 70
   128
 71
   184
 72
   185
 73
   183
  0
VERTEX
  5
4F9
  8
0
 62
     9
 10
0.0
 20
0.0
 30
0.0
 70
   128
 71
   186
 72
   187
 73
   185
  0
VERTEX
  5
4FA
  8
0
 62
     9
 10
0.0
 20
0.0
 30
0.0
 70
   128
 71
   223
 72
   200
 73
   201
  0
VERTEX
  5
4FB
  8
0
 62
     9
 10
0.0
 20
0.0
 30
0.0
 70
   128
 71
   195
 72
   196
 73
   194
  0
VERTEX
  5
4FC
  8
0
 62
     9
 10
0.0
 20
0.0
 30
0.0
 70
   128
 71
   182
 72
   180
 73
   181
  0
VERTEX
  5
4FD
  8
0
 62
     9
 10
0.0
 20
0.0
 30
0.0
 70
   128
 71
   187
 72
   188
 73
   190
  0
VERTEX
  5
4FE
  8
0
 62
     9
 10
0.0
 20
0.0
 30
0.0
 70
   128
 71
   187
 72
   190
 73
   193
  0
VERTEX
  5
4FF
  8
0
 62
     9
 10
0.0
 20
0.0
 30
0.0
 70
   128
 71
   185
 72
   187
 73
   196
  0
VERTEX
  5
500
  8
0
 62
     9
 10
0.0
 20
0.0
 30
0.0
 70
   128
 71
   193
 72
   194
 73
   196
  0
VERTEX
  5
501
  8
0
 62
     9
 10
0.0
 20
0.0
 30
0.0
 70
   128
 71
   198
 72
   183
 73
   185
  0
VERTEX
  5
502
  8
0
 62
     9
 10
0.0
 20
0.0
 30
0.0
 70
   128
 71
   198
 72
   185
 73
   196
  0
VERTEX
  5
503
  8
0
 62
     9
 10
0.0
 20
0.0
 30
0.0
 70
   128
 71
   198
 72
   199
 73
   181
  0
VERTEX
  5
504
  8
0
 62
     9
 10
0.0
 20
0.0
 30
0.0
 70
   128
 71
   181
 72
   183
 73
   198
  0
VERTEX
  5
505
  8
0
 62
     9
 10
0.0
 20
0.0
 30
0.0
 70
   128
 71
   223
 72
   182
 73
   200
  0
VERTEX
  5
506
  8
0
 62
     9
 10
0.0
 20
0.0
 30
0.0
 70
   128
 71
   200
 72
   181
 73
   199
  0
VERTEX
  5
507
  8
0
 62
     9
 10
0.0
 20
0.0
 30
0.0
 70
   128
 71
   203
 72
   224
 73
   225
  0
VERTEX
  5
508
  8
0
 62
     9
 10
0.0
 20
0.0
 30
0.0
 70
   128
 71
   223
 72
   224
 73
   202
  0
VERTEX
  5
509
  8
0
 62
     9
 10
0.0
 20
0.0
 30
0.0
 70
   128
 71
   204
 72
   203
 73
   225
  0
VERTEX
  5
50A
  8
0
 62
     9
 10
0.0
 20
0.0
 30
0.0
 70
   128
 71
   206
 72
   205
 73
   226
  0
VERTEX
  5
50B
  8
0
 62
     9
 10
0.0
 20
0.0
 30
0.0
 70
   128
 71
   205
 72
   204
 73
   226
  0
VERTEX
  5
50C
  8
0
 62
     9
 10
0.0
 20
0.0
 30
0.0
 70
   128
 71
   207
 72
   206
 73
   229
  0
VERTEX
  5
50D
  8
0
 62
     9
 10
0.0
 20
0.0
 30
0.0
 70
   128
 71
   229
 72
   206
 73
   233
  0
VERTEX
  5
50E
  8
0
 62
     9
 10
0.0
 20
0.0
 30
0.0
 70
   128
 71
   230
 72
   208
 73
   207
  0
VERTEX
  5
50F
  8
0
 62
     9
 10
0.0
 20
0.0
 30
0.0
 70
   128
 71
   207
 72
   229
 73
   230
  0
VERTEX
  5
510
  8
0
 62
     9
 10
0.0
 20
0.0
 30
0.0
 70
   128
 71
   210
 72
   209
 73
   238
  0
VERTEX
  5
511
  8
0
 62
     9
 10
0.0
 20
0.0
 30
0.0
 70
   128
 71
   209
 72
   230
 73
   240
  0
VERTEX
  5
512
  8
0
 62
     9
 10
0.0
 20
0.0
 30
0.0
 70
   128
 71
   237
 72
   302
 73
   211
  0
VERTEX
  5
513
  8
0
 62
     9
 10
0.0
 20
0.0
 30
0.0
 70
   128
 71
   210
 72
   237
 73
   211
  0
VERTEX
  5
514
  8
0
 62
     9
 10
0.0
 20
0.0
 30
0.0
 70
   128
 71
   245
 72
   212
 73
   302
  0
VERTEX
  5
515
  8
0
 62
     9
 10
0.0
 20
0.0
 30
0.0
 70
   128
 71
   214
 72
   213
 73
   245
  0
VERTEX
  5
516
  8
0
 62
     9
 10
0.0
 20
0.0
 30
0.0
 70
   128
 71
   245
 72
   213
 73
   212
  0
VERTEX
  5
517
  8
0
 62
     9
 10
0.0
 20
0.0
 30
0.0
 70
   128
 71
   242
 72
   214
 73
   241
  0
VERTEX
  5
518
  8
0
 62
     9
 10
0.0
 20
0.0
 30
0.0
 70
   128
 71
   214
 72
   245
 73
   241
  0
VERTEX
  5
519
  8
0
 62
     9
 10
0.0
 20
0.0
 30
0.0
 70
   128
 71
   242
 72
   252
 73
   215
  0
VERTEX
  5
51A
  8
0
 62
     9
 10
0.0
 20
0.0
 30
0.0
 70
   128
 71
   215
 72
   214
 73
   242
  0
VERTEX
  5
51B
  8
0
 62
     9
 10
0.0
 20
0.0
 30
0.0
 70
   128
 71
   217
 72
   216
 73
   252
  0
VERTEX
  5
51C
  8
0
 62
     9
 10
0.0
 20
0.0
 30
0.0
 70
   128
 71
   252
 72
   216
 73
   215
  0
VERTEX
  5
51D
  8
0
 62
     9
 10
0.0
 20
0.0
 30
0.0
 70
   128
 71
   249
 72
   217
 73
   250
  0
VERTEX
  5
51E
  8
0
 62
     9
 10
0.0
 20
0.0
 30
0.0
 70
   128
 71
   217
 72
   252
 73
   250
  0
VERTEX
  5
51F
  8
0
 62
     9
 10
0.0
 20
0.0
 30
0.0
 70
   128
 71
   249
 72
   256
 73
   218
  0
VERTEX
  5
520
  8
0
 62
     9
 10
0.0
 20
0.0
 30
0.0
 70
   128
 71
   218
 72
   217
 73
   249
  0
VERTEX
  5
521
  8
0
 62
     9
 10
0.0
 20
0.0
 30
0.0
 70
   128
 71
   219
 72
   256
 73
   257
  0
VERTEX
  5
522
  8
0
 62
     9
 10
0.0
 20
0.0
 30
0.0
 70
   128
 71
   256
 72
   219
 73
   218
  0
VERTEX
  5
523
  8
0
 62
     9
 10
0.0
 20
0.0
 30
0.0
 70
   128
 71
   253
 72
   220
 73
   257
  0
VERTEX
  5
524
  8
0
 62
     9
 10
0.0
 20
0.0
 30
0.0
 70
   128
 71
   219
 72
   257
 73
   220
  0
VERTEX
  5
525
  8
0
 62
     9
 10
0.0
 20
0.0
 30
0.0
 70
   128
 71
   264
 72
   260
 73
   253
  0
VERTEX
  5
526
  8
0
 62
     9
 10
0.0
 20
0.0
 30
0.0
 70
   128
 71
   253
 72
   260
 73
   299
  0
VERTEX
  5
527
  8
0
 62
     9
 10
0.0
 20
0.0
 30
0.0
 70
   128
 71
   253
 72
   299
 73
   220
  0
VERTEX
  5
528
  8
0
 62
     9
 10
0.0
 20
0.0
 30
0.0
 70
   128
 71
   261
 72
   268
 73
   267
  0
VERTEX
  5
529
  8
0
 62
     9
 10
0.0
 20
0.0
 30
0.0
 70
   128
 71
   267
 72
   288
 73
   294
  0
VERTEX
  5
52A
  8
0
 62
     9
 10
0.0
 20
0.0
 30
0.0
 70
   128
 71
   267
 72
   273
 73
   272
  0
VERTEX
  5
52B
  8
0
 62
     9
 10
0.0
 20
0.0
 30
0.0
 70
   128
 71
   294
 72
   288
 73
   293
  0
VERTEX
  5
52C
  8
0
 62
     9
 10
0.0
 20
0.0
 30
0.0
 70
   128
 71
   272
 72
   277
 73
   281
  0
VERTEX
  5
52D
  8
0
 62
     9
 10
0.0
 20
0.0
 30
0.0
 70
   128
 71
   282
 72
   288
 73
   272
  0
VERTEX
  5
52E
  8
0
 62
     9
 10
0.0
 20
0.0
 30
0.0
 70
   128
 71
   282
 72
   281
 73
   280
  0
VERTEX
  5
52F
  8
0
 62
     9
 10
0.0
 20
0.0
 30
0.0
 70
   128
 71
   276
 72
   281
 73
   277
  0
VERTEX
  5
530
  8
0
 62
     9
 10
0.0
 20
0.0
 30
0.0
 70
   128
 71
   284
 72
   288
 73
   282
  0
VERTEX
  5
531
  8
0
 62
     9
 10
0.0
 20
0.0
 30
0.0
 70
   128
 71
   272
 72
   281
 73
   282
  0
VERTEX
  5
532
  8
0
 62
     9
 10
0.0
 20
0.0
 30
0.0
 70
   128
 71
   267
 72
   272
 73
   288
  0
VERTEX
  5
533
  8
0
 62
     9
 10
0.0
 20
0.0
 30
0.0
 70
   128
 71
   288
 72
   284
 73
   287
  0
VERTEX
  5
534
  8
0
 62
     9
 10
0.0
 20
0.0
 30
0.0
 70
   128
 71
   288
 72
   290
 73
   293
  0
VERTEX
  5
535
  8
0
 62
     9
 10
0.0
 20
0.0
 30
0.0
 70
   128
 71
   261
 72
   267
 73
   294
  0
VERTEX
  5
536
  8
0
 62
     9
 10
0.0
 20
0.0
 30
0.0
 70
   128
 71
   294
 72
   296
 73
   260
  0
VERTEX
  5
537
  8
0
 62
     9
 10
0.0
 20
0.0
 30
0.0
 70
   128
 71
   261
 72
   294
 73
   260
  0
VERTEX
  5
538
  8
0
 62
     9
 10
0.0
 20
0.0
 30
0.0
 70
   128
 71
   299
 72
   221
 73
   220
  0
VERTEX
  5
539
  8
0
 62
     9
 10
0.0
 20
0.0
 30
0.0
 70
   128
 71
   299
 72
   260
 73
   296
  0
SEQEND
  5
53A
  8
0
  0
ENDBLK
  5
53D
  8
0
  0
BLOCK
  8
0
  2
41
 70
     0
 10
0.0
 20
0.0
 30
0.0
  3
41
  1

  0
POLYLINE
  5
53F
  8
0
 62
     9
 66
     1
 10
0.0
 20
0.0
 30
0.0
 70
    64
 71
   130
 72
   200
  0
VERTEX
  5
540
  8
0
 10
63.01277923583984
 20
5.896955013275146
 30
25.94461441040039
 70
   192
  0
VERTEX
  5
541
  8
0
 10
59.17702484130859
 20
5.889150142669678
 30
25.98461151123047
 70
   192
  0
VERTEX
  5
542
  8
0
 10
63.01299285888672
 20
5.896878242492676
 30
31.19672584533691
 70
   192
  0
VERTEX
  5
543
  8
0
 10
59.17908096313477
 20
5.889966011047363
 30
31.20126152038574
 70
   192
  0
VERTEX
  5
544
  8
0
 10
56.08586883544922
 20
3.624629497528076
 30
26.42581367492676
 70
   192
  0
VERTEX
  5
545
  8
0
 10
54.91184997558594
 20
-0.0000000000002373
 30
26.67802810668945
 70
   192
  0
VERTEX
  5
546
  8
0
 10
54.91184997558594
 20
-0.0000000000002348
 30
31.75
 70
   192
  0
VERTEX
  5
547
  8
0
 10
56.08541107177734
 20
3.623642921447754
 30
31.54718971252441
 70
   192
  0
VERTEX
  5
548
  8
0
 10
66.11357879638672
 20
3.659720420837402
 30
31.53220367431641
 70
   192
  0
VERTEX
  5
549
  8
0
 10
66.11290740966797
 20
3.660714626312256
 30
26.31960678100586
 70
   192
  0
VERTEX
  5
54A
  8
0
 10
67.31185150146484
 20
-0.0000000000002718
 30
31.75
 70
   192
  0
VERTEX
  5
54B
  8
0
 10
67.31185150146484
 20
-0.0000000000002744
 30
26.56981468200684
 70
   192
  0
VERTEX
  5
54C
  8
0
 10
78.31185150146484
 20
-31.74777412414551
 30
0.0142747042700648
 70
   192
  0
VERTEX
  5
54D
  8
0
 10
46.81185150146484
 20
-28.98690605163574
 30
-3.505815505981445
 70
   192
  0
VERTEX
  5
54E
  8
0
 10
46.81185150146484
 20
-28.98110389709473
 30
3.536915063858032
 70
   192
  0
VERTEX
  5
54F
  8
0
 10
46.81185150146484
 20
-27.30848121643066
 30
-10.34847927093506
 70
   192
  0
VERTEX
  5
550
  8
0
 10
78.31185150146484
 20
-30.66972160339355
 30
-8.211291313171387
 70
   192
  0
VERTEX
  5
551
  8
0
 10
78.31185150146484
 20
-27.50295066833496
 30
-15.86043834686279
 70
   192
  0
VERTEX
  5
552
  8
0
 10
46.81185150146484
 20
-24.04182624816895
 30
-16.5980224609375
 70
   192
  0
VERTEX
  5
553
  8
0
 10
78.31185150146484
 20
-22.45558738708496
 30
-22.4441032409668
 70
   192
  0
VERTEX
  5
554
  8
0
 10
46.81185150146484
 20
-19.37432670593262
 30
-21.86637878417969
 70
   192
  0
VERTEX
  5
555
  8
0
 10
46.81185150146484
 20
-13.58176612854004
 30
-25.86452484130859
 70
   192
  0
VERTEX
  5
556
  8
0
 10
78.31185150146484
 20
-15.88709354400635
 30
-27.48823547363281
 70
   192
  0
VERTEX
  5
557
  8
0
 10
78.31185150146484
 20
-8.235282897949219
 30
-30.66183662414551
 70
   192
  0
VERTEX
  5
558
  8
0
 10
46.81185150146484
 20
-6.998251914978027
 30
-28.36431694030762
 70
   192
  0
VERTEX
  5
559
  8
0
 10
78.31185150146484
 20
-0.0000000000002918
 30
-31.75
 70
   192
  0
VERTEX
  5
55A
  8
0
 10
48.61185073852539
 20
0.0000001265558325
 30
-31.74556159973145
 70
   192
  0
VERTEX
  5
55B
  8
0
 10
78.31185150146484
 20
-30.66393661499023
 30
8.22753620147705
 70
   192
  0
VERTEX
  5
55C
  8
0
 10
46.81185150146484
 20
-27.28066635131836
 30
10.36616134643555
 70
   192
  0
VERTEX
  5
55D
  8
0
 10
78.31185150146484
 20
-27.49660682678223
 30
15.87568092346191
 70
   192
  0
VERTEX
  5
55E
  8
0
 10
46.81185150146484
 20
-23.99985504150391
 30
16.58967590332031
 70
   192
  0
VERTEX
  5
55F
  8
0
 10
78.31185150146484
 20
-22.4357967376709
 30
22.46101760864258
 70
   192
  0
VERTEX
  5
560
  8
0
 10
78.31185150146484
 20
-15.86803722381592
 30
27.4986572265625
 70
   192
  0
VERTEX
  5
561
  8
0
 10
46.81185150146484
 20
-19.32823753356934
 30
21.85689926147461
 70
   192
  0
VERTEX
  5
562
  8
0
 10
46.81185150146484
 20
-13.53935432434082
 30
25.84912872314453
 70
   192
  0
VERTEX
  5
563
  8
0
 10
78.31185150146484
 20
-8.21768856048584
 30
30.66874694824219
 70
   192
  0
VERTEX
  5
564
  8
0
 10
66.10871124267578
 20
-3.666146993637085
 30
31.53145027160645
 70
   192
  0
VERTEX
  5
565
  8
0
 10
78.31185150146484
 20
-0.0000003849086738
 30
31.74617767333984
 70
   192
  0
VERTEX
  5
566
  8
0
 10
46.81185150146484
 20
-6.968581199645996
 30
28.34056663513184
 70
   192
  0
VERTEX
  5
567
  8
0
 10
56.08712387084961
 20
-3.625731945037842
 30
31.54693984985352
 70
   192
  0
VERTEX
  5
568
  8
0
 10
59.18161010742188
 20
-5.890926361083984
 30
31.20107460021973
 70
   192
  0
VERTEX
  5
569
  8
0
 10
63.00836181640625
 20
-5.898440837860107
 30
31.19643974304199
 70
   192
  0
VERTEX
  5
56A
  8
0
 10
48.61185073852539
 20
-0.00000000000022
 30
31.75
 70
   192
  0
VERTEX
  5
56B
  8
0
 10
78.31185150146484
 20
-22.65097618103027
 30
3.98664402961731
 70
   192
  0
VERTEX
  5
56C
  8
0
 10
86.31185150146484
 20
-22.65120887756348
 30
-3.985129117965698
 70
   192
  0
VERTEX
  5
56D
  8
0
 10
78.31185150146484
 20
-22.64749145507812
 30
-4.004798412322998
 70
   192
  0
VERTEX
  5
56E
  8
0
 10
86.31185150146484
 20
-19.92303085327148
 30
-11.49002075195312
 70
   192
  0
VERTEX
  5
56F
  8
0
 10
78.31185150146484
 20
-19.91064834594727
 30
-11.51084995269775
 70
   192
  0
VERTEX
  5
570
  8
0
 10
78.31185150146484
 20
-14.77336978912354
 30
-17.62600326538086
 70
   192
  0
VERTEX
  5
571
  8
0
 10
86.31185150146484
 20
-14.78981399536133
 30
-17.61382675170898
 70
   192
  0
VERTEX
  5
572
  8
0
 10
78.31185150146484
 20
-7.858771324157715
 30
-21.61464881896973
 70
   192
  0
VERTEX
  5
573
  8
0
 10
86.31185150146484
 20
-7.870721817016602
 30
-21.61114883422852
 70
   192
  0
VERTEX
  5
574
  8
0
 10
78.31185150146484
 20
-0.0000000000003106
 30
-23.0
 70
   192
  0
VERTEX
  5
575
  8
0
 10
86.31185150146484
 20
-0.0000000000003241
 30
-23.0
 70
   192
  0
VERTEX
  5
576
  8
0
 10
86.31185150146484
 20
-22.64820289611816
 30
4.000021934509277
 70
   192
  0
VERTEX
  5
577
  8
0
 10
86.31185150146484
 20
-19.91948699951172
 30
11.49839019775391
 70
   192
  0
VERTEX
  5
578
  8
0
 10
78.31185150146484
 20
-19.91961479187012
 30
11.49664974212646
 70
   192
  0
VERTEX
  5
579
  8
0
 10
78.31185150146484
 20
-14.78967094421387
 30
17.61222457885742
 70
   192
  0
VERTEX
  5
57A
  8
0
 10
86.31185150146484
 20
-14.77943420410156
 30
17.62118148803711
 70
   192
  0
VERTEX
  5
57B
  8
0
 10
78.31185150146484
 20
-7.876229286193848
 30
21.60754585266113
 70
   192
  0
VERTEX
  5
57C
  8
0
 10
86.31185150146484
 20
-7.862348079681396
 30
21.61426544189453
 70
   192
  0
VERTEX
  5
57D
  8
0
 10
86.31185150146484
 20
-0.0000041185890041
 30
22.99554824829102
 70
   192
  0
VERTEX
  5
57E
  8
0
 10
78.31185150146484
 20
0.0000022963906758
 30
22.99706077575684
 70
   192
  0
VERTEX
  5
57F
  8
0
 10
86.31185150146484
 20
14.77008724212646
 30
-17.6270923614502
 70
   192
  0
VERTEX
  5
580
  8
0
 10
86.31185150146484
 20
22.646240234375
 30
-4.006549835205078
 70
   192
  0
VERTEX
  5
581
  8
0
 10
86.31185150146484
 20
19.91456031799316
 30
-11.50664901733398
 70
   192
  0
VERTEX
  5
582
  8
0
 10
86.31185150146484
 20
7.870792865753174
 30
21.61090087890625
 70
   192
  0
VERTEX
  5
583
  8
0
 10
86.31185150146484
 20
14.7880277633667
 30
17.6127872467041
 70
   192
  0
VERTEX
  5
584
  8
0
 10
86.31185150146484
 20
7.86223030090332
 30
-21.61440277099609
 70
   192
  0
VERTEX
  5
585
  8
0
 10
86.31185150146484
 20
22.65079498291016
 30
3.990885734558105
 70
   192
  0
VERTEX
  5
586
  8
0
 10
86.31185150146484
 20
19.91830444335938
 30
11.49865245819092
 70
   192
  0
VERTEX
  5
587
  8
0
 10
78.31185150146484
 20
7.871115207672119
 30
-21.61100578308105
 70
   192
  0
VERTEX
  5
588
  8
0
 10
78.31185150146484
 20
22.65149879455566
 30
-3.983475923538208
 70
   192
  0
VERTEX
  5
589
  8
0
 10
78.31185150146484
 20
19.92366027832031
 30
-11.48893260955811
 70
   192
  0
VERTEX
  5
58A
  8
0
 10
78.31185150146484
 20
14.79045677185059
 30
-17.6132869720459
 70
   192
  0
VERTEX
  5
58B
  8
0
 10
78.31185150146484
 20
19.9182300567627
 30
11.50057125091553
 70
   192
  0
VERTEX
  5
58C
  8
0
 10
78.31185150146484
 20
22.64784049987793
 30
4.002084255218506
 70
   192
  0
VERTEX
  5
58D
  8
0
 10
78.31185150146484
 20
7.859192371368408
 30
21.61541557312012
 70
   192
  0
VERTEX
  5
58E
  8
0
 10
78.31185150146484
 20
14.77717971801758
 30
17.62307357788086
 70
   192
  0
VERTEX
  5
58F
  8
0
 10
78.31185150146484
 20
30.66528129577637
 30
-8.225671768188477
 70
   192
  0
VERTEX
  5
590
  8
0
 10
78.31185150146484
 20
8.221678733825684
 30
30.66597747802734
 70
   192
  0
VERTEX
  5
591
  8
0
 10
78.31185150146484
 20
31.74830055236816
 30
-0.0127789210528135
 70
   192
  0
VERTEX
  5
592
  8
0
 10
78.31185150146484
 20
22.44475173950195
 30
-22.4551887512207
 70
   192
  0
VERTEX
  5
593
  8
0
 10
78.31185150146484
 20
30.66960716247559
 30
8.208499908447266
 70
   192
  0
VERTEX
  5
594
  8
0
 10
78.31185150146484
 20
15.86198043823242
 30
-27.50290489196777
 70
   192
  0
VERTEX
  5
595
  8
0
 10
78.31185150146484
 20
8.206647872924805
 30
-30.67045021057129
 70
   192
  0
VERTEX
  5
596
  8
0
 10
78.31185150146484
 20
15.87784004211426
 30
27.49422073364258
 70
   192
  0
VERTEX
  5
597
  8
0
 10
78.31185150146484
 20
27.4985179901123
 30
15.86966705322266
 70
   192
  0
VERTEX
  5
598
  8
0
 10
78.31185150146484
 20
22.45963096618652
 30
22.43894004821777
 70
   192
  0
VERTEX
  5
599
  8
0
 10
78.31185150146484
 20
27.48637771606445
 30
-15.88868713378906
 70
   192
  0
VERTEX
  5
59A
  8
0
 10
46.81185150146484
 20
6.968581199645996
 30
-28.34056663513184
 70
   192
  0
VERTEX
  5
59B
  8
0
 10
46.81185150146484
 20
23.99985504150391
 30
-16.58967590332031
 70
   192
  0
VERTEX
  5
59C
  8
0
 10
46.81185150146484
 20
19.32823753356934
 30
-21.85689926147461
 70
   192
  0
VERTEX
  5
59D
  8
0
 10
46.81185150146484
 20
13.53935432434082
 30
-25.84912872314453
 70
   192
  0
VERTEX
  5
59E
  8
0
 10
46.81185150146484
 20
28.98690605163574
 30
3.505815505981445
 70
   192
  0
VERTEX
  5
59F
  8
0
 10
46.81185150146484
 20
27.28066635131836
 30
-10.36616134643555
 70
   192
  0
VERTEX
  5
5A0
  8
0
 10
46.81185150146484
 20
28.98110389709473
 30
-3.536915063858032
 70
   192
  0
VERTEX
  5
5A1
  8
0
 10
46.81185150146484
 20
24.04182624816895
 30
16.5980224609375
 70
   192
  0
VERTEX
  5
5A2
  8
0
 10
46.81185150146484
 20
27.30848121643066
 30
10.34847927093506
 70
   192
  0
VERTEX
  5
5A3
  8
0
 10
46.81185150146484
 20
6.998251914978027
 30
28.36431694030762
 70
   192
  0
VERTEX
  5
5A4
  8
0
 10
46.81185150146484
 20
13.58176612854004
 30
25.86452484130859
 70
   192
  0
VERTEX
  5
5A5
  8
0
 10
46.81185150146484
 20
19.37432670593262
 30
21.86637878417969
 70
   192
  0
VERTEX
  5
5A6
  8
0
 10
56.11376571655273
 20
-3.664427280426025
 30
26.40722274780273
 70
   192
  0
VERTEX
  5
5A7
  8
0
 10
66.1350326538086
 20
-3.628325223922729
 30
26.33685493469238
 70
   192
  0
VERTEX
  5
5A8
  8
0
 10
63.04004287719727
 20
-5.891494274139404
 30
25.94949531555176
 70
   192
  0
VERTEX
  5
5A9
  8
0
 10
59.21055221557617
 20
-5.896949291229248
 30
25.97859191894531
 70
   192
  0
VERTEX
  5
5AA
  8
0
 10
46.81010437011719
 20
-16.79337692260742
 30
-22.63637733459473
 70
   192
  0
VERTEX
  5
5AB
  8
0
 10
75.31185150146484
 20
-20.75619125366211
 30
-18.66177940368652
 70
   192
  0
VERTEX
  5
5AC
  8
0
 10
46.81010437011719
 20
-21.97450256347656
 30
-17.65444374084473
 70
   192
  0
VERTEX
  5
5AD
  8
0
 10
75.31185150146484
 20
3.101563692092896
 30
-27.7528018951416
 70
   192
  0
VERTEX
  5
5AE
  8
0
 10
46.81010437011719
 20
3.597862243652344
 30
-27.94407272338867
 70
   192
  0
VERTEX
  5
5AF
  8
0
 10
46.81010437011719
 20
10.54261207580566
 30
-26.11963653564453
 70
   192
  0
VERTEX
  5
5B0
  8
0
 10
46.81010437011719
 20
-10.53052043914795
 30
-26.1389217376709
 70
   192
  0
VERTEX
  5
5B1
  8
0
 10
52.61185073852539
 20
-14.53653526306152
 30
-24.07801818847656
 70
   192
  0
VERTEX
  5
5B2
  8
0
 10
75.31185150146484
 20
-14.77530288696289
 30
-23.69911575317383
 70
   192
  0
VERTEX
  5
5B3
  8
0
 10
75.31185150146484
 20
-5.26118278503418
 30
-27.42548942565918
 70
   192
  0
VERTEX
  5
5B4
  8
0
 10
46.81010437011719
 20
21.96115303039551
 30
-17.63046073913574
 70
   192
  0
VERTEX
  5
5B5
  8
0
 10
75.31185150146484
 20
24.64534568786621
 30
-13.13638401031494
 70
   192
  0
VERTEX
  5
5B6
  8
0
 10
75.31185150146484
 20
18.25789833068848
 30
-21.14094734191895
 70
   192
  0
VERTEX
  5
5B7
  8
0
 10
75.31185150146484
 20
11.17920875549316
 30
-25.59488677978516
 70
   192
  0
VERTEX
  5
5B8
  8
0
 10
46.81010437011719
 20
16.79864120483398
 30
-22.60390663146973
 70
   192
  0
VERTEX
  5
5B9
  8
0
 10
52.41359710693359
 20
24.08130645751953
 30
-14.53443813323975
 70
   192
  0
VERTEX
  5
5BA
  8
0
 10
46.81010437011719
 20
25.70708656311035
 30
-11.50856113433838
 70
   192
  0
VERTEX
  5
5BB
  8
0
 10
75.31185150146484
 20
27.51125144958496
 30
-4.805070877075195
 70
   192
  0
VERTEX
  5
5BC
  8
0
 10
47.00753021240234
 20
27.84296226501465
 30
-4.311017513275146
 70
   192
  0
VERTEX
  5
5BD
  8
0
 10
46.81010437011719
 20
-3.579827547073364
 30
-27.94672203063965
 70
   192
  0
VERTEX
  5
5BE
  8
0
 10
75.31185150146484
 20
-27.51125144958496
 30
-4.805070877075195
 70
   192
  0
VERTEX
  5
5BF
  8
0
 10
46.81010437011719
 20
-25.71768379211426
 30
-11.53763484954834
 70
   192
  0
VERTEX
  5
5C0
  8
0
 10
75.31185150146484
 20
-25.10624885559082
 30
-12.19882297515869
 70
   192
  0
VERTEX
  5
5C1
  8
0
 10
46.81010437011719
 20
-27.78890800476074
 30
-4.65715503692627
 70
   192
  0
VERTEX
  5
5C2
  8
0
 62
     9
 10
0.0
 20
0.0
 30
0.0
 70
   128
 71
     3
 72
     2
 73
     1
  0
VERTEX
  5
5C3
  8
0
 62
     9
 10
0.0
 20
0.0
 30
0.0
 70
   128
 71
     4
 72
     2
 73
     3
  0
VERTEX
  5
5C4
  8
0
 62
     9
 10
0.0
 20
0.0
 30
0.0
 70
   128
 71
     2
 72
     4
 73
     5
  0
VERTEX
  5
5C5
  8
0
 62
     9
 10
0.0
 20
0.0
 30
0.0
 70
   128
 71
     8
 72
     7
 73
     6
  0
VERTEX
  5
5C6
  8
0
 62
     9
 10
0.0
 20
0.0
 30
0.0
 70
   128
 71
     5
 72
     4
 73
     8
  0
VERTEX
  5
5C7
  8
0
 62
     9
 10
0.0
 20
0.0
 30
0.0
 70
   128
 71
     5
 72
     8
 73
     6
  0
VERTEX
  5
5C8
  8
0
 62
     9
 10
0.0
 20
0.0
 30
0.0
 70
   128
 71
     9
 72
     3
 73
     1
  0
VERTEX
  5
5C9
  8
0
 62
     9
 10
0.0
 20
0.0
 30
0.0
 70
   128
 71
     9
 72
     1
 73
    10
  0
VERTEX
  5
5CA
  8
0
 62
     9
 10
0.0
 20
0.0
 30
0.0
 70
   128
 71
    10
 72
    12
 73
    11
  0
VERTEX
  5
5CB
  8
0
 62
     9
 10
0.0
 20
0.0
 30
0.0
 70
   128
 71
    10
 72
    11
 73
     9
  0
VERTEX
  5
5CC
  8
0
 62
     9
 10
0.0
 20
0.0
 30
0.0
 70
   128
 71
    15
 72
    14
 73
    13
  0
VERTEX
  5
5CD
  8
0
 62
     9
 10
0.0
 20
0.0
 30
0.0
 70
   128
 71
    17
 72
    14
 73
    16
  0
VERTEX
  5
5CE
  8
0
 62
     9
 10
0.0
 20
0.0
 30
0.0
 70
   128
 71
    14
 72
    17
 73
    13
  0
VERTEX
  5
5CF
  8
0
 62
     9
 10
0.0
 20
0.0
 30
0.0
 70
   128
 71
    19
 72
    18
 73
    16
  0
VERTEX
  5
5D0
  8
0
 62
     9
 10
0.0
 20
0.0
 30
0.0
 70
   128
 71
    17
 72
    16
 73
    18
  0
VERTEX
  5
5D1
  8
0
 62
     9
 10
0.0
 20
0.0
 30
0.0
 70
   128
 71
    19
 72
    21
 73
    20
  0
VERTEX
  5
5D2
  8
0
 62
     9
 10
0.0
 20
0.0
 30
0.0
 70
   128
 71
    20
 72
    18
 73
    19
  0
VERTEX
  5
5D3
  8
0
 62
     9
 10
0.0
 20
0.0
 30
0.0
 70
   128
 71
    23
 72
    21
 73
    22
  0
VERTEX
  5
5D4
  8
0
 62
     9
 10
0.0
 20
0.0
 30
0.0
 70
   128
 71
    21
 72
    23
 73
    20
  0
VERTEX
  5
5D5
  8
0
 62
     9
 10
0.0
 20
0.0
 30
0.0
 70
   128
 71
    25
 72
    24
 73
    22
  0
VERTEX
  5
5D6
  8
0
 62
     9
 10
0.0
 20
0.0
 30
0.0
 70
   128
 71
    23
 72
    22
 73
    24
  0
VERTEX
  5
5D7
  8
0
 62
     9
 10
0.0
 20
0.0
 30
0.0
 70
   128
 71
    26
 72
    24
 73
    25
  0
VERTEX
  5
5D8
  8
0
 62
     9
 10
0.0
 20
0.0
 30
0.0
 70
   128
 71
    27
 72
    26
 73
    25
  0
VERTEX
  5
5D9
  8
0
 62
     9
 10
0.0
 20
0.0
 30
0.0
 70
   128
 71
    13
 72
    28
 73
    15
  0
VERTEX
  5
5DA
  8
0
 62
     9
 10
0.0
 20
0.0
 30
0.0
 70
   128
 71
    30
 72
    29
 73
    28
  0
VERTEX
  5
5DB
  8
0
 62
     9
 10
0.0
 20
0.0
 30
0.0
 70
   128
 71
    15
 72
    28
 73
    29
  0
VERTEX
  5
5DC
  8
0
 62
     9
 10
0.0
 20
0.0
 30
0.0
 70
   128
 71
    30
 72
    32
 73
    31
  0
VERTEX
  5
5DD
  8
0
 62
     9
 10
0.0
 20
0.0
 30
0.0
 70
   128
 71
    31
 72
    29
 73
    30
  0
VERTEX
  5
5DE
  8
0
 62
     9
 10
0.0
 20
0.0
 30
0.0
 70
   128
 71
    34
 72
    32
 73
    33
  0
VERTEX
  5
5DF
  8
0
 62
     9
 10
0.0
 20
0.0
 30
0.0
 70
   128
 71
    32
 72
    34
 73
    31
  0
VERTEX
  5
5E0
  8
0
 62
     9
 10
0.0
 20
0.0
 30
0.0
 70
   128
 71
    36
 72
    35
 73
    33
  0
VERTEX
  5
5E1
  8
0
 62
     9
 10
0.0
 20
0.0
 30
0.0
 70
   128
 71
    34
 72
    33
 73
    35
  0
VERTEX
  5
5E2
  8
0
 62
     9
 10
0.0
 20
0.0
 30
0.0
 70
   128
 71
    38
 72
    11
 73
    37
  0
VERTEX
  5
5E3
  8
0
 62
     9
 10
0.0
 20
0.0
 30
0.0
 70
   128
 71
    39
 72
    35
 73
    36
  0
VERTEX
  5
5E4
  8
0
 62
     9
 10
0.0
 20
0.0
 30
0.0
 70
   128
 71
    39
 72
    41
 73
    40
  0
VERTEX
  5
5E5
  8
0
 62
     9
 10
0.0
 20
0.0
 30
0.0
 70
   128
 71
    36
 72
    37
 73
    42
  0
VERTEX
  5
5E6
  8
0
 62
     9
 10
0.0
 20
0.0
 30
0.0
 70
   128
 71
    38
 72
    37
 73
    36
  0
VERTEX
  5
5E7
  8
0
 62
     9
 10
0.0
 20
0.0
 30
0.0
 70
   128
 71
    39
 72
    42
 73
    41
  0
VERTEX
  5
5E8
  8
0
 62
     9
 10
0.0
 20
0.0
 30
0.0
 70
   128
 71
    36
 72
    42
 73
    39
  0
VERTEX
  5
5E9
  8
0
 62
     9
 10
0.0
 20
0.0
 30
0.0
 70
   128
 71
    40
 72
    43
 73
    39
  0
VERTEX
  5
5EA
  8
0
 62
     9
 10
0.0
 20
0.0
 30
0.0
 70
   128
 71
    43
 72
    40
 73
     7
  0
VERTEX
  5
5EB
  8
0
 62
     9
 10
0.0
 20
0.0
 30
0.0
 70
   128
 71
    46
 72
    45
 73
    44
  0
VERTEX
  5
5EC
  8
0
 62
     9
 10
0.0
 20
0.0
 30
0.0
 70
   128
 71
    46
 72
    48
 73
    47
  0
VERTEX
  5
5ED
  8
0
 62
     9
 10
0.0
 20
0.0
 30
0.0
 70
   128
 71
    47
 72
    45
 73
    46
  0
VERTEX
  5
5EE
  8
0
 62
     9
 10
0.0
 20
0.0
 30
0.0
 70
   128
 71
    50
 72
    48
 73
    49
  0
VERTEX
  5
5EF
  8
0
 62
     9
 10
0.0
 20
0.0
 30
0.0
 70
   128
 71
    48
 72
    50
 73
    47
  0
VERTEX
  5
5F0
  8
0
 62
     9
 10
0.0
 20
0.0
 30
0.0
 70
   128
 71
    52
 72
    50
 73
    51
  0
VERTEX
  5
5F1
  8
0
 62
     9
 10
0.0
 20
0.0
 30
0.0
 70
   128
 71
    49
 72
    51
 73
    50
  0
VERTEX
  5
5F2
  8
0
 62
     9
 10
0.0
 20
0.0
 30
0.0
 70
   128
 71
    52
 72
    51
 73
    53
  0
VERTEX
  5
5F3
  8
0
 62
     9
 10
0.0
 20
0.0
 30
0.0
 70
   128
 71
    54
 72
    52
 73
    53
  0
VERTEX
  5
5F4
  8
0
 62
     9
 10
0.0
 20
0.0
 30
0.0
 70
   128
 71
    45
 72
    55
 73
    44
  0
VERTEX
  5
5F5
  8
0
 62
     9
 10
0.0
 20
0.0
 30
0.0
 70
   128
 71
    57
 72
    55
 73
    56
  0
VERTEX
  5
5F6
  8
0
 62
     9
 10
0.0
 20
0.0
 30
0.0
 70
   128
 71
    55
 72
    57
 73
    44
  0
VERTEX
  5
5F7
  8
0
 62
     9
 10
0.0
 20
0.0
 30
0.0
 70
   128
 71
    59
 72
    58
 73
    56
  0
VERTEX
  5
5F8
  8
0
 62
     9
 10
0.0
 20
0.0
 30
0.0
 70
   128
 71
    57
 72
    56
 73
    58
  0
VERTEX
  5
5F9
  8
0
 62
     9
 10
0.0
 20
0.0
 30
0.0
 70
   128
 71
    61
 72
    60
 73
    58
  0
VERTEX
  5
5FA
  8
0
 62
     9
 10
0.0
 20
0.0
 30
0.0
 70
   128
 71
    58
 72
    59
 73
    61
  0
VERTEX
  5
5FB
  8
0
 62
     9
 10
0.0
 20
0.0
 30
0.0
 70
   128
 71
    62
 72
    60
 73
    61
  0
VERTEX
  5
5FC
  8
0
 62
     9
 10
0.0
 20
0.0
 30
0.0
 70
   128
 71
    62
 72
    63
 73
    60
  0
VERTEX
  5
5FD
  8
0
 62
     9
 10
0.0
 20
0.0
 30
0.0
 70
   128
 71
    66
 72
    65
 73
    64
  0
VERTEX
  5
5FE
  8
0
 62
     9
 10
0.0
 20
0.0
 30
0.0
 70
   128
 71
    68
 72
    67
 73
    47
  0
VERTEX
  5
5FF
  8
0
 62
     9
 10
0.0
 20
0.0
 30
0.0
 70
   128
 71
    54
 72
    69
 73
    65
  0
VERTEX
  5
600
  8
0
 62
     9
 10
0.0
 20
0.0
 30
0.0
 70
   128
 71
    65
 72
    69
 73
    64
  0
VERTEX
  5
601
  8
0
 62
     9
 10
0.0
 20
0.0
 30
0.0
 70
   128
 71
    70
 72
    54
 73
    65
  0
VERTEX
  5
602
  8
0
 62
     9
 10
0.0
 20
0.0
 30
0.0
 70
   128
 71
    47
 72
    50
 73
    68
  0
VERTEX
  5
603
  8
0
 62
     9
 10
0.0
 20
0.0
 30
0.0
 70
   128
 71
    52
 72
    70
 73
    71
  0
VERTEX
  5
604
  8
0
 62
     9
 10
0.0
 20
0.0
 30
0.0
 70
   128
 71
    61
 72
    59
 73
    55
  0
VERTEX
  5
605
  8
0
 62
     9
 10
0.0
 20
0.0
 30
0.0
 70
   128
 71
    62
 72
    55
 73
    45
  0
VERTEX
  5
606
  8
0
 62
     9
 10
0.0
 20
0.0
 30
0.0
 70
   128
 71
    61
 72
    55
 73
    62
  0
VERTEX
  5
607
  8
0
 62
     9
 10
0.0
 20
0.0
 30
0.0
 70
   128
 71
    56
 72
    55
 73
    59
  0
VERTEX
  5
608
  8
0
 62
     9
 10
0.0
 20
0.0
 30
0.0
 70
   128
 71
    47
 72
    67
 73
    45
  0
VERTEX
  5
609
  8
0
 62
     9
 10
0.0
 20
0.0
 30
0.0
 70
   128
 71
    45
 72
    67
 73
    62
  0
VERTEX
  5
60A
  8
0
 62
     9
 10
0.0
 20
0.0
 30
0.0
 70
   128
 71
    50
 72
    71
 73
    68
  0
VERTEX
  5
60B
  8
0
 62
     9
 10
0.0
 20
0.0
 30
0.0
 70
   128
 71
    52
 72
    71
 73
    50
  0
VERTEX
  5
60C
  8
0
 62
     9
 10
0.0
 20
0.0
 30
0.0
 70
   128
 71
    54
 72
    70
 73
    52
  0
VERTEX
  5
60D
  8
0
 62
     9
 10
0.0
 20
0.0
 30
0.0
 70
   128
 71
    54
 72
    53
 73
    72
  0
VERTEX
  5
60E
  8
0
 62
     9
 10
0.0
 20
0.0
 30
0.0
 70
   128
 71
    65
 72
    74
 73
    73
  0
VERTEX
  5
60F
  8
0
 62
     9
 10
0.0
 20
0.0
 30
0.0
 70
   128
 71
    66
 72
    64
 73
    75
  0
VERTEX
  5
610
  8
0
 62
     9
 10
0.0
 20
0.0
 30
0.0
 70
   128
 71
    71
 72
    76
 73
    68
  0
VERTEX
  5
611
  8
0
 62
     9
 10
0.0
 20
0.0
 30
0.0
 70
   128
 71
    77
 72
    71
 73
    70
  0
VERTEX
  5
612
  8
0
 62
     9
 10
0.0
 20
0.0
 30
0.0
 70
   128
 71
    68
 72
    78
 73
    67
  0
VERTEX
  5
613
  8
0
 62
     9
 10
0.0
 20
0.0
 30
0.0
 70
   128
 71
    78
 72
    68
 73
    79
  0
VERTEX
  5
614
  8
0
 62
     9
 10
0.0
 20
0.0
 30
0.0
 70
   128
 71
    62
 72
    67
 73
    63
  0
VERTEX
  5
615
  8
0
 62
     9
 10
0.0
 20
0.0
 30
0.0
 70
   128
 71
    78
 72
    63
 73
    67
  0
VERTEX
  5
616
  8
0
 62
     9
 10
0.0
 20
0.0
 30
0.0
 70
   128
 71
    71
 72
    77
 73
    76
  0
VERTEX
  5
617
  8
0
 62
     9
 10
0.0
 20
0.0
 30
0.0
 70
   128
 71
    76
 72
    79
 73
    68
  0
VERTEX
  5
618
  8
0
 62
     9
 10
0.0
 20
0.0
 30
0.0
 70
   128
 71
    65
 72
    73
 73
    70
  0
VERTEX
  5
619
  8
0
 62
     9
 10
0.0
 20
0.0
 30
0.0
 70
   128
 71
    73
 72
    77
 73
    70
  0
VERTEX
  5
61A
  8
0
 62
     9
 10
0.0
 20
0.0
 30
0.0
 70
   128
 71
    66
 72
    75
 73
    74
  0
VERTEX
  5
61B
  8
0
 62
     9
 10
0.0
 20
0.0
 30
0.0
 70
   128
 71
    66
 72
    74
 73
    65
  0
VERTEX
  5
61C
  8
0
 62
     9
 10
0.0
 20
0.0
 30
0.0
 70
   128
 71
    69
 72
    72
 73
    75
  0
VERTEX
  5
61D
  8
0
 62
     9
 10
0.0
 20
0.0
 30
0.0
 70
   128
 71
    69
 72
    75
 73
    64
  0
VERTEX
  5
61E
  8
0
 62
     9
 10
0.0
 20
0.0
 30
0.0
 70
   128
 71
    72
 72
    69
 73
    54
  0
VERTEX
  5
61F
  8
0
 62
     9
 10
0.0
 20
0.0
 30
0.0
 70
   128
 71
    74
 72
    80
 73
    73
  0
VERTEX
  5
620
  8
0
 62
     9
 10
0.0
 20
0.0
 30
0.0
 70
   128
 71
    81
 72
    38
 73
    63
  0
VERTEX
  5
621
  8
0
 62
     9
 10
0.0
 20
0.0
 30
0.0
 70
   128
 71
    77
 72
    73
 73
    82
  0
VERTEX
  5
622
  8
0
 62
     9
 10
0.0
 20
0.0
 30
0.0
 70
   128
 71
    74
 72
    75
 73
    83
  0
VERTEX
  5
623
  8
0
 62
     9
 10
0.0
 20
0.0
 30
0.0
 70
   128
 71
    77
 72
    84
 73
    76
  0
VERTEX
  5
624
  8
0
 62
     9
 10
0.0
 20
0.0
 30
0.0
 70
   128
 71
    24
 72
    26
 73
    53
  0
VERTEX
  5
625
  8
0
 62
     9
 10
0.0
 20
0.0
 30
0.0
 70
   128
 71
    75
 72
    72
 73
    85
  0
VERTEX
  5
626
  8
0
 62
     9
 10
0.0
 20
0.0
 30
0.0
 70
   128
 71
    51
 72
    49
 73
    23
  0
VERTEX
  5
627
  8
0
 62
     9
 10
0.0
 20
0.0
 30
0.0
 70
   128
 71
    51
 72
    24
 73
    53
  0
VERTEX
  5
628
  8
0
 62
     9
 10
0.0
 20
0.0
 30
0.0
 70
   128
 71
    48
 72
    46
 73
    17
  0
VERTEX
  5
629
  8
0
 62
     9
 10
0.0
 20
0.0
 30
0.0
 70
   128
 71
    58
 72
    60
 73
    33
  0
VERTEX
  5
62A
  8
0
 62
     9
 10
0.0
 20
0.0
 30
0.0
 70
   128
 71
    13
 72
    46
 73
    44
  0
VERTEX
  5
62B
  8
0
 62
     9
 10
0.0
 20
0.0
 30
0.0
 70
   128
 71
    30
 72
    57
 73
    32
  0
VERTEX
  5
62C
  8
0
 62
     9
 10
0.0
 20
0.0
 30
0.0
 70
   128
 71
    28
 72
    44
 73
    57
  0
VERTEX
  5
62D
  8
0
 62
     9
 10
0.0
 20
0.0
 30
0.0
 70
   128
 71
    18
 72
    48
 73
    17
  0
VERTEX
  5
62E
  8
0
 62
     9
 10
0.0
 20
0.0
 30
0.0
 70
   128
 71
    57
 72
    58
 73
    32
  0
VERTEX
  5
62F
  8
0
 62
     9
 10
0.0
 20
0.0
 30
0.0
 70
   128
 71
    36
 72
    60
 73
    63
  0
VERTEX
  5
630
  8
0
 62
     9
 10
0.0
 20
0.0
 30
0.0
 70
   128
 71
    20
 72
    49
 73
    48
  0
VERTEX
  5
631
  8
0
 62
     9
 10
0.0
 20
0.0
 30
0.0
 70
   128
 71
    23
 72
    24
 73
    51
  0
VERTEX
  5
632
  8
0
 62
     9
 10
0.0
 20
0.0
 30
0.0
 70
   128
 71
    86
 72
    53
 73
    26
  0
VERTEX
  5
633
  8
0
 62
     9
 10
0.0
 20
0.0
 30
0.0
 70
   128
 71
    78
 72
    79
 73
    87
  0
VERTEX
  5
634
  8
0
 62
     9
 10
0.0
 20
0.0
 30
0.0
 70
   128
 71
    76
 72
    84
 73
    88
  0
VERTEX
  5
635
  8
0
 62
     9
 10
0.0
 20
0.0
 30
0.0
 70
   128
 71
    76
 72
    89
 73
    79
  0
VERTEX
  5
636
  8
0
 62
     9
 10
0.0
 20
0.0
 30
0.0
 70
   128
 71
    90
 72
    74
 73
    83
  0
VERTEX
  5
637
  8
0
 62
     9
 10
0.0
 20
0.0
 30
0.0
 70
   128
 71
    49
 72
    20
 73
    23
  0
VERTEX
  5
638
  8
0
 62
     9
 10
0.0
 20
0.0
 30
0.0
 70
   128
 71
    48
 72
    18
 73
    20
  0
VERTEX
  5
639
  8
0
 62
     9
 10
0.0
 20
0.0
 30
0.0
 70
   128
 71
    46
 72
    13
 73
    17
  0
VERTEX
  5
63A
  8
0
 62
     9
 10
0.0
 20
0.0
 30
0.0
 70
   128
 71
    44
 72
    28
 73
    13
  0
VERTEX
  5
63B
  8
0
 62
     9
 10
0.0
 20
0.0
 30
0.0
 70
   128
 71
    57
 72
    30
 73
    28
  0
VERTEX
  5
63C
  8
0
 62
     9
 10
0.0
 20
0.0
 30
0.0
 70
   128
 71
    58
 72
    33
 73
    32
  0
VERTEX
  5
63D
  8
0
 62
     9
 10
0.0
 20
0.0
 30
0.0
 70
   128
 71
    60
 72
    36
 73
    33
  0
VERTEX
  5
63E
  8
0
 62
     9
 10
0.0
 20
0.0
 30
0.0
 70
   128
 71
    63
 72
    38
 73
    36
  0
VERTEX
  5
63F
  8
0
 62
     9
 10
0.0
 20
0.0
 30
0.0
 70
   128
 71
    78
 72
    87
 73
    81
  0
VERTEX
  5
640
  8
0
 62
     9
 10
0.0
 20
0.0
 30
0.0
 70
   128
 71
    78
 72
    81
 73
    63
  0
VERTEX
  5
641
  8
0
 62
     9
 10
0.0
 20
0.0
 30
0.0
 70
   128
 71
    79
 72
    89
 73
    87
  0
VERTEX
  5
642
  8
0
 62
     9
 10
0.0
 20
0.0
 30
0.0
 70
   128
 71
    76
 72
    88
 73
    89
  0
VERTEX
  5
643
  8
0
 62
     9
 10
0.0
 20
0.0
 30
0.0
 70
   128
 71
    77
 72
    82
 73
    84
  0
VERTEX
  5
644
  8
0
 62
     9
 10
0.0
 20
0.0
 30
0.0
 70
   128
 71
    73
 72
    80
 73
    82
  0
VERTEX
  5
645
  8
0
 62
     9
 10
0.0
 20
0.0
 30
0.0
 70
   128
 71
    74
 72
    90
 73
    80
  0
VERTEX
  5
646
  8
0
 62
     9
 10
0.0
 20
0.0
 30
0.0
 70
   128
 71
    75
 72
    85
 73
    83
  0
VERTEX
  5
647
  8
0
 62
     9
 10
0.0
 20
0.0
 30
0.0
 70
   128
 71
    72
 72
    86
 73
    85
  0
VERTEX
  5
648
  8
0
 62
     9
 10
0.0
 20
0.0
 30
0.0
 70
   128
 71
    86
 72
    72
 73
    53
  0
VERTEX
  5
649
  8
0
 62
     9
 10
0.0
 20
0.0
 30
0.0
 70
   128
 71
    26
 72
    27
 73
    91
  0
VERTEX
  5
64A
  8
0
 62
     9
 10
0.0
 20
0.0
 30
0.0
 70
   128
 71
    83
 72
    92
 73
    90
  0
VERTEX
  5
64B
  8
0
 62
     9
 10
0.0
 20
0.0
 30
0.0
 70
   128
 71
    85
 72
    94
 73
    93
  0
VERTEX
  5
64C
  8
0
 62
     9
 10
0.0
 20
0.0
 30
0.0
 70
   128
 71
    95
 72
    84
 73
    82
  0
VERTEX
  5
64D
  8
0
 62
     9
 10
0.0
 20
0.0
 30
0.0
 70
   128
 71
    97
 72
    80
 73
    96
  0
VERTEX
  5
64E
  8
0
 62
     9
 10
0.0
 20
0.0
 30
0.0
 70
   128
 71
    98
 72
    89
 73
    88
  0
VERTEX
  5
64F
  8
0
 62
     9
 10
0.0
 20
0.0
 30
0.0
 70
   128
 71
    88
 72
    84
 73
    99
  0
VERTEX
  5
650
  8
0
 62
     9
 10
0.0
 20
0.0
 30
0.0
 70
   128
 71
     3
 72
     9
 73
    81
  0
VERTEX
  5
651
  8
0
 62
     9
 10
0.0
 20
0.0
 30
0.0
 70
   128
 71
    81
 72
     9
 73
    38
  0
VERTEX
  5
652
  8
0
 62
     9
 10
0.0
 20
0.0
 30
0.0
 70
   128
 71
     4
 72
   100
 73
     8
  0
VERTEX
  5
653
  8
0
 62
     9
 10
0.0
 20
0.0
 30
0.0
 70
   128
 71
     4
 72
     3
 73
   100
  0
VERTEX
  5
654
  8
0
 62
     9
 10
0.0
 20
0.0
 30
0.0
 70
   128
 71
     7
 72
     8
 73
    43
  0
VERTEX
  5
655
  8
0
 62
     9
 10
0.0
 20
0.0
 30
0.0
 70
   128
 71
   100
 72
    43
 73
     8
  0
VERTEX
  5
656
  8
0
 62
     9
 10
0.0
 20
0.0
 30
0.0
 70
   128
 71
    81
 72
   100
 73
     3
  0
VERTEX
  5
657
  8
0
 62
     9
 10
0.0
 20
0.0
 30
0.0
 70
   128
 71
    87
 72
   101
 73
    81
  0
VERTEX
  5
658
  8
0
 62
     9
 10
0.0
 20
0.0
 30
0.0
 70
   128
 71
   100
 72
    81
 73
   101
  0
VERTEX
  5
659
  8
0
 62
     9
 10
0.0
 20
0.0
 30
0.0
 70
   128
 71
    89
 72
   102
 73
    87
  0
VERTEX
  5
65A
  8
0
 62
     9
 10
0.0
 20
0.0
 30
0.0
 70
   128
 71
    87
 72
   102
 73
   101
  0
VERTEX
  5
65B
  8
0
 62
     9
 10
0.0
 20
0.0
 30
0.0
 70
   128
 71
    38
 72
     9
 73
    11
  0
VERTEX
  5
65C
  8
0
 62
     9
 10
0.0
 20
0.0
 30
0.0
 70
   128
 71
    88
 72
    99
 73
    98
  0
VERTEX
  5
65D
  8
0
 62
     9
 10
0.0
 20
0.0
 30
0.0
 70
   128
 71
   102
 72
    89
 73
    98
  0
VERTEX
  5
65E
  8
0
 62
     9
 10
0.0
 20
0.0
 30
0.0
 70
   128
 71
    82
 72
    97
 73
    95
  0
VERTEX
  5
65F
  8
0
 62
     9
 10
0.0
 20
0.0
 30
0.0
 70
   128
 71
    99
 72
    84
 73
    95
  0
VERTEX
  5
660
  8
0
 62
     9
 10
0.0
 20
0.0
 30
0.0
 70
   128
 71
    96
 72
    80
 73
    90
  0
VERTEX
  5
661
  8
0
 62
     9
 10
0.0
 20
0.0
 30
0.0
 70
   128
 71
    97
 72
    82
 73
    80
  0
VERTEX
  5
662
  8
0
 62
     9
 10
0.0
 20
0.0
 30
0.0
 70
   128
 71
    93
 72
    92
 73
    83
  0
VERTEX
  5
663
  8
0
 62
     9
 10
0.0
 20
0.0
 30
0.0
 70
   128
 71
    92
 72
    96
 73
    90
  0
VERTEX
  5
664
  8
0
 62
     9
 10
0.0
 20
0.0
 30
0.0
 70
   128
 71
    86
 72
    94
 73
    85
  0
VERTEX
  5
665
  8
0
 62
     9
 10
0.0
 20
0.0
 30
0.0
 70
   128
 71
    85
 72
    93
 73
    83
  0
VERTEX
  5
666
  8
0
 62
     9
 10
0.0
 20
0.0
 30
0.0
 70
   128
 71
    91
 72
    86
 73
    26
  0
VERTEX
  5
667
  8
0
 62
     9
 10
0.0
 20
0.0
 30
0.0
 70
   128
 71
    86
 72
    91
 73
    94
  0
VERTEX
  5
668
  8
0
 62
     9
 10
0.0
 20
0.0
 30
0.0
 70
   128
 71
    40
 72
   103
 73
     7
  0
VERTEX
  5
669
  8
0
 62
     9
 10
0.0
 20
0.0
 30
0.0
 70
   128
 71
   104
 72
    42
 73
    37
  0
VERTEX
  5
66A
  8
0
 62
     9
 10
0.0
 20
0.0
 30
0.0
 70
   128
 71
   106
 72
    41
 73
   105
  0
VERTEX
  5
66B
  8
0
 62
     9
 10
0.0
 20
0.0
 30
0.0
 70
   128
 71
    11
 72
    12
 73
    37
  0
VERTEX
  5
66C
  8
0
 62
     9
 10
0.0
 20
0.0
 30
0.0
 70
   128
 71
   104
 72
    37
 73
    12
  0
VERTEX
  5
66D
  8
0
 62
     9
 10
0.0
 20
0.0
 30
0.0
 70
   128
 71
   105
 72
    42
 73
   104
  0
VERTEX
  5
66E
  8
0
 62
     9
 10
0.0
 20
0.0
 30
0.0
 70
   128
 71
    40
 72
    41
 73
   106
  0
VERTEX
  5
66F
  8
0
 62
     9
 10
0.0
 20
0.0
 30
0.0
 70
   128
 71
    41
 72
    42
 73
   105
  0
VERTEX
  5
670
  8
0
 62
     9
 10
0.0
 20
0.0
 30
0.0
 70
   128
 71
   106
 72
   103
 73
    40
  0
VERTEX
  5
671
  8
0
 62
     9
 10
0.0
 20
0.0
 30
0.0
 70
   128
 71
   103
 72
     6
 73
     7
  0
VERTEX
  5
672
  8
0
 62
     9
 10
0.0
 20
0.0
 30
0.0
 70
   128
 71
   109
 72
   108
 73
   107
  0
VERTEX
  5
673
  8
0
 62
     9
 10
0.0
 20
0.0
 30
0.0
 70
   128
 71
   112
 72
   111
 73
   110
  0
VERTEX
  5
674
  8
0
 62
     9
 10
0.0
 20
0.0
 30
0.0
 70
   128
 71
   114
 72
   113
 73
   107
  0
VERTEX
  5
675
  8
0
 62
     9
 10
0.0
 20
0.0
 30
0.0
 70
   128
 71
   116
 72
   113
 73
   115
  0
VERTEX
  5
676
  8
0
 62
     9
 10
0.0
 20
0.0
 30
0.0
 70
   128
 71
   119
 72
   118
 73
   117
  0
VERTEX
  5
677
  8
0
 62
     9
 10
0.0
 20
0.0
 30
0.0
 70
   128
 71
   121
 72
   120
 73
   119
  0
VERTEX
  5
678
  8
0
 62
     9
 10
0.0
 20
0.0
 30
0.0
 70
   128
 71
   121
 72
   119
 73
   117
  0
VERTEX
  5
679
  8
0
 62
     9
 10
0.0
 20
0.0
 30
0.0
 70
   128
 71
   118
 72
   122
 73
   117
  0
VERTEX
  5
67A
  8
0
 62
     9
 10
0.0
 20
0.0
 30
0.0
 70
   128
 71
   118
 72
   124
 73
   123
  0
VERTEX
  5
67B
  8
0
 62
     9
 10
0.0
 20
0.0
 30
0.0
 70
   128
 71
   122
 72
   118
 73
   123
  0
VERTEX
  5
67C
  8
0
 62
     9
 10
0.0
 20
0.0
 30
0.0
 70
   128
 71
   125
 72
   123
 73
   124
  0
VERTEX
  5
67D
  8
0
 62
     9
 10
0.0
 20
0.0
 30
0.0
 70
   128
 71
   122
 72
   123
 73
   117
  0
VERTEX
  5
67E
  8
0
 62
     9
 10
0.0
 20
0.0
 30
0.0
 70
   128
 71
   112
 72
   110
 73
   120
  0
VERTEX
  5
67F
  8
0
 62
     9
 10
0.0
 20
0.0
 30
0.0
 70
   128
 71
   112
 72
   120
 73
   121
  0
VERTEX
  5
680
  8
0
 62
     9
 10
0.0
 20
0.0
 30
0.0
 70
   128
 71
   126
 72
   116
 73
   110
  0
VERTEX
  5
681
  8
0
 62
     9
 10
0.0
 20
0.0
 30
0.0
 70
   128
 71
   111
 72
   126
 73
   110
  0
VERTEX
  5
682
  8
0
 62
     9
 10
0.0
 20
0.0
 30
0.0
 70
   128
 71
   113
 72
   114
 73
   115
  0
VERTEX
  5
683
  8
0
 62
     9
 10
0.0
 20
0.0
 30
0.0
 70
   128
 71
   113
 72
   116
 73
   126
  0
VERTEX
  5
684
  8
0
 62
     9
 10
0.0
 20
0.0
 30
0.0
 70
   128
 71
   129
 72
   128
 73
   127
  0
VERTEX
  5
685
  8
0
 62
     9
 10
0.0
 20
0.0
 30
0.0
 70
   128
 71
   114
 72
   107
 73
   115
  0
VERTEX
  5
686
  8
0
 62
     9
 10
0.0
 20
0.0
 30
0.0
 70
   128
 71
   127
 72
   128
 73
   130
  0
VERTEX
  5
687
  8
0
 62
     9
 10
0.0
 20
0.0
 30
0.0
 70
   128
 71
   109
 72
   128
 73
   129
  0
VERTEX
  5
688
  8
0
 62
     9
 10
0.0
 20
0.0
 30
0.0
 70
   128
 71
   108
 72
   115
 73
   107
  0
VERTEX
  5
689
  8
0
 62
     9
 10
0.0
 20
0.0
 30
0.0
 70
   128
 71
   129
 72
   108
 73
   109
  0
SEQEND
  5
68A
  8
0
 62
     9
  0
ENDBLK
  5
68D
  8
0
  0
BLOCK
  8
0
  2
100702_ATRIO_THM_LEVER_BUT
 70
     0
 10
0.0
 20
0.0
 30
0.0
  3
100702_ATRIO_THM_LEVER_BUT
  1

  0
POLYLINE
  5
68F
  8
0
 66
     1
 10
0.0
 20
0.0
 30
0.0
 70
    64
 71
    48
 72
    70
  0
VERTEX
  5
690
  8
0
 10
59.55479049682617
 20
-5.791908740997314
 30
29.2606372833252
 70
   192
  0
VERTEX
  5
691
  8
0
 10
59.59236526489258
 20
-5.657959938049316
 30
37.36063766479492
 70
   192
  0
VERTEX
  5
692
  8
0
 10
61.11185073852539
 20
-5.858613967895508
 30
37.36063766479492
 70
   192
  0
VERTEX
  5
693
  8
0
 10
61.11185073852539
 20
-6.0
 30
29.2606372833252
 70
   192
  0
VERTEX
  5
694
  8
0
 10
56.87052536010742
 20
-4.237365245819092
 30
29.2606372833252
 70
   192
  0
VERTEX
  5
695
  8
0
 10
58.17919158935547
 20
-5.071279525756836
 30
37.36063766479492
 70
   192
  0
VERTEX
  5
696
  8
0
 10
58.10973358154297
 20
-5.189438819885254
 30
29.2606372833252
 70
   192
  0
VERTEX
  5
697
  8
0
 10
55.91678237915039
 20
-2.993480205535889
 30
29.2606372833252
 70
   192
  0
VERTEX
  5
698
  8
0
 10
56.96918487548828
 20
-4.142665386199951
 30
37.36063766479492
 70
   192
  0
VERTEX
  5
699
  8
0
 10
55.31847763061523
 20
-1.54820191860199
 30
29.2606372833252
 70
   192
  0
VERTEX
  5
69A
  8
0
 10
56.03662872314453
 20
-2.926344156265259
 30
37.36063766479492
 70
   192
  0
VERTEX
  5
69B
  8
0
 10
55.4524040222168
 20
-1.514184355735779
 30
37.36063766479492
 70
   192
  0
VERTEX
  5
69C
  8
0
 10
55.11185073852539
 20
-0.0000000000002273
 30
29.2606372833252
 70
   192
  0
VERTEX
  5
69D
  8
0
 10
55.25323486328125
 20
-0.0000000000002245
 30
37.36063766479492
 70
   192
  0
VERTEX
  5
69E
  8
0
 10
62.62408065795898
 20
-5.659640312194824
 30
37.36063766479492
 70
   192
  0
VERTEX
  5
69F
  8
0
 10
62.66250991821289
 20
-5.795753955841064
 30
29.2606372833252
 70
   192
  0
VERTEX
  5
6A0
  8
0
 10
64.03819274902344
 20
-5.075219631195068
 30
37.36063766479492
 70
   192
  0
VERTEX
  5
6A1
  8
0
 10
64.1111831665039
 20
-5.199124813079834
 30
29.2606372833252
 70
   192
  0
VERTEX
  5
6A2
  8
0
 10
65.3578872680664
 20
-4.243683338165283
 30
29.2606372833252
 70
   192
  0
VERTEX
  5
6A3
  8
0
 10
65.2545166015625
 20
-4.142665863037109
 30
37.36063766479492
 70
   192
  0
VERTEX
  5
6A4
  8
0
 10
66.1831283569336
 20
-2.932660341262817
 30
37.36063766479492
 70
   192
  0
VERTEX
  5
6A5
  8
0
 10
66.31021118164062
 20
-3.001924276351929
 30
29.2606372833252
 70
   192
  0
VERTEX
  5
6A6
  8
0
 10
66.76981353759766
 20
-1.519484639167786
 30
37.36063766479492
 70
   192
  0
VERTEX
  5
6A7
  8
0
 10
66.90988159179688
 20
-1.555421352386475
 30
29.2606372833252
 70
   192
  0
VERTEX
  5
6A8
  8
0
 10
66.97046661376953
 20
-0.000000000004855
 30
37.36063766479492
 70
   192
  0
VERTEX
  5
6A9
  8
0
 10
67.11184692382812
 20
-0.0000000000002571
 30
29.2606372833252
 70
   192
  0
VERTEX
  5
6AA
  8
0
 10
55.31381988525391
 20
1.555421352386475
 30
29.2606372833252
 70
   192
  0
VERTEX
  5
6AB
  8
0
 10
55.45406723022461
 20
1.519763946533203
 30
37.36063766479492
 70
   192
  0
VERTEX
  5
6AC
  8
0
 10
56.04005432128906
 20
2.932148218154907
 30
37.36063766479492
 70
   192
  0
VERTEX
  5
6AD
  8
0
 10
55.91348648071289
 20
3.001924276351929
 30
29.2606372833252
 70
   192
  0
VERTEX
  5
6AE
  8
0
 10
56.86581039428711
 20
4.243683338165283
 30
29.2606372833252
 70
   192
  0
VERTEX
  5
6AF
  8
0
 10
59.59889221191406
 20
5.659643173217773
 30
37.36063766479492
 70
   192
  0
VERTEX
  5
6B0
  8
0
 10
61.11185073852539
 20
6.0
 30
29.2606372833252
 70
   192
  0
VERTEX
  5
6B1
  8
0
 10
61.11185073852539
 20
5.858613967895508
 30
37.36063766479492
 70
   192
  0
VERTEX
  5
6B2
  8
0
 10
59.56119155883789
 20
5.795753955841064
 30
29.2606372833252
 70
   192
  0
VERTEX
  5
6B3
  8
0
 10
58.18582916259766
 20
5.075291156768799
 30
37.36063766479492
 70
   192
  0
VERTEX
  5
6B4
  8
0
 10
58.11251831054688
 20
5.199124813079834
 30
29.2606372833252
 70
   192
  0
VERTEX
  5
6B5
  8
0
 10
64.04399871826172
 20
5.07179594039917
 30
37.36063766479492
 70
   192
  0
VERTEX
  5
6B6
  8
0
 10
64.11396789550781
 20
5.189438819885254
 30
29.2606372833252
 70
   192
  0
VERTEX
  5
6B7
  8
0
 10
65.3531723022461
 20
4.237365245819092
 30
29.2606372833252
 70
   192
  0
VERTEX
  5
6B8
  8
0
 10
62.63161468505859
 20
5.657781600952148
 30
37.36063766479492
 70
   192
  0
VERTEX
  5
6B9
  8
0
 10
62.66891098022461
 20
5.791908740997314
 30
29.2606372833252
 70
   192
  0
VERTEX
  5
6BA
  8
0
 10
65.2545166015625
 20
4.142665386199951
 30
37.36063766479492
 70
   192
  0
VERTEX
  5
6BB
  8
0
 10
66.30691528320312
 20
2.993480205535889
 30
29.2606372833252
 70
   192
  0
VERTEX
  5
6BC
  8
0
 10
66.18714141845703
 20
2.926020383834839
 30
37.36063766479492
 70
   192
  0
VERTEX
  5
6BD
  8
0
 10
66.90522003173828
 20
1.54820191860199
 30
29.2606372833252
 70
   192
  0
VERTEX
  5
6BE
  8
0
 10
66.77111053466797
 20
1.515418529510498
 30
37.36063766479492
 70
   192
  0
VERTEX
  5
6BF
  8
0
 10
56.96918487548828
 20
4.142665863037109
 30
37.36063766479492
 70
   192
  0
VERTEX
  5
6C0
  8
0
 62
     9
 10
0.0
 20
0.0
 30
0.0
 70
   128
 71
     3
 72
     2
 73
     1
  0
VERTEX
  5
6C1
  8
0
 62
     9
 10
0.0
 20
0.0
 30
0.0
 70
   128
 71
     3
 72
     1
 73
     4
  0
VERTEX
  5
6C2
  8
0
 62
     9
 10
0.0
 20
0.0
 30
0.0
 70
   128
 71
     7
 72
     6
 73
     5
  0
VERTEX
  5
6C3
  8
0
 62
     9
 10
0.0
 20
0.0
 30
0.0
 70
   128
 71
     2
 72
     6
 73
     7
  0
VERTEX
  5
6C4
  8
0
 62
     9
 10
0.0
 20
0.0
 30
0.0
 70
   128
 71
     5
 72
     9
 73
     8
  0
VERTEX
  5
6C5
  8
0
 62
     9
 10
0.0
 20
0.0
 30
0.0
 70
   128
 71
     2
 72
     7
 73
     1
  0
VERTEX
  5
6C6
  8
0
 62
     9
 10
0.0
 20
0.0
 30
0.0
 70
   128
 71
    11
 72
    10
 73
     8
  0
VERTEX
  5
6C7
  8
0
 62
     9
 10
0.0
 20
0.0
 30
0.0
 70
   128
 71
    11
 72
     8
 73
     9
  0
VERTEX
  5
6C8
  8
0
 62
     9
 10
0.0
 20
0.0
 30
0.0
 70
   128
 71
    13
 72
    10
 73
    12
  0
VERTEX
  5
6C9
  8
0
 62
     9
 10
0.0
 20
0.0
 30
0.0
 70
   128
 71
    12
 72
    10
 73
    11
  0
VERTEX
  5
6CA
  8
0
 62
     9
 10
0.0
 20
0.0
 30
0.0
 70
   128
 71
     5
 72
     6
 73
     9
  0
VERTEX
  5
6CB
  8
0
 62
     9
 10
0.0
 20
0.0
 30
0.0
 70
   128
 71
    12
 72
    14
 73
    13
  0
VERTEX
  5
6CC
  8
0
 62
     9
 10
0.0
 20
0.0
 30
0.0
 70
   128
 71
    16
 72
    15
 73
     4
  0
VERTEX
  5
6CD
  8
0
 62
     9
 10
0.0
 20
0.0
 30
0.0
 70
   128
 71
     3
 72
     4
 73
    15
  0
VERTEX
  5
6CE
  8
0
 62
     9
 10
0.0
 20
0.0
 30
0.0
 70
   128
 71
    16
 72
    18
 73
    17
  0
VERTEX
  5
6CF
  8
0
 62
     9
 10
0.0
 20
0.0
 30
0.0
 70
   128
 71
    17
 72
    15
 73
    16
  0
VERTEX
  5
6D0
  8
0
 62
     9
 10
0.0
 20
0.0
 30
0.0
 70
   128
 71
    20
 72
    18
 73
    19
  0
VERTEX
  5
6D1
  8
0
 62
     9
 10
0.0
 20
0.0
 30
0.0
 70
   128
 71
    18
 72
    20
 73
    17
  0
VERTEX
  5
6D2
  8
0
 62
     9
 10
0.0
 20
0.0
 30
0.0
 70
   128
 71
    22
 72
    21
 73
    19
  0
VERTEX
  5
6D3
  8
0
 62
     9
 10
0.0
 20
0.0
 30
0.0
 70
   128
 71
    20
 72
    19
 73
    21
  0
VERTEX
  5
6D4
  8
0
 62
     9
 10
0.0
 20
0.0
 30
0.0
 70
   128
 71
    22
 72
    24
 73
    23
  0
VERTEX
  5
6D5
  8
0
 62
     9
 10
0.0
 20
0.0
 30
0.0
 70
   128
 71
    23
 72
    21
 73
    22
  0
VERTEX
  5
6D6
  8
0
 62
     9
 10
0.0
 20
0.0
 30
0.0
 70
   128
 71
    24
 72
    25
 73
    23
  0
VERTEX
  5
6D7
  8
0
 62
     9
 10
0.0
 20
0.0
 30
0.0
 70
   128
 71
    24
 72
    26
 73
    25
  0
VERTEX
  5
6D8
  8
0
 62
     9
 10
0.0
 20
0.0
 30
0.0
 70
   128
 71
    14
 72
    28
 73
    27
  0
VERTEX
  5
6D9
  8
0
 62
     9
 10
0.0
 20
0.0
 30
0.0
 70
   128
 71
    31
 72
    30
 73
    29
  0
VERTEX
  5
6DA
  8
0
 62
     9
 10
0.0
 20
0.0
 30
0.0
 70
   128
 71
    34
 72
    33
 73
    32
  0
VERTEX
  5
6DB
  8
0
 62
     9
 10
0.0
 20
0.0
 30
0.0
 70
   128
 71
    37
 72
    36
 73
    35
  0
VERTEX
  5
6DC
  8
0
 62
     9
 10
0.0
 20
0.0
 30
0.0
 70
   128
 71
    40
 72
    39
 73
    38
  0
VERTEX
  5
6DD
  8
0
 62
     9
 10
0.0
 20
0.0
 30
0.0
 70
   128
 71
    42
 72
    41
 73
    39
  0
VERTEX
  5
6DE
  8
0
 62
     9
 10
0.0
 20
0.0
 30
0.0
 70
   128
 71
    45
 72
    44
 73
    43
  0
VERTEX
  5
6DF
  8
0
 62
     9
 10
0.0
 20
0.0
 30
0.0
 70
   128
 71
    40
 72
    43
 73
    44
  0
VERTEX
  5
6E0
  8
0
 62
     9
 10
0.0
 20
0.0
 30
0.0
 70
   128
 71
    45
 72
    47
 73
    46
  0
VERTEX
  5
6E1
  8
0
 62
     9
 10
0.0
 20
0.0
 30
0.0
 70
   128
 71
    46
 72
    44
 73
    45
  0
VERTEX
  5
6E2
  8
0
 62
     9
 10
0.0
 20
0.0
 30
0.0
 70
   128
 71
    26
 72
    47
 73
    25
  0
VERTEX
  5
6E3
  8
0
 62
     9
 10
0.0
 20
0.0
 30
0.0
 70
   128
 71
    47
 72
    26
 73
    46
  0
VERTEX
  5
6E4
  8
0
 62
     9
 10
0.0
 20
0.0
 30
0.0
 70
   128
 71
    38
 72
    43
 73
    40
  0
VERTEX
  5
6E5
  8
0
 62
     9
 10
0.0
 20
0.0
 30
0.0
 70
   128
 71
    37
 72
    48
 73
    36
  0
VERTEX
  5
6E6
  8
0
 62
     9
 10
0.0
 20
0.0
 30
0.0
 70
   128
 71
    39
 72
    41
 73
    38
  0
VERTEX
  5
6E7
  8
0
 62
     9
 10
0.0
 20
0.0
 30
0.0
 70
   128
 71
    41
 72
    42
 73
    34
  0
VERTEX
  5
6E8
  8
0
 62
     9
 10
0.0
 20
0.0
 30
0.0
 70
   128
 71
    34
 72
    42
 73
    33
  0
VERTEX
  5
6E9
  8
0
 62
     9
 10
0.0
 20
0.0
 30
0.0
 70
   128
 71
    36
 72
    32
 73
    35
  0
VERTEX
  5
6EA
  8
0
 62
     9
 10
0.0
 20
0.0
 30
0.0
 70
   128
 71
    32
 72
    33
 73
    35
  0
VERTEX
  5
6EB
  8
0
 62
     9
 10
0.0
 20
0.0
 30
0.0
 70
   128
 71
    27
 72
    28
 73
    30
  0
VERTEX
  5
6EC
  8
0
 62
     9
 10
0.0
 20
0.0
 30
0.0
 70
   128
 71
    48
 72
    37
 73
    31
  0
VERTEX
  5
6ED
  8
0
 62
     9
 10
0.0
 20
0.0
 30
0.0
 70
   128
 71
    28
 72
    29
 73
    30
  0
VERTEX
  5
6EE
  8
0
 62
     9
 10
0.0
 20
0.0
 30
0.0
 70
   128
 71
    31
 72
    29
 73
    48
  0
VERTEX
  5
6EF
  8
0
 62
     9
 10
0.0
 20
0.0
 30
0.0
 70
   128
 71
    13
 72
    14
 73
    27
  0
VERTEX
  5
6F0
  8
0
 62
     9
 10
0.0
 20
0.0
 30
0.0
 70
   128
 71
    29
 72
    17
 73
    20
  0
VERTEX
  5
6F1
  8
0
 62
     9
 10
0.0
 20
0.0
 30
0.0
 70
   128
 71
    12
 72
    11
 73
     6
  0
VERTEX
  5
6F2
  8
0
 62
     9
 10
0.0
 20
0.0
 30
0.0
 70
   128
 71
     9
 72
     6
 73
    11
  0
VERTEX
  5
6F3
  8
0
 62
     9
 10
0.0
 20
0.0
 30
0.0
 70
   128
 71
     2
 72
    14
 73
    12
  0
VERTEX
  5
6F4
  8
0
 62
     9
 10
0.0
 20
0.0
 30
0.0
 70
   128
 71
    12
 72
     6
 73
     2
  0
VERTEX
  5
6F5
  8
0
 62
     9
 10
0.0
 20
0.0
 30
0.0
 70
   128
 71
     3
 72
    15
 73
    14
  0
VERTEX
  5
6F6
  8
0
 62
     9
 10
0.0
 20
0.0
 30
0.0
 70
   128
 71
     3
 72
    14
 73
     2
  0
VERTEX
  5
6F7
  8
0
 62
     9
 10
0.0
 20
0.0
 30
0.0
 70
   128
 71
    21
 72
    23
 73
    32
  0
VERTEX
  5
6F8
  8
0
 62
     9
 10
0.0
 20
0.0
 30
0.0
 70
   128
 71
    48
 72
    21
 73
    36
  0
VERTEX
  5
6F9
  8
0
 62
     9
 10
0.0
 20
0.0
 30
0.0
 70
   128
 71
    47
 72
    41
 73
    25
  0
VERTEX
  5
6FA
  8
0
 62
     9
 10
0.0
 20
0.0
 30
0.0
 70
   128
 71
    38
 72
    45
 73
    43
  0
VERTEX
  5
6FB
  8
0
 62
     9
 10
0.0
 20
0.0
 30
0.0
 70
   128
 71
    41
 72
    47
 73
    45
  0
VERTEX
  5
6FC
  8
0
 62
     9
 10
0.0
 20
0.0
 30
0.0
 70
   128
 71
    45
 72
    38
 73
    41
  0
VERTEX
  5
6FD
  8
0
 62
     9
 10
0.0
 20
0.0
 30
0.0
 70
   128
 71
    25
 72
    41
 73
    34
  0
VERTEX
  5
6FE
  8
0
 62
     9
 10
0.0
 20
0.0
 30
0.0
 70
   128
 71
    23
 72
    25
 73
    32
  0
VERTEX
  5
6FF
  8
0
 62
     9
 10
0.0
 20
0.0
 30
0.0
 70
   128
 71
    34
 72
    32
 73
    25
  0
VERTEX
  5
700
  8
0
 62
     9
 10
0.0
 20
0.0
 30
0.0
 70
   128
 71
    21
 72
    48
 73
    20
  0
VERTEX
  5
701
  8
0
 62
     9
 10
0.0
 20
0.0
 30
0.0
 70
   128
 71
    32
 72
    36
 73
    21
  0
VERTEX
  5
702
  8
0
 62
     9
 10
0.0
 20
0.0
 30
0.0
 70
   128
 71
    15
 72
    17
 73
    29
  0
VERTEX
  5
703
  8
0
 62
     9
 10
0.0
 20
0.0
 30
0.0
 70
   128
 71
    20
 72
    48
 73
    29
  0
VERTEX
  5
704
  8
0
 62
     9
 10
0.0
 20
0.0
 30
0.0
 70
   128
 71
    15
 72
    28
 73
    14
  0
VERTEX
  5
705
  8
0
 62
     9
 10
0.0
 20
0.0
 30
0.0
 70
   128
 71
    28
 72
    15
 73
    29
  0
SEQEND
  5
706
  8
0
  0
ENDBLK
  5
709
  8
0
  0
BLOCK
  8
0
  2
100707_LEVER_RING_SMALL
 70
     0
 10
0.0
 20
0.0
 30
0.0
  3
100707_LEVER_RING_SMALL
  1

  0
POLYLINE
  5
70B
  8
0
 66
     1
 10
0.0
 20
0.0
 30
0.0
 70
    64
 71
   131
 72
   158
  0
VERTEX
  5
70C
  8
0
 10
20.11181259155273
 20
3.112410306930542
 30
-29.75620079040527
 70
   192
  0
VERTEX
  5
70D
  8
0
 10
30.11185073852539
 20
9.26842975616455
 30
-28.5052490234375
 70
   192
  0
VERTEX
  5
70E
  8
0
 10
20.11181259155273
 20
9.177936553955078
 30
-28.30951690673828
 70
   192
  0
VERTEX
  5
70F
  8
0
 10
20.11181259155273
 20
-3.124145269393921
 30
-29.7050609588623
 70
   192
  0
VERTEX
  5
710
  8
0
 10
30.11185073852539
 20
3.133259773254395
 30
-29.79172515869141
 70
   192
  0
VERTEX
  5
711
  8
0
 10
30.11185073852539
 20
14.99386787414551
 30
-25.96698570251465
 70
   192
  0
VERTEX
  5
712
  8
0
 10
20.11181259155273
 20
14.95831489562988
 30
-25.91156768798828
 70
   192
  0
VERTEX
  5
713
  8
0
 10
20.11181259155273
 20
20.01796340942383
 30
-22.23635482788086
 70
   192
  0
VERTEX
  5
714
  8
0
 10
30.11185073852539
 20
20.07936668395996
 30
-22.27777290344238
 70
   192
  0
VERTEX
  5
715
  8
0
 10
30.11185073852539
 20
24.26810455322266
 30
-17.60633087158203
 70
   192
  0
VERTEX
  5
716
  8
0
 10
30.11185073852539
 20
27.39761352539062
 30
-12.17825889587402
 70
   192
  0
VERTEX
  5
717
  8
0
 10
20.11181259155273
 20
24.21120834350586
 30
-17.59904289245605
 70
   192
  0
VERTEX
  5
718
  8
0
 10
30.11185073852539
 20
29.33552551269531
 30
-6.223262786865234
 70
   192
  0
VERTEX
  5
719
  8
0
 10
20.11181259155273
 20
27.34187316894531
 30
-12.18087196350098
 70
   192
  0
VERTEX
  5
71A
  8
0
 10
20.11181259155273
 20
29.9127311706543
 30
-0.0000000000000622
 70
   192
  0
VERTEX
  5
71B
  8
0
 10
20.11181259155273
 20
29.27312088012695
 30
-6.227006912231445
 70
   192
  0
VERTEX
  5
71C
  8
0
 10
30.11185073852539
 20
30.0
 30
-0.0000000000000765
 70
   192
  0
VERTEX
  5
71D
  8
0
 10
20.11181259155273
 20
-9.24146842956543
 30
-28.42232704162598
 70
   192
  0
VERTEX
  5
71E
  8
0
 10
30.11185073852539
 20
-3.121490478515625
 30
-29.84301376342773
 70
   192
  0
VERTEX
  5
71F
  8
0
 10
30.11185073852539
 20
-9.2047119140625
 30
-28.39210891723633
 70
   192
  0
VERTEX
  5
720
  8
0
 10
20.11181259155273
 20
-14.95025062561035
 30
-25.89144897460938
 70
   192
  0
VERTEX
  5
721
  8
0
 10
20.11181259155273
 20
-20.02095603942871
 30
-22.21296691894531
 70
   192
  0
VERTEX
  5
722
  8
0
 10
30.11185073852539
 20
-15.00195503234863
 30
-25.98716354370117
 70
   192
  0
VERTEX
  5
723
  8
0
 10
20.11181259155273
 20
-24.197509765625
 30
-17.55511474609375
 70
   192
  0
VERTEX
  5
724
  8
0
 10
30.11185073852539
 20
-20.07636451721191
 30
-22.30122756958008
 70
   192
  0
VERTEX
  5
725
  8
0
 10
30.11185073852539
 20
-24.2818431854248
 30
-17.65038681030273
 70
   192
  0
VERTEX
  5
726
  8
0
 10
20.11181259155273
 20
-27.31791496276855
 30
-12.14283275604248
 70
   192
  0
VERTEX
  5
727
  8
0
 10
20.11181259155273
 20
-29.25018882751465
 30
-6.205159664154053
 70
   192
  0
VERTEX
  5
728
  8
0
 10
30.11185073852539
 20
-27.42164039611816
 30
-12.21640968322754
 70
   192
  0
VERTEX
  5
729
  8
0
 10
20.11181259155273
 20
-29.9127311706543
 30
0.0000000000000087
 70
   192
  0
VERTEX
  5
72A
  8
0
 10
30.11185073852539
 20
-29.35852241516113
 30
-6.245173931121826
 70
   192
  0
VERTEX
  5
72B
  8
0
 10
30.11185073852539
 20
-30.0
 30
-0.0000000000000053
 70
   192
  0
VERTEX
  5
72C
  8
0
 10
30.11185073852539
 20
29.35852241516113
 30
6.245173931121826
 70
   192
  0
VERTEX
  5
72D
  8
0
 10
20.11181259155273
 20
29.25018882751465
 30
6.205159664154053
 70
   192
  0
VERTEX
  5
72E
  8
0
 10
20.11181259155273
 20
27.31791496276855
 30
12.14283275604248
 70
   192
  0
VERTEX
  5
72F
  8
0
 10
30.11185073852539
 20
27.42164039611816
 30
12.21640968322754
 70
   192
  0
VERTEX
  5
730
  8
0
 10
30.11185073852539
 20
24.2818431854248
 30
17.65038681030273
 70
   192
  0
VERTEX
  5
731
  8
0
 10
20.11181259155273
 20
14.95025062561035
 30
25.89144897460938
 70
   192
  0
VERTEX
  5
732
  8
0
 10
30.11185073852539
 20
9.2047119140625
 30
28.39210891723633
 70
   192
  0
VERTEX
  5
733
  8
0
 10
20.11181259155273
 20
9.24146842956543
 30
28.42232704162598
 70
   192
  0
VERTEX
  5
734
  8
0
 10
30.11185073852539
 20
15.00195503234863
 30
25.98716354370117
 70
   192
  0
VERTEX
  5
735
  8
0
 10
20.11181259155273
 20
20.02095603942871
 30
22.21296691894531
 70
   192
  0
VERTEX
  5
736
  8
0
 10
30.11185073852539
 20
20.07636451721191
 30
22.30122756958008
 70
   192
  0
VERTEX
  5
737
  8
0
 10
20.11181259155273
 20
-9.177936553955078
 30
28.30951690673828
 70
   192
  0
VERTEX
  5
738
  8
0
 10
20.11181259155273
 20
-3.112410306930542
 30
29.75620079040527
 70
   192
  0
VERTEX
  5
739
  8
0
 10
30.11185073852539
 20
-9.26842975616455
 30
28.5052490234375
 70
   192
  0
VERTEX
  5
73A
  8
0
 10
30.11185073852539
 20
-3.133259773254395
 30
29.79172515869141
 70
   192
  0
VERTEX
  5
73B
  8
0
 10
20.11181259155273
 20
3.124145269393921
 30
29.7050609588623
 70
   192
  0
VERTEX
  5
73C
  8
0
 10
30.11185073852539
 20
3.121490478515625
 30
29.84301376342773
 70
   192
  0
VERTEX
  5
73D
  8
0
 10
30.11185073852539
 20
-24.26810455322266
 30
17.60633087158203
 70
   192
  0
VERTEX
  5
73E
  8
0
 10
20.11181259155273
 20
-20.01796340942383
 30
22.23635482788086
 70
   192
  0
VERTEX
  5
73F
  8
0
 10
30.11185073852539
 20
-20.07936668395996
 30
22.27777290344238
 70
   192
  0
VERTEX
  5
740
  8
0
 10
30.11185073852539
 20
-14.99386787414551
 30
25.96698570251465
 70
   192
  0
VERTEX
  5
741
  8
0
 10
20.11181259155273
 20
-14.95831489562988
 30
25.91156768798828
 70
   192
  0
VERTEX
  5
742
  8
0
 10
20.11181259155273
 20
-24.21120834350586
 30
17.59904289245605
 70
   192
  0
VERTEX
  5
743
  8
0
 10
30.11185073852539
 20
-27.39761352539062
 30
12.17825889587402
 70
   192
  0
VERTEX
  5
744
  8
0
 10
30.11185073852539
 20
-29.33552551269531
 30
6.223262786865234
 70
   192
  0
VERTEX
  5
745
  8
0
 10
20.11181259155273
 20
-27.34187316894531
 30
12.18087196350098
 70
   192
  0
VERTEX
  5
746
  8
0
 10
20.11181259155273
 20
-29.27312088012695
 30
6.227006912231445
 70
   192
  0
VERTEX
  5
747
  8
0
 10
20.11181259155273
 20
24.197509765625
 30
17.55511474609375
 70
   192
  0
VERTEX
  5
748
  8
0
 10
48.11185073852539
 20
-3.829517364501953
 30
31.51682472229004
 70
   192
  0
VERTEX
  5
749
  8
0
 10
48.11185073852539
 20
-11.25754547119141
 30
29.6873722076416
 70
   192
  0
VERTEX
  5
74A
  8
0
 10
30.11185073852539
 20
-3.793114185333252
 30
31.36236000061035
 70
   192
  0
VERTEX
  5
74B
  8
0
 10
30.11185073852539
 20
-11.19652938842773
 30
29.54639053344727
 70
   192
  0
VERTEX
  5
74C
  8
0
 10
30.11185073852539
 20
-17.95821762084961
 30
26.01203536987305
 70
   192
  0
VERTEX
  5
74D
  8
0
 10
48.11185073852539
 20
-18.00926399230957
 30
26.14774703979492
 70
   192
  0
VERTEX
  5
74E
  8
0
 10
30.11185073852539
 20
3.826762199401855
 30
31.35608100891113
 70
   192
  0
VERTEX
  5
74F
  8
0
 10
48.11185073852539
 20
-23.76335906982422
 30
21.05548095703125
 70
   192
  0
VERTEX
  5
750
  8
0
 10
30.11185073852539
 20
-23.65830993652344
 30
20.96203804016113
 70
   192
  0
VERTEX
  5
751
  8
0
 10
48.11185073852539
 20
-28.1166934967041
 30
14.75055122375488
 70
   192
  0
VERTEX
  5
752
  8
0
 10
48.11185073852539
 20
-30.81770896911621
 30
7.631826400756836
 70
   192
  0
VERTEX
  5
753
  8
0
 10
30.11185073852539
 20
-27.98410224914551
 30
14.69478034973145
 70
   192
  0
VERTEX
  5
754
  8
0
 10
30.11185073852539
 20
-30.68874931335449
 30
7.571753025054932
 70
   192
  0
VERTEX
  5
755
  8
0
 10
30.11185073852539
 20
-31.59291648864746
 30
0.0000000000000003
 70
   192
  0
VERTEX
  5
756
  8
0
 10
48.11185073852539
 20
-31.75
 30
-0.000000000000025
 70
   192
  0
VERTEX
  5
757
  8
0
 10
48.11185073852539
 20
3.864518404006958
 30
31.51137733459473
 70
   192
  0
VERTEX
  5
758
  8
0
 10
30.11185073852539
 20
11.21566009521484
 30
29.51629447937012
 70
   192
  0
VERTEX
  5
759
  8
0
 10
30.11185073852539
 20
17.94918632507324
 30
25.96662330627441
 70
   192
  0
VERTEX
  5
75A
  8
0
 10
48.11185073852539
 20
11.26839351654053
 30
29.6828784942627
 70
   192
  0
VERTEX
  5
75B
  8
0
 10
30.11185073852539
 20
23.6480541229248
 30
20.91217041015625
 70
   192
  0
VERTEX
  5
75C
  8
0
 10
48.11185073852539
 20
18.01784515380859
 30
26.14147758483887
 70
   192
  0
VERTEX
  5
75D
  8
0
 10
48.11185073852539
 20
23.78216743469238
 30
21.02974128723145
 70
   192
  0
VERTEX
  5
75E
  8
0
 10
30.11185073852539
 20
27.96744346618652
 30
14.64889335632324
 70
   192
  0
VERTEX
  5
75F
  8
0
 10
30.11185073852539
 20
30.66305351257324
 30
7.539650440216064
 70
   192
  0
VERTEX
  5
760
  8
0
 10
48.11185073852539
 20
28.12527084350586
 30
14.72984027862549
 70
   192
  0
VERTEX
  5
761
  8
0
 10
30.11185073852539
 20
31.59291648864746
 30
-0.0000000000000746
 70
   192
  0
VERTEX
  5
762
  8
0
 10
48.11185073852539
 20
30.8238353729248
 30
7.6170334815979
 70
   192
  0
VERTEX
  5
763
  8
0
 10
48.11185073852539
 20
31.75
 30
-0.0000000000001003
 70
   192
  0
VERTEX
  5
764
  8
0
 10
48.11185073852539
 20
-30.8238353729248
 30
-7.6170334815979
 70
   192
  0
VERTEX
  5
765
  8
0
 10
30.11185073852539
 20
-30.66305351257324
 30
-7.539650440216064
 70
   192
  0
VERTEX
  5
766
  8
0
 10
30.11185073852539
 20
-27.96744346618652
 30
-14.64889335632324
 70
   192
  0
VERTEX
  5
767
  8
0
 10
48.11185073852539
 20
-28.12527084350586
 30
-14.72984027862549
 70
   192
  0
VERTEX
  5
768
  8
0
 10
48.11185073852539
 20
-23.78216743469238
 30
-21.02974128723145
 70
   192
  0
VERTEX
  5
769
  8
0
 10
30.11185073852539
 20
-3.826762199401855
 30
-31.35608100891113
 70
   192
  0
VERTEX
  5
76A
  8
0
 10
39.52228164672852
 20
-5.04656982421875
 30
-31.27090263366699
 70
   192
  0
VERTEX
  5
76B
  8
0
 10
34.80479049682617
 20
-3.154910802841187
 30
-31.47615432739258
 70
   192
  0
VERTEX
  5
76C
  8
0
 10
48.11185073852539
 20
-11.26839351654053
 30
-29.6828784942627
 70
   192
  0
VERTEX
  5
76D
  8
0
 10
30.11185073852539
 20
-17.94918632507324
 30
-25.96662330627441
 70
   192
  0
VERTEX
  5
76E
  8
0
 10
48.11185073852539
 20
-18.01784515380859
 30
-26.14147758483887
 70
   192
  0
VERTEX
  5
76F
  8
0
 10
30.11185073852539
 20
11.19652938842773
 30
-29.54639053344727
 70
   192
  0
VERTEX
  5
770
  8
0
 10
48.11185073852539
 20
11.25754547119141
 30
-29.6873722076416
 70
   192
  0
VERTEX
  5
771
  8
0
 10
48.11185073852539
 20
18.00926399230957
 30
-26.14774703979492
 70
   192
  0
VERTEX
  5
772
  8
0
 10
48.11185073852539
 20
3.829517364501953
 30
-31.51682472229004
 70
   192
  0
VERTEX
  5
773
  8
0
 10
38.11085891723633
 20
5.047605037689209
 30
-31.25829696655273
 70
   192
  0
VERTEX
  5
774
  8
0
 10
42.82074356079102
 20
3.15258264541626
 30
-31.54669189453125
 70
   192
  0
VERTEX
  5
775
  8
0
 10
30.11185073852539
 20
23.65830993652344
 30
-20.96203804016113
 70
   192
  0
VERTEX
  5
776
  8
0
 10
48.11185073852539
 20
23.76335906982422
 30
-21.05548095703125
 70
   192
  0
VERTEX
  5
777
  8
0
 10
48.11185073852539
 20
28.1166934967041
 30
-14.75055122375488
 70
   192
  0
VERTEX
  5
778
  8
0
 10
30.11185073852539
 20
17.95821762084961
 30
-26.01203536987305
 70
   192
  0
VERTEX
  5
779
  8
0
 10
48.11185073852539
 20
30.81770896911621
 30
-7.631826400756836
 70
   192
  0
VERTEX
  5
77A
  8
0
 10
30.11185073852539
 20
27.98410224914551
 30
-14.69478034973145
 70
   192
  0
VERTEX
  5
77B
  8
0
 10
30.11185073852539
 20
30.68874931335449
 30
-7.571753025054932
 70
   192
  0
VERTEX
  5
77C
  8
0
 10
43.46305847167969
 20
-1.869507789611816
 30
-31.64166069030762
 70
   192
  0
VERTEX
  5
77D
  8
0
 10
48.11185073852539
 20
-3.864518404006958
 30
-31.51137733459473
 70
   192
  0
VERTEX
  5
77E
  8
0
 10
30.11185073852539
 20
-11.21566009521484
 30
-29.51629447937012
 70
   192
  0
VERTEX
  5
77F
  8
0
 10
30.11185073852539
 20
-23.6480541229248
 30
-20.91217041015625
 70
   192
  0
VERTEX
  5
780
  8
0
 10
34.1607780456543
 20
1.87015700340271
 30
-31.56029319763184
 70
   192
  0
VERTEX
  5
781
  8
0
 10
30.11185073852539
 20
3.793114185333252
 30
-31.36236000061035
 70
   192
  0
VERTEX
  5
782
  8
0
 10
48.11185073852539
 20
-27.2595329284668
 30
13.10882377624512
 70
   192
  0
VERTEX
  5
783
  8
0
 10
48.11185073852539
 20
-18.87374877929688
 30
23.6368522644043
 70
   192
  0
VERTEX
  5
784
  8
0
 10
48.11185073852539
 20
-6.730152606964111
 30
-29.49079132080078
 70
   192
  0
VERTEX
  5
785
  8
0
 10
48.11185073852539
 20
-27.24623870849609
 30
-13.13409423828125
 70
   192
  0
VERTEX
  5
786
  8
0
 10
48.11185073852539
 20
-18.85488319396973
 30
-23.65341949462891
 70
   192
  0
VERTEX
  5
787
  8
0
 10
48.11185073852539
 20
-30.24887466430664
 30
-0.000000000000032
 70
   192
  0
VERTEX
  5
788
  8
0
 10
48.11185073852539
 20
-6.740772247314453
 30
29.48776817321777
 70
   192
  0
VERTEX
  5
789
  8
0
 10
48.11185073852539
 20
27.24623870849609
 30
13.13409423828125
 70
   192
  0
VERTEX
  5
78A
  8
0
 10
48.11185073852539
 20
6.730152606964111
 30
29.49079132080078
 70
   192
  0
VERTEX
  5
78B
  8
0
 10
48.11185073852539
 20
18.85488319396973
 30
23.65341949462891
 70
   192
  0
VERTEX
  5
78C
  8
0
 10
48.11185073852539
 20
27.2595329284668
 30
-13.10882377624512
 70
   192
  0
VERTEX
  5
78D
  8
0
 10
48.11185073852539
 20
18.87374877929688
 30
-23.6368522644043
 70
   192
  0
VERTEX
  5
78E
  8
0
 10
48.11185073852539
 20
6.740772247314453
 30
-29.48776817321777
 70
   192
  0
VERTEX
  5
78F
  8
0
 62
     9
 10
0.0
 20
0.0
 30
0.0
 70
   128
 71
     3
 72
     2
 73
     1
  0
VERTEX
  5
790
  8
0
 62
     9
 10
0.0
 20
0.0
 30
0.0
 70
   128
 71
     5
 72
     4
 73
     1
  0
VERTEX
  5
791
  8
0
 62
     9
 10
0.0
 20
0.0
 30
0.0
 70
   128
 71
     3
 72
     7
 73
     6
  0
VERTEX
  5
792
  8
0
 62
     9
 10
0.0
 20
0.0
 30
0.0
 70
   128
 71
     3
 72
     6
 73
     2
  0
VERTEX
  5
793
  8
0
 62
     9
 10
0.0
 20
0.0
 30
0.0
 70
   128
 71
     9
 72
     7
 73
     8
  0
VERTEX
  5
794
  8
0
 62
     9
 10
0.0
 20
0.0
 30
0.0
 70
   128
 71
     9
 72
     6
 73
     7
  0
VERTEX
  5
795
  8
0
 62
     9
 10
0.0
 20
0.0
 30
0.0
 70
   128
 71
    12
 72
    11
 73
    10
  0
VERTEX
  5
796
  8
0
 62
     9
 10
0.0
 20
0.0
 30
0.0
 70
   128
 71
    10
 72
     9
 73
     8
  0
VERTEX
  5
797
  8
0
 62
     9
 10
0.0
 20
0.0
 30
0.0
 70
   128
 71
     2
 72
     5
 73
     1
  0
VERTEX
  5
798
  8
0
 62
     9
 10
0.0
 20
0.0
 30
0.0
 70
   128
 71
    10
 72
     8
 73
    12
  0
VERTEX
  5
799
  8
0
 62
     9
 10
0.0
 20
0.0
 30
0.0
 70
   128
 71
    14
 72
    13
 73
    11
  0
VERTEX
  5
79A
  8
0
 62
     9
 10
0.0
 20
0.0
 30
0.0
 70
   128
 71
    17
 72
    16
 73
    15
  0
VERTEX
  5
79B
  8
0
 62
     9
 10
0.0
 20
0.0
 30
0.0
 70
   128
 71
    17
 72
    13
 73
    16
  0
VERTEX
  5
79C
  8
0
 62
     9
 10
0.0
 20
0.0
 30
0.0
 70
   128
 71
    12
 72
    14
 73
    11
  0
VERTEX
  5
79D
  8
0
 62
     9
 10
0.0
 20
0.0
 30
0.0
 70
   128
 71
    16
 72
    13
 73
    14
  0
VERTEX
  5
79E
  8
0
 62
     9
 10
0.0
 20
0.0
 30
0.0
 70
   128
 71
     4
 72
    19
 73
    18
  0
VERTEX
  5
79F
  8
0
 62
     9
 10
0.0
 20
0.0
 30
0.0
 70
   128
 71
    19
 72
     4
 73
     5
  0
VERTEX
  5
7A0
  8
0
 62
     9
 10
0.0
 20
0.0
 30
0.0
 70
   128
 71
    21
 72
    18
 73
    20
  0
VERTEX
  5
7A1
  8
0
 62
     9
 10
0.0
 20
0.0
 30
0.0
 70
   128
 71
    19
 72
    20
 73
    18
  0
VERTEX
  5
7A2
  8
0
 62
     9
 10
0.0
 20
0.0
 30
0.0
 70
   128
 71
    23
 72
    22
 73
    21
  0
VERTEX
  5
7A3
  8
0
 62
     9
 10
0.0
 20
0.0
 30
0.0
 70
   128
 71
    21
 72
    20
 73
    23
  0
VERTEX
  5
7A4
  8
0
 62
     9
 10
0.0
 20
0.0
 30
0.0
 70
   128
 71
    22
 72
    25
 73
    24
  0
VERTEX
  5
7A5
  8
0
 62
     9
 10
0.0
 20
0.0
 30
0.0
 70
   128
 71
    25
 72
    22
 73
    23
  0
VERTEX
  5
7A6
  8
0
 62
     9
 10
0.0
 20
0.0
 30
0.0
 70
   128
 71
    27
 72
    24
 73
    26
  0
VERTEX
  5
7A7
  8
0
 62
     9
 10
0.0
 20
0.0
 30
0.0
 70
   128
 71
    25
 72
    26
 73
    24
  0
VERTEX
  5
7A8
  8
0
 62
     9
 10
0.0
 20
0.0
 30
0.0
 70
   128
 71
    29
 72
    28
 73
    27
  0
VERTEX
  5
7A9
  8
0
 62
     9
 10
0.0
 20
0.0
 30
0.0
 70
   128
 71
    27
 72
    26
 73
    29
  0
VERTEX
  5
7AA
  8
0
 62
     9
 10
0.0
 20
0.0
 30
0.0
 70
   128
 71
    28
 72
    31
 73
    30
  0
VERTEX
  5
7AB
  8
0
 62
     9
 10
0.0
 20
0.0
 30
0.0
 70
   128
 71
    31
 72
    28
 73
    29
  0
VERTEX
  5
7AC
  8
0
 62
     9
 10
0.0
 20
0.0
 30
0.0
 70
   128
 71
    31
 72
    32
 73
    30
  0
VERTEX
  5
7AD
  8
0
 62
     9
 10
0.0
 20
0.0
 30
0.0
 70
   128
 71
    15
 72
    34
 73
    33
  0
VERTEX
  5
7AE
  8
0
 62
     9
 10
0.0
 20
0.0
 30
0.0
 70
   128
 71
    37
 72
    36
 73
    35
  0
VERTEX
  5
7AF
  8
0
 62
     9
 10
0.0
 20
0.0
 30
0.0
 70
   128
 71
    40
 72
    39
 73
    38
  0
VERTEX
  5
7B0
  8
0
 62
     9
 10
0.0
 20
0.0
 30
0.0
 70
   128
 71
    43
 72
    42
 73
    41
  0
VERTEX
  5
7B1
  8
0
 62
     9
 10
0.0
 20
0.0
 30
0.0
 70
   128
 71
    46
 72
    45
 73
    44
  0
VERTEX
  5
7B2
  8
0
 62
     9
 10
0.0
 20
0.0
 30
0.0
 70
   128
 71
    49
 72
    48
 73
    47
  0
VERTEX
  5
7B3
  8
0
 62
     9
 10
0.0
 20
0.0
 30
0.0
 70
   128
 71
    52
 72
    51
 73
    50
  0
VERTEX
  5
7B4
  8
0
 62
     9
 10
0.0
 20
0.0
 30
0.0
 70
   128
 71
    44
 72
    54
 73
    53
  0
VERTEX
  5
7B5
  8
0
 62
     9
 10
0.0
 20
0.0
 30
0.0
 70
   128
 71
    56
 72
    50
 73
    55
  0
VERTEX
  5
7B6
  8
0
 62
     9
 10
0.0
 20
0.0
 30
0.0
 70
   128
 71
    51
 72
    55
 73
    50
  0
VERTEX
  5
7B7
  8
0
 62
     9
 10
0.0
 20
0.0
 30
0.0
 70
   128
 71
    58
 72
    57
 73
    56
  0
VERTEX
  5
7B8
  8
0
 62
     9
 10
0.0
 20
0.0
 30
0.0
 70
   128
 71
    56
 72
    55
 73
    58
  0
VERTEX
  5
7B9
  8
0
 62
     9
 10
0.0
 20
0.0
 30
0.0
 70
   128
 71
    57
 72
    59
 73
    32
  0
VERTEX
  5
7BA
  8
0
 62
     9
 10
0.0
 20
0.0
 30
0.0
 70
   128
 71
    59
 72
    57
 73
    58
  0
VERTEX
  5
7BB
  8
0
 62
     9
 10
0.0
 20
0.0
 30
0.0
 70
   128
 71
    59
 72
    30
 73
    32
  0
VERTEX
  5
7BC
  8
0
 62
     9
 10
0.0
 20
0.0
 30
0.0
 70
   128
 71
    40
 72
    49
 73
    39
  0
VERTEX
  5
7BD
  8
0
 62
     9
 10
0.0
 20
0.0
 30
0.0
 70
   128
 71
    54
 72
    52
 73
    53
  0
VERTEX
  5
7BE
  8
0
 62
     9
 10
0.0
 20
0.0
 30
0.0
 70
   128
 71
    52
 72
    54
 73
    51
  0
VERTEX
  5
7BF
  8
0
 62
     9
 10
0.0
 20
0.0
 30
0.0
 70
   128
 71
    46
 72
    44
 73
    53
  0
VERTEX
  5
7C0
  8
0
 62
     9
 10
0.0
 20
0.0
 30
0.0
 70
   128
 71
    48
 72
    45
 73
    47
  0
VERTEX
  5
7C1
  8
0
 62
     9
 10
0.0
 20
0.0
 30
0.0
 70
   128
 71
    46
 72
    47
 73
    45
  0
VERTEX
  5
7C2
  8
0
 62
     9
 10
0.0
 20
0.0
 30
0.0
 70
   128
 71
    49
 72
    40
 73
    48
  0
VERTEX
  5
7C3
  8
0
 62
     9
 10
0.0
 20
0.0
 30
0.0
 70
   128
 71
    39
 72
    41
 73
    38
  0
VERTEX
  5
7C4
  8
0
 62
     9
 10
0.0
 20
0.0
 30
0.0
 70
   128
 71
    42
 72
    43
 73
    60
  0
VERTEX
  5
7C5
  8
0
 62
     9
 10
0.0
 20
0.0
 30
0.0
 70
   128
 71
    42
 72
    38
 73
    41
  0
VERTEX
  5
7C6
  8
0
 62
     9
 10
0.0
 20
0.0
 30
0.0
 70
   128
 71
    37
 72
    60
 73
    43
  0
VERTEX
  5
7C7
  8
0
 62
     9
 10
0.0
 20
0.0
 30
0.0
 70
   128
 71
    33
 72
    34
 73
    36
  0
VERTEX
  5
7C8
  8
0
 62
     9
 10
0.0
 20
0.0
 30
0.0
 70
   128
 71
    34
 72
    35
 73
    36
  0
VERTEX
  5
7C9
  8
0
 62
     9
 10
0.0
 20
0.0
 30
0.0
 70
   128
 71
    37
 72
    35
 73
    60
  0
VERTEX
  5
7CA
  8
0
 62
     9
 10
0.0
 20
0.0
 30
0.0
 70
   128
 71
    17
 72
    15
 73
    33
  0
VERTEX
  5
7CB
  8
0
 62
     9
 10
0.0
 20
0.0
 30
0.0
 70
   128
 71
    63
 72
    62
 73
    61
  0
VERTEX
  5
7CC
  8
0
 62
     9
 10
0.0
 20
0.0
 30
0.0
 70
   128
 71
    63
 72
    64
 73
    62
  0
VERTEX
  5
7CD
  8
0
 62
     9
 10
0.0
 20
0.0
 30
0.0
 70
   128
 71
    66
 72
    64
 73
    65
  0
VERTEX
  5
7CE
  8
0
 62
     9
 10
0.0
 20
0.0
 30
0.0
 70
   128
 71
    63
 72
    61
 73
    67
  0
VERTEX
  5
7CF
  8
0
 62
     9
 10
0.0
 20
0.0
 30
0.0
 70
   128
 71
    65
 72
    69
 73
    68
  0
VERTEX
  5
7D0
  8
0
 62
     9
 10
0.0
 20
0.0
 30
0.0
 70
   128
 71
    65
 72
    68
 73
    66
  0
VERTEX
  5
7D1
  8
0
 62
     9
 10
0.0
 20
0.0
 30
0.0
 70
   128
 71
    70
 72
    68
 73
    69
  0
VERTEX
  5
7D2
  8
0
 62
     9
 10
0.0
 20
0.0
 30
0.0
 70
   128
 71
    70
 72
    72
 73
    71
  0
VERTEX
  5
7D3
  8
0
 62
     9
 10
0.0
 20
0.0
 30
0.0
 70
   128
 71
    70
 72
    69
 73
    72
  0
VERTEX
  5
7D4
  8
0
 62
     9
 10
0.0
 20
0.0
 30
0.0
 70
   128
 71
    62
 72
    64
 73
    66
  0
VERTEX
  5
7D5
  8
0
 62
     9
 10
0.0
 20
0.0
 30
0.0
 70
   128
 71
    73
 72
    71
 73
    72
  0
VERTEX
  5
7D6
  8
0
 62
     9
 10
0.0
 20
0.0
 30
0.0
 70
   128
 71
    75
 72
    73
 73
    74
  0
VERTEX
  5
7D7
  8
0
 62
     9
 10
0.0
 20
0.0
 30
0.0
 70
   128
 71
    75
 72
    71
 73
    73
  0
VERTEX
  5
7D8
  8
0
 62
     9
 10
0.0
 20
0.0
 30
0.0
 70
   128
 71
    77
 72
    67
 73
    76
  0
VERTEX
  5
7D9
  8
0
 62
     9
 10
0.0
 20
0.0
 30
0.0
 70
   128
 71
    61
 72
    76
 73
    67
  0
VERTEX
  5
7DA
  8
0
 62
     9
 10
0.0
 20
0.0
 30
0.0
 70
   128
 71
    79
 72
    78
 73
    77
  0
VERTEX
  5
7DB
  8
0
 62
     9
 10
0.0
 20
0.0
 30
0.0
 70
   128
 71
    77
 72
    76
 73
    79
  0
VERTEX
  5
7DC
  8
0
 62
     9
 10
0.0
 20
0.0
 30
0.0
 70
   128
 71
    78
 72
    81
 73
    80
  0
VERTEX
  5
7DD
  8
0
 62
     9
 10
0.0
 20
0.0
 30
0.0
 70
   128
 71
    81
 72
    78
 73
    79
  0
VERTEX
  5
7DE
  8
0
 62
     9
 10
0.0
 20
0.0
 30
0.0
 70
   128
 71
    83
 72
    80
 73
    82
  0
VERTEX
  5
7DF
  8
0
 62
     9
 10
0.0
 20
0.0
 30
0.0
 70
   128
 71
    81
 72
    82
 73
    80
  0
VERTEX
  5
7E0
  8
0
 62
     9
 10
0.0
 20
0.0
 30
0.0
 70
   128
 71
    85
 72
    84
 73
    83
  0
VERTEX
  5
7E1
  8
0
 62
     9
 10
0.0
 20
0.0
 30
0.0
 70
   128
 71
    83
 72
    82
 73
    85
  0
VERTEX
  5
7E2
  8
0
 62
     9
 10
0.0
 20
0.0
 30
0.0
 70
   128
 71
    84
 72
    87
 73
    86
  0
VERTEX
  5
7E3
  8
0
 62
     9
 10
0.0
 20
0.0
 30
0.0
 70
   128
 71
    87
 72
    84
 73
    85
  0
VERTEX
  5
7E4
  8
0
 62
     9
 10
0.0
 20
0.0
 30
0.0
 70
   128
 71
    87
 72
    88
 73
    86
  0
VERTEX
  5
7E5
  8
0
 62
     9
 10
0.0
 20
0.0
 30
0.0
 70
   128
 71
    74
 72
    90
 73
    89
  0
VERTEX
  5
7E6
  8
0
 62
     9
 10
0.0
 20
0.0
 30
0.0
 70
   128
 71
    93
 72
    92
 73
    91
  0
VERTEX
  5
7E7
  8
0
 62
     9
 10
0.0
 20
0.0
 30
0.0
 70
   128
 71
    96
 72
    95
 73
    94
  0
VERTEX
  5
7E8
  8
0
 62
     9
 10
0.0
 20
0.0
 30
0.0
 70
   128
 71
    99
 72
    98
 73
    97
  0
VERTEX
  5
7E9
  8
0
 62
     9
 10
0.0
 20
0.0
 30
0.0
 70
   128
 71
   102
 72
   101
 73
   100
  0
VERTEX
  5
7EA
  8
0
 62
     9
 10
0.0
 20
0.0
 30
0.0
 70
   128
 71
   105
 72
   104
 73
   103
  0
VERTEX
  5
7EB
  8
0
 62
     9
 10
0.0
 20
0.0
 30
0.0
 70
   128
 71
   108
 72
   107
 73
   106
  0
VERTEX
  5
7EC
  8
0
 62
     9
 10
0.0
 20
0.0
 30
0.0
 70
   128
 71
   109
 72
   106
 73
   107
  0
VERTEX
  5
7ED
  8
0
 62
     9
 10
0.0
 20
0.0
 30
0.0
 70
   128
 71
   111
 72
   110
 73
   108
  0
VERTEX
  5
7EE
  8
0
 62
     9
 10
0.0
 20
0.0
 30
0.0
 70
   128
 71
   108
 72
   106
 73
   111
  0
VERTEX
  5
7EF
  8
0
 62
     9
 10
0.0
 20
0.0
 30
0.0
 70
   128
 71
   110
 72
   112
 73
    88
  0
VERTEX
  5
7F0
  8
0
 62
     9
 10
0.0
 20
0.0
 30
0.0
 70
   128
 71
   112
 72
   110
 73
   111
  0
VERTEX
  5
7F1
  8
0
 62
     9
 10
0.0
 20
0.0
 30
0.0
 70
   128
 71
   103
 72
   113
 73
   105
  0
VERTEX
  5
7F2
  8
0
 62
     9
 10
0.0
 20
0.0
 30
0.0
 70
   128
 71
   112
 72
    86
 73
    88
  0
VERTEX
  5
7F3
  8
0
 62
     9
 10
0.0
 20
0.0
 30
0.0
 70
   128
 71
   100
 72
   109
 73
   102
  0
VERTEX
  5
7F4
  8
0
 62
     9
 10
0.0
 20
0.0
 30
0.0
 70
   128
 71
   107
 72
   102
 73
   109
  0
VERTEX
  5
7F5
  8
0
 62
     9
 10
0.0
 20
0.0
 30
0.0
 70
   128
 71
   104
 72
   100
 73
   101
  0
VERTEX
  5
7F6
  8
0
 62
     9
 10
0.0
 20
0.0
 30
0.0
 70
   128
 71
   113
 72
   114
 73
    95
  0
VERTEX
  5
7F7
  8
0
 62
     9
 10
0.0
 20
0.0
 30
0.0
 70
   128
 71
    97
 72
   115
 73
    95
  0
VERTEX
  5
7F8
  8
0
 62
     9
 10
0.0
 20
0.0
 30
0.0
 70
   128
 71
   116
 72
    99
 73
    93
  0
VERTEX
  5
7F9
  8
0
 62
     9
 10
0.0
 20
0.0
 30
0.0
 70
   128
 71
    98
 72
    99
 73
   116
  0
VERTEX
  5
7FA
  8
0
 62
     9
 10
0.0
 20
0.0
 30
0.0
 70
   128
 71
    98
 72
   115
 73
    97
  0
VERTEX
  5
7FB
  8
0
 62
     9
 10
0.0
 20
0.0
 30
0.0
 70
   128
 71
    74
 72
    89
 73
    75
  0
VERTEX
  5
7FC
  8
0
 62
     9
 10
0.0
 20
0.0
 30
0.0
 70
   128
 71
    91
 72
   116
 73
    93
  0
VERTEX
  5
7FD
  8
0
 62
     9
 10
0.0
 20
0.0
 30
0.0
 70
   128
 71
    92
 72
    89
 73
    90
  0
VERTEX
  5
7FE
  8
0
 62
     9
 10
0.0
 20
0.0
 30
0.0
 70
   128
 71
    92
 72
    90
 73
    91
  0
VERTEX
  5
7FF
  8
0
 62
     9
 10
0.0
 20
0.0
 30
0.0
 70
   128
 71
    94
 72
   118
 73
   117
  0
VERTEX
  5
800
  8
0
 62
     9
 10
0.0
 20
0.0
 30
0.0
 70
   128
 71
    95
 72
   114
 73
    97
  0
VERTEX
  5
801
  8
0
 62
     9
 10
0.0
 20
0.0
 30
0.0
 70
   128
 71
    94
 72
    95
 73
   115
  0
VERTEX
  5
802
  8
0
 62
     9
 10
0.0
 20
0.0
 30
0.0
 70
   128
 71
   118
 72
   104
 73
   117
  0
VERTEX
  5
803
  8
0
 62
     9
 10
0.0
 20
0.0
 30
0.0
 70
   128
 71
   114
 72
   113
 73
   103
  0
VERTEX
  5
804
  8
0
 62
     9
 10
0.0
 20
0.0
 30
0.0
 70
   128
 71
   104
 72
   118
 73
   100
  0
VERTEX
  5
805
  8
0
 62
     9
 10
0.0
 20
0.0
 30
0.0
 70
   128
 71
   103
 72
   104
 73
   101
  0
VERTEX
  5
806
  8
0
 62
     9
 10
0.0
 20
0.0
 30
0.0
 70
   128
 71
   117
 72
    96
 73
    94
  0
VERTEX
  5
807
  8
0
 62
     9
 10
0.0
 20
0.0
 30
0.0
 70
   128
 71
   120
 72
    68
 73
   119
  0
VERTEX
  5
808
  8
0
 62
     9
 10
0.0
 20
0.0
 30
0.0
 70
   128
 71
   114
 72
   103
 73
   121
  0
VERTEX
  5
809
  8
0
 62
     9
 10
0.0
 20
0.0
 30
0.0
 70
   128
 71
    93
 72
   123
 73
   122
  0
VERTEX
  5
80A
  8
0
 62
     9
 10
0.0
 20
0.0
 30
0.0
 70
   128
 71
    71
 72
   124
 73
   119
  0
VERTEX
  5
80B
  8
0
 62
     9
 10
0.0
 20
0.0
 30
0.0
 70
   128
 71
   125
 72
    62
 73
   120
  0
VERTEX
  5
80C
  8
0
 62
     9
 10
0.0
 20
0.0
 30
0.0
 70
   128
 71
    87
 72
    85
 73
   126
  0
VERTEX
  5
80D
  8
0
 62
     9
 10
0.0
 20
0.0
 30
0.0
 70
   128
 71
   127
 72
    76
 73
    61
  0
VERTEX
  5
80E
  8
0
 62
     9
 10
0.0
 20
0.0
 30
0.0
 70
   128
 71
   126
 72
    82
 73
   128
  0
VERTEX
  5
80F
  8
0
 62
     9
 10
0.0
 20
0.0
 30
0.0
 70
   128
 71
    88
 72
   129
 73
   110
  0
VERTEX
  5
810
  8
0
 62
     9
 10
0.0
 20
0.0
 30
0.0
 70
   128
 71
   107
 72
   129
 73
   130
  0
VERTEX
  5
811
  8
0
 62
     9
 10
0.0
 20
0.0
 30
0.0
 70
   128
 71
   101
 72
   130
 73
   131
  0
VERTEX
  5
812
  8
0
 62
     9
 10
0.0
 20
0.0
 30
0.0
 70
   128
 71
   124
 72
    89
 73
   122
  0
VERTEX
  5
813
  8
0
 62
     9
 10
0.0
 20
0.0
 30
0.0
 70
   128
 71
   108
 72
   129
 73
   107
  0
VERTEX
  5
814
  8
0
 62
     9
 10
0.0
 20
0.0
 30
0.0
 70
   128
 71
   129
 72
   108
 73
   110
  0
VERTEX
  5
815
  8
0
 62
     9
 10
0.0
 20
0.0
 30
0.0
 70
   128
 71
   102
 72
   130
 73
   101
  0
VERTEX
  5
816
  8
0
 62
     9
 10
0.0
 20
0.0
 30
0.0
 70
   128
 71
   130
 72
   102
 73
   107
  0
VERTEX
  5
817
  8
0
 62
     9
 10
0.0
 20
0.0
 30
0.0
 70
   128
 71
   131
 72
   121
 73
   103
  0
VERTEX
  5
818
  8
0
 62
     9
 10
0.0
 20
0.0
 30
0.0
 70
   128
 71
   131
 72
   103
 73
   101
  0
VERTEX
  5
819
  8
0
 62
     9
 10
0.0
 20
0.0
 30
0.0
 70
   128
 71
   121
 72
   123
 73
    97
  0
VERTEX
  5
81A
  8
0
 62
     9
 10
0.0
 20
0.0
 30
0.0
 70
   128
 71
   121
 72
    97
 73
   114
  0
VERTEX
  5
81B
  8
0
 62
     9
 10
0.0
 20
0.0
 30
0.0
 70
   128
 71
    99
 72
   123
 73
    93
  0
VERTEX
  5
81C
  8
0
 62
     9
 10
0.0
 20
0.0
 30
0.0
 70
   128
 71
   123
 72
    99
 73
    97
  0
VERTEX
  5
81D
  8
0
 62
     9
 10
0.0
 20
0.0
 30
0.0
 70
   128
 71
    92
 72
   122
 73
    89
  0
VERTEX
  5
81E
  8
0
 62
     9
 10
0.0
 20
0.0
 30
0.0
 70
   128
 71
   122
 72
    92
 73
    93
  0
VERTEX
  5
81F
  8
0
 62
     9
 10
0.0
 20
0.0
 30
0.0
 70
   128
 71
    75
 72
   124
 73
    71
  0
VERTEX
  5
820
  8
0
 62
     9
 10
0.0
 20
0.0
 30
0.0
 70
   128
 71
   124
 72
    75
 73
    89
  0
VERTEX
  5
821
  8
0
 62
     9
 10
0.0
 20
0.0
 30
0.0
 70
   128
 71
    70
 72
   119
 73
    68
  0
VERTEX
  5
822
  8
0
 62
     9
 10
0.0
 20
0.0
 30
0.0
 70
   128
 71
   119
 72
    70
 73
    71
  0
VERTEX
  5
823
  8
0
 62
     9
 10
0.0
 20
0.0
 30
0.0
 70
   128
 71
    66
 72
   120
 73
    62
  0
VERTEX
  5
824
  8
0
 62
     9
 10
0.0
 20
0.0
 30
0.0
 70
   128
 71
   120
 72
    66
 73
    68
  0
VERTEX
  5
825
  8
0
 62
     9
 10
0.0
 20
0.0
 30
0.0
 70
   128
 71
   125
 72
   127
 73
    61
  0
VERTEX
  5
826
  8
0
 62
     9
 10
0.0
 20
0.0
 30
0.0
 70
   128
 71
   125
 72
    61
 73
    62
  0
VERTEX
  5
827
  8
0
 62
     9
 10
0.0
 20
0.0
 30
0.0
 70
   128
 71
   127
 72
   128
 73
    79
  0
VERTEX
  5
828
  8
0
 62
     9
 10
0.0
 20
0.0
 30
0.0
 70
   128
 71
   127
 72
    79
 73
    76
  0
VERTEX
  5
829
  8
0
 62
     9
 10
0.0
 20
0.0
 30
0.0
 70
   128
 71
    81
 72
   128
 73
    82
  0
VERTEX
  5
82A
  8
0
 62
     9
 10
0.0
 20
0.0
 30
0.0
 70
   128
 71
   128
 72
    81
 73
    79
  0
VERTEX
  5
82B
  8
0
 62
     9
 10
0.0
 20
0.0
 30
0.0
 70
   128
 71
   126
 72
    88
 73
    87
  0
VERTEX
  5
82C
  8
0
 62
     9
 10
0.0
 20
0.0
 30
0.0
 70
   128
 71
   126
 72
    85
 73
    82
  0
SEQEND
  5
82D
  8
0
  0
ENDBLK
  5
830
  8
0
  0
BLOCK
  8
0
  2
44
 70
     0
 10
0.0
 20
0.0
 30
0.0
  3
44
  1

  0
POLYLINE
  5
832
  8
0
 62
     9
 66
     1
 10
0.0
 20
0.0
 30
0.0
 70
    64
 71
    94
 72
   129
  0
VERTEX
  5
833
  8
0
 10
2.820605039596558
 20
2.616077184677124
 30
31.64203834533691
 70
   192
  0
VERTEX
  5
834
  8
0
 10
29.01185035705566
 20
0.0000000000000446
 30
31.75
 70
   192
  0
VERTEX
  5
835
  8
0
 10
-0.0000000000000153
 20
0.0000000000000303
 30
31.75
 70
   192
  0
VERTEX
  5
836
  8
0
 10
29.01185035705566
 20
5.543815612792969
 30
31.26218414306641
 70
   192
  0
VERTEX
  5
837
  8
0
 10
29.01185035705566
 20
20.39145469665527
 30
24.33621406555176
 70
   192
  0
VERTEX
  5
838
  8
0
 10
29.01185035705566
 20
15.85631465911865
 30
27.50732421875
 70
   192
  0
VERTEX
  5
839
  8
0
 10
2.820605039596558
 20
17.73348045349121
 30
26.33860778808594
 70
   192
  0
VERTEX
  5
83A
  8
0
 10
29.01185035705566
 20
10.86834907531738
 30
29.83176612854004
 70
   192
  0
VERTEX
  5
83B
  8
0
 10
2.820605039596558
 20
7.945930480957031
 30
30.76358795166016
 70
   192
  0
VERTEX
  5
83C
  8
0
 10
2.820605039596558
 20
12.9718770980835
 30
28.85934257507324
 70
   192
  0
VERTEX
  5
83D
  8
0
 10
2.820605039596558
 20
28.32928276062012
 30
14.33570957183838
 70
   192
  0
VERTEX
  5
83E
  8
0
 10
2.820605039596558
 20
30.34562683105469
 30
9.339319229125977
 70
   192
  0
VERTEX
  5
83F
  8
0
 10
29.01185035705566
 20
29.83283233642578
 30
10.86577701568604
 70
   192
  0
VERTEX
  5
840
  8
0
 10
29.01185035705566
 20
24.33786773681641
 30
20.38940048217773
 70
   192
  0
VERTEX
  5
841
  8
0
 10
2.820605039596558
 20
25.49594116210938
 30
18.9226016998291
 70
   192
  0
VERTEX
  5
842
  8
0
 10
29.01185035705566
 20
27.5082836151123
 30
15.85400009155273
 70
   192
  0
VERTEX
  5
843
  8
0
 10
29.01185035705566
 20
31.26218414306641
 30
-5.543815612792969
 70
   192
  0
VERTEX
  5
844
  8
0
 10
2.820605039596558
 20
31.72201728820801
 30
-1.312167167663574
 70
   192
  0
VERTEX
  5
845
  8
0
 10
2.820605039596558
 20
31.04322814941406
 30
-6.655350208282471
 70
   192
  0
VERTEX
  5
846
  8
0
 10
29.01185035705566
 20
31.75
 30
-0.0000000000000812
 70
   192
  0
VERTEX
  5
847
  8
0
 10
29.01185035705566
 20
31.26292991638184
 30
5.542015075683594
 70
   192
  0
VERTEX
  5
848
  8
0
 10
2.820605039596558
 20
31.48738861083984
 30
4.073390007019043
 70
   192
  0
VERTEX
  5
849
  8
0
 10
29.01185035705566
 20
24.33621406555176
 30
-20.39145469665527
 70
   192
  0
VERTEX
  5
84A
  8
0
 10
29.01185035705566
 20
27.50732421875
 30
-15.85631465911865
 70
   192
  0
VERTEX
  5
84B
  8
0
 10
2.820605039596558
 20
27.04701805114746
 30
-16.62369537353516
 70
   192
  0
VERTEX
  5
84C
  8
0
 10
2.820605039596558
 20
29.46890068054199
 30
-11.81104946136475
 70
   192
  0
VERTEX
  5
84D
  8
0
 10
29.01185035705566
 20
29.83176612854004
 30
-10.86834907531738
 70
   192
  0
VERTEX
  5
84E
  8
0
 10
29.01185035705566
 20
15.85400009155273
 30
-27.5082836151123
 70
   192
  0
VERTEX
  5
84F
  8
0
 10
29.01185035705566
 20
20.38940048217773
 30
-24.33786773681641
 70
   192
  0
VERTEX
  5
850
  8
0
 10
2.820605039596558
 20
19.96169471740723
 30
-24.69130897521973
 70
   192
  0
VERTEX
  5
851
  8
0
 10
2.820605039596558
 20
23.8477725982666
 30
-20.95657730102539
 70
   192
  0
VERTEX
  5
852
  8
0
 10
2.820605039596558
 20
15.48857975006104
 30
-27.70022010803223
 70
   192
  0
VERTEX
  5
853
  8
0
 10
29.01185035705566
 20
10.86577701568604
 30
-29.83283233642578
 70
   192
  0
VERTEX
  5
854
  8
0
 10
2.820605039596558
 20
10.5786657333374
 30
-29.91905784606934
 70
   192
  0
VERTEX
  5
855
  8
0
 10
29.01185035705566
 20
5.542015075683594
 30
-31.26292991638184
 70
   192
  0
VERTEX
  5
856
  8
0
 10
29.01185035705566
 20
0.0000000000000416
 30
-31.75
 70
   192
  0
VERTEX
  5
857
  8
0
 10
2.820605039596558
 20
5.366841316223145
 30
-31.2914867401123
 70
   192
  0
VERTEX
  5
858
  8
0
 10
2.820605039596558
 20
0.0000000000000287
 30
-31.75
 70
   192
  0
VERTEX
  5
859
  8
0
 10
2.820605039596558
 20
21.93222427368164
 30
22.95996475219727
 70
   192
  0
VERTEX
  5
85A
  8
0
 10
-0.0000000000000168
 20
2.616077184677124
 30
31.64203834533691
 70
   192
  0
VERTEX
  5
85B
  8
0
 10
2.820605039596558
 20
-2.616077184677124
 30
31.64203834533691
 70
   192
  0
VERTEX
  5
85C
  8
0
 10
-0.0000000000000142
 20
-2.616077184677124
 30
31.64203834533691
 70
   192
  0
VERTEX
  5
85D
  8
0
 10
29.01185035705566
 20
-10.86577701568604
 30
29.83283233642578
 70
   192
  0
VERTEX
  5
85E
  8
0
 10
2.820605039596558
 20
-7.927319526672363
 30
30.74382019042969
 70
   192
  0
VERTEX
  5
85F
  8
0
 10
29.01185035705566
 20
-5.542015075683594
 30
31.26292991638184
 70
   192
  0
VERTEX
  5
860
  8
0
 10
29.01185035705566
 20
-24.33621406555176
 30
20.39145469665527
 70
   192
  0
VERTEX
  5
861
  8
0
 10
2.820605039596558
 20
-21.92473411560059
 30
22.96447372436523
 70
   192
  0
VERTEX
  5
862
  8
0
 10
29.01185035705566
 20
-20.38940048217773
 30
24.33786773681641
 70
   192
  0
VERTEX
  5
863
  8
0
 10
29.01185035705566
 20
-15.85400009155273
 30
27.5082836151123
 70
   192
  0
VERTEX
  5
864
  8
0
 10
2.820605039596558
 20
-17.71529960632324
 30
26.31903076171875
 70
   192
  0
VERTEX
  5
865
  8
0
 10
2.820605039596558
 20
-13.00678539276123
 30
28.94328498840332
 70
   192
  0
VERTEX
  5
866
  8
0
 10
2.820605039596558
 20
-30.34280204772949
 30
9.345263481140137
 70
   192
  0
VERTEX
  5
867
  8
0
 10
29.01185035705566
 20
-31.26218414306641
 30
5.543815612792969
 70
   192
  0
VERTEX
  5
868
  8
0
 10
2.820605039596558
 20
-31.48680114746094
 30
4.077106952667236
 70
   192
  0
VERTEX
  5
869
  8
0
 10
2.820605039596558
 20
-28.32627296447754
 30
14.34163665771484
 70
   192
  0
VERTEX
  5
86A
  8
0
 10
29.01185035705566
 20
-27.50732421875
 30
15.85631465911865
 70
   192
  0
VERTEX
  5
86B
  8
0
 10
29.01185035705566
 20
-29.83176612854004
 30
10.86834907531738
 70
   192
  0
VERTEX
  5
86C
  8
0
 10
2.820605039596558
 20
-29.47452735900879
 30
-11.80586719512939
 70
   192
  0
VERTEX
  5
86D
  8
0
 10
2.820605039596558
 20
-31.04569816589355
 30
-6.651913166046143
 70
   192
  0
VERTEX
  5
86E
  8
0
 10
29.01185035705566
 20
-29.83283233642578
 30
-10.86577701568604
 70
   192
  0
VERTEX
  5
86F
  8
0
 10
29.01185035705566
 20
-31.26292991638184
 30
-5.542015075683594
 70
   192
  0
VERTEX
  5
870
  8
0
 10
2.820605039596558
 20
-31.72306251525879
 30
-1.303972482681274
 70
   192
  0
VERTEX
  5
871
  8
0
 10
29.01185035705566
 20
-31.75
 30
-0.0000000000000929
 70
   192
  0
VERTEX
  5
872
  8
0
 10
2.820605039596558
 20
-23.85338401794434
 30
-20.95790672302246
 70
   192
  0
VERTEX
  5
873
  8
0
 10
2.820605039596558
 20
-27.05470657348633
 30
-16.61946868896484
 70
   192
  0
VERTEX
  5
874
  8
0
 10
29.01185035705566
 20
-24.33786773681641
 30
-20.38940048217773
 70
   192
  0
VERTEX
  5
875
  8
0
 10
29.01185035705566
 20
-27.5082836151123
 30
-15.85400009155273
 70
   192
  0
VERTEX
  5
876
  8
0
 10
2.820605039596558
 20
-19.96744918823242
 30
-24.68695449829102
 70
   192
  0
VERTEX
  5
877
  8
0
 10
29.01185035705566
 20
-20.39145469665527
 30
-24.33621406555176
 70
   192
  0
VERTEX
  5
878
  8
0
 10
29.01185035705566
 20
-15.85631465911865
 30
-27.50732421875
 70
   192
  0
VERTEX
  5
879
  8
0
 10
29.01185035705566
 20
-10.86834907531738
 30
-29.83176612854004
 70
   192
  0
VERTEX
  5
87A
  8
0
 10
2.820605039596558
 20
-15.4597806930542
 30
-27.6341667175293
 70
   192
  0
VERTEX
  5
87B
  8
0
 10
29.01185035705566
 20
-5.543815612792969
 30
-31.26218414306641
 70
   192
  0
VERTEX
  5
87C
  8
0
 10
2.820605039596558
 20
-10.60195732116699
 30
-29.9546012878418
 70
   192
  0
VERTEX
  5
87D
  8
0
 10
2.820605039596558
 20
-5.37550687789917
 30
-31.2946949005127
 70
   192
  0
VERTEX
  5
87E
  8
0
 10
2.820605039596558
 20
-25.49305152893066
 30
18.92279624938965
 70
   192
  0
VERTEX
  5
87F
  8
0
 10
29.01185035705566
 20
19.0164966583252
 30
-24.4007740020752
 70
   192
  0
VERTEX
  5
880
  8
0
 10
29.01185035705566
 20
25.89769554138184
 30
-16.92246055603027
 70
   192
  0
VERTEX
  5
881
  8
0
 10
29.01185035705566
 20
-25.89437484741211
 30
-16.92877578735352
 70
   192
  0
VERTEX
  5
882
  8
0
 10
29.01185035705566
 20
29.9920654296875
 30
-7.588841915130615
 70
   192
  0
VERTEX
  5
883
  8
0
 10
29.01185035705566
 20
10.04887962341309
 30
-29.26002883911133
 70
   192
  0
VERTEX
  5
884
  8
0
 10
29.01185035705566
 20
30.82792472839355
 30
2.573984622955322
 70
   192
  0
VERTEX
  5
885
  8
0
 10
29.01185035705566
 20
-10.02971458435059
 30
-29.26548385620117
 70
   192
  0
VERTEX
  5
886
  8
0
 10
29.01185035705566
 20
28.32979393005371
 30
12.42782306671143
 70
   192
  0
VERTEX
  5
887
  8
0
 10
29.01185035705566
 20
-18.99816131591797
 30
-24.41687202453613
 70
   192
  0
VERTEX
  5
888
  8
0
 10
29.01185035705566
 20
22.75467681884766
 30
20.95991897583008
 70
   192
  0
VERTEX
  5
889
  8
0
 10
29.01185035705566
 20
14.7070894241333
 30
27.21529197692871
 70
   192
  0
VERTEX
  5
88A
  8
0
 10
29.01185035705566
 20
-29.9871711730957
 30
-7.60604190826416
 70
   192
  0
VERTEX
  5
88B
  8
0
 10
29.01185035705566
 20
5.086959362030029
 30
30.5148983001709
 70
   192
  0
VERTEX
  5
88C
  8
0
 10
29.01185035705566
 20
-30.83162498474121
 30
2.543479681015015
 70
   192
  0
VERTEX
  5
88D
  8
0
 10
29.01185035705566
 20
-28.33606910705566
 30
12.41589546203613
 70
   192
  0
VERTEX
  5
88E
  8
0
 10
29.01185035705566
 20
-22.76617622375488
 30
20.94682312011719
 70
   192
  0
VERTEX
  5
88F
  8
0
 10
29.01185035705566
 20
-14.73866271972656
 30
27.19868087768555
 70
   192
  0
VERTEX
  5
890
  8
0
 10
29.01185035705566
 20
-5.103598594665527
 30
30.51287841796875
 70
   192
  0
VERTEX
  5
891
  8
0
 62
     9
 10
0.0
 20
0.0
 30
0.0
 70
   128
 71
     3
 72
     2
 73
     1
  0
VERTEX
  5
892
  8
0
 62
     9
 10
0.0
 20
0.0
 30
0.0
 70
   128
 71
     1
 72
     2
 73
     4
  0
VERTEX
  5
893
  8
0
 62
     9
 10
0.0
 20
0.0
 30
0.0
 70
   128
 71
     7
 72
     6
 73
     5
  0
VERTEX
  5
894
  8
0
 62
     9
 10
0.0
 20
0.0
 30
0.0
 70
   128
 71
    10
 72
     9
 73
     8
  0
VERTEX
  5
895
  8
0
 62
     9
 10
0.0
 20
0.0
 30
0.0
 70
   128
 71
    13
 72
    12
 73
    11
  0
VERTEX
  5
896
  8
0
 62
     9
 10
0.0
 20
0.0
 30
0.0
 70
   128
 71
    16
 72
    15
 73
    14
  0
VERTEX
  5
897
  8
0
 62
     9
 10
0.0
 20
0.0
 30
0.0
 70
   128
 71
    19
 72
    18
 73
    17
  0
VERTEX
  5
898
  8
0
 62
     9
 10
0.0
 20
0.0
 30
0.0
 70
   128
 71
    22
 72
    21
 73
    20
  0
VERTEX
  5
899
  8
0
 62
     9
 10
0.0
 20
0.0
 30
0.0
 70
   128
 71
    25
 72
    24
 73
    23
  0
VERTEX
  5
89A
  8
0
 62
     9
 10
0.0
 20
0.0
 30
0.0
 70
   128
 71
    27
 72
    24
 73
    26
  0
VERTEX
  5
89B
  8
0
 62
     9
 10
0.0
 20
0.0
 30
0.0
 70
   128
 71
    30
 72
    29
 73
    28
  0
VERTEX
  5
89C
  8
0
 62
     9
 10
0.0
 20
0.0
 30
0.0
 70
   128
 71
    23
 72
    29
 73
    31
  0
VERTEX
  5
89D
  8
0
 62
     9
 10
0.0
 20
0.0
 30
0.0
 70
   128
 71
    33
 72
    32
 73
    28
  0
VERTEX
  5
89E
  8
0
 62
     9
 10
0.0
 20
0.0
 30
0.0
 70
   128
 71
    30
 72
    28
 73
    32
  0
VERTEX
  5
89F
  8
0
 62
     9
 10
0.0
 20
0.0
 30
0.0
 70
   128
 71
    33
 72
    35
 73
    34
  0
VERTEX
  5
8A0
  8
0
 62
     9
 10
0.0
 20
0.0
 30
0.0
 70
   128
 71
    34
 72
    32
 73
    33
  0
VERTEX
  5
8A1
  8
0
 62
     9
 10
0.0
 20
0.0
 30
0.0
 70
   128
 71
    37
 72
    35
 73
    36
  0
VERTEX
  5
8A2
  8
0
 62
     9
 10
0.0
 20
0.0
 30
0.0
 70
   128
 71
    35
 72
    37
 73
    34
  0
VERTEX
  5
8A3
  8
0
 62
     9
 10
0.0
 20
0.0
 30
0.0
 70
   128
 71
    37
 72
    36
 73
    38
  0
VERTEX
  5
8A4
  8
0
 62
     9
 10
0.0
 20
0.0
 30
0.0
 70
   128
 71
    29
 72
    30
 73
    31
  0
VERTEX
  5
8A5
  8
0
 62
     9
 10
0.0
 20
0.0
 30
0.0
 70
   128
 71
    25
 72
    23
 73
    31
  0
VERTEX
  5
8A6
  8
0
 62
     9
 10
0.0
 20
0.0
 30
0.0
 70
   128
 71
    26
 72
    24
 73
    25
  0
VERTEX
  5
8A7
  8
0
 62
     9
 10
0.0
 20
0.0
 30
0.0
 70
   128
 71
    19
 72
    27
 73
    26
  0
VERTEX
  5
8A8
  8
0
 62
     9
 10
0.0
 20
0.0
 30
0.0
 70
   128
 71
    18
 72
    20
 73
    17
  0
VERTEX
  5
8A9
  8
0
 62
     9
 10
0.0
 20
0.0
 30
0.0
 70
   128
 71
    19
 72
    17
 73
    27
  0
VERTEX
  5
8AA
  8
0
 62
     9
 10
0.0
 20
0.0
 30
0.0
 70
   128
 71
    22
 72
    12
 73
    21
  0
VERTEX
  5
8AB
  8
0
 62
     9
 10
0.0
 20
0.0
 30
0.0
 70
   128
 71
    18
 72
    22
 73
    20
  0
VERTEX
  5
8AC
  8
0
 62
     9
 10
0.0
 20
0.0
 30
0.0
 70
   128
 71
    13
 72
    11
 73
    16
  0
VERTEX
  5
8AD
  8
0
 62
     9
 10
0.0
 20
0.0
 30
0.0
 70
   128
 71
    21
 72
    12
 73
    13
  0
VERTEX
  5
8AE
  8
0
 62
     9
 10
0.0
 20
0.0
 30
0.0
 70
   128
 71
    14
 72
    15
 73
    39
  0
VERTEX
  5
8AF
  8
0
 62
     9
 10
0.0
 20
0.0
 30
0.0
 70
   128
 71
    16
 72
    11
 73
    15
  0
VERTEX
  5
8B0
  8
0
 62
     9
 10
0.0
 20
0.0
 30
0.0
 70
   128
 71
    39
 72
     7
 73
     5
  0
VERTEX
  5
8B1
  8
0
 62
     9
 10
0.0
 20
0.0
 30
0.0
 70
   128
 71
     5
 72
    14
 73
    39
  0
VERTEX
  5
8B2
  8
0
 62
     9
 10
0.0
 20
0.0
 30
0.0
 70
   128
 71
    10
 72
     6
 73
     7
  0
VERTEX
  5
8B3
  8
0
 62
     9
 10
0.0
 20
0.0
 30
0.0
 70
   128
 71
     9
 72
     4
 73
     8
  0
VERTEX
  5
8B4
  8
0
 62
     9
 10
0.0
 20
0.0
 30
0.0
 70
   128
 71
    10
 72
     8
 73
     6
  0
VERTEX
  5
8B5
  8
0
 62
     9
 10
0.0
 20
0.0
 30
0.0
 70
   128
 71
     1
 72
     4
 73
     9
  0
VERTEX
  5
8B6
  8
0
 62
     9
 10
0.0
 20
0.0
 30
0.0
 70
   128
 71
     1
 72
    40
 73
     3
  0
VERTEX
  5
8B7
  8
0
 62
     9
 10
0.0
 20
0.0
 30
0.0
 70
   128
 71
     3
 72
    41
 73
     2
  0
VERTEX
  5
8B8
  8
0
 62
     9
 10
0.0
 20
0.0
 30
0.0
 70
   128
 71
    41
 72
     3
 73
    42
  0
VERTEX
  5
8B9
  8
0
 62
     9
 10
0.0
 20
0.0
 30
0.0
 70
   128
 71
    45
 72
    44
 73
    43
  0
VERTEX
  5
8BA
  8
0
 62
     9
 10
0.0
 20
0.0
 30
0.0
 70
   128
 71
    48
 72
    47
 73
    46
  0
VERTEX
  5
8BB
  8
0
 62
     9
 10
0.0
 20
0.0
 30
0.0
 70
   128
 71
    51
 72
    50
 73
    49
  0
VERTEX
  5
8BC
  8
0
 62
     9
 10
0.0
 20
0.0
 30
0.0
 70
   128
 71
    54
 72
    53
 73
    52
  0
VERTEX
  5
8BD
  8
0
 62
     9
 10
0.0
 20
0.0
 30
0.0
 70
   128
 71
    57
 72
    56
 73
    55
  0
VERTEX
  5
8BE
  8
0
 62
     9
 10
0.0
 20
0.0
 30
0.0
 70
   128
 71
    60
 72
    59
 73
    58
  0
VERTEX
  5
8BF
  8
0
 62
     9
 10
0.0
 20
0.0
 30
0.0
 70
   128
 71
    63
 72
    62
 73
    61
  0
VERTEX
  5
8C0
  8
0
 62
     9
 10
0.0
 20
0.0
 30
0.0
 70
   128
 71
    66
 72
    65
 73
    64
  0
VERTEX
  5
8C1
  8
0
 62
     9
 10
0.0
 20
0.0
 30
0.0
 70
   128
 71
    58
 72
    65
 73
    67
  0
VERTEX
  5
8C2
  8
0
 62
     9
 10
0.0
 20
0.0
 30
0.0
 70
   128
 71
    70
 72
    69
 73
    68
  0
VERTEX
  5
8C3
  8
0
 62
     9
 10
0.0
 20
0.0
 30
0.0
 70
   128
 71
    64
 72
    68
 73
    69
  0
VERTEX
  5
8C4
  8
0
 62
     9
 10
0.0
 20
0.0
 30
0.0
 70
   128
 71
    72
 72
    71
 73
    70
  0
VERTEX
  5
8C5
  8
0
 62
     9
 10
0.0
 20
0.0
 30
0.0
 70
   128
 71
    70
 72
    68
 73
    72
  0
VERTEX
  5
8C6
  8
0
 62
     9
 10
0.0
 20
0.0
 30
0.0
 70
   128
 71
    71
 72
    74
 73
    73
  0
VERTEX
  5
8C7
  8
0
 62
     9
 10
0.0
 20
0.0
 30
0.0
 70
   128
 71
    74
 72
    71
 73
    72
  0
VERTEX
  5
8C8
  8
0
 62
     9
 10
0.0
 20
0.0
 30
0.0
 70
   128
 71
    36
 72
    73
 73
    75
  0
VERTEX
  5
8C9
  8
0
 62
     9
 10
0.0
 20
0.0
 30
0.0
 70
   128
 71
    74
 72
    75
 73
    73
  0
VERTEX
  5
8CA
  8
0
 62
     9
 10
0.0
 20
0.0
 30
0.0
 70
   128
 71
    36
 72
    75
 73
    38
  0
VERTEX
  5
8CB
  8
0
 62
     9
 10
0.0
 20
0.0
 30
0.0
 70
   128
 71
    65
 72
    66
 73
    67
  0
VERTEX
  5
8CC
  8
0
 62
     9
 10
0.0
 20
0.0
 30
0.0
 70
   128
 71
    66
 72
    64
 73
    69
  0
VERTEX
  5
8CD
  8
0
 62
     9
 10
0.0
 20
0.0
 30
0.0
 70
   128
 71
    59
 72
    60
 73
    61
  0
VERTEX
  5
8CE
  8
0
 62
     9
 10
0.0
 20
0.0
 30
0.0
 70
   128
 71
    60
 72
    58
 73
    67
  0
VERTEX
  5
8CF
  8
0
 62
     9
 10
0.0
 20
0.0
 30
0.0
 70
   128
 71
    63
 72
    54
 73
    62
  0
VERTEX
  5
8D0
  8
0
 62
     9
 10
0.0
 20
0.0
 30
0.0
 70
   128
 71
    61
 72
    62
 73
    59
  0
VERTEX
  5
8D1
  8
0
 62
     9
 10
0.0
 20
0.0
 30
0.0
 70
   128
 71
    53
 72
    57
 73
    52
  0
VERTEX
  5
8D2
  8
0
 62
     9
 10
0.0
 20
0.0
 30
0.0
 70
   128
 71
    63
 72
    53
 73
    54
  0
VERTEX
  5
8D3
  8
0
 62
     9
 10
0.0
 20
0.0
 30
0.0
 70
   128
 71
    55
 72
    56
 73
    76
  0
VERTEX
  5
8D4
  8
0
 62
     9
 10
0.0
 20
0.0
 30
0.0
 70
   128
 71
    52
 72
    57
 73
    55
  0
VERTEX
  5
8D5
  8
0
 62
     9
 10
0.0
 20
0.0
 30
0.0
 70
   128
 71
    46
 72
    47
 73
    76
  0
VERTEX
  5
8D6
  8
0
 62
     9
 10
0.0
 20
0.0
 30
0.0
 70
   128
 71
    76
 72
    56
 73
    46
  0
VERTEX
  5
8D7
  8
0
 62
     9
 10
0.0
 20
0.0
 30
0.0
 70
   128
 71
    49
 72
    50
 73
    48
  0
VERTEX
  5
8D8
  8
0
 62
     9
 10
0.0
 20
0.0
 30
0.0
 70
   128
 71
    50
 72
    47
 73
    48
  0
VERTEX
  5
8D9
  8
0
 62
     9
 10
0.0
 20
0.0
 30
0.0
 70
   128
 71
    43
 72
    44
 73
    51
  0
VERTEX
  5
8DA
  8
0
 62
     9
 10
0.0
 20
0.0
 30
0.0
 70
   128
 71
    43
 72
    51
 73
    49
  0
VERTEX
  5
8DB
  8
0
 62
     9
 10
0.0
 20
0.0
 30
0.0
 70
   128
 71
    45
 72
     2
 73
    41
  0
VERTEX
  5
8DC
  8
0
 62
     9
 10
0.0
 20
0.0
 30
0.0
 70
   128
 71
    45
 72
    41
 73
    44
  0
VERTEX
  5
8DD
  8
0
 62
     9
 10
0.0
 20
0.0
 30
0.0
 70
   128
 71
    23
 72
    78
 73
    77
  0
VERTEX
  5
8DE
  8
0
 62
     9
 10
0.0
 20
0.0
 30
0.0
 70
   128
 71
    67
 72
    66
 73
    79
  0
VERTEX
  5
8DF
  8
0
 62
     9
 10
0.0
 20
0.0
 30
0.0
 70
   128
 71
    17
 72
    80
 73
    27
  0
VERTEX
  5
8E0
  8
0
 62
     9
 10
0.0
 20
0.0
 30
0.0
 70
   128
 71
    78
 72
    24
 73
    27
  0
VERTEX
  5
8E1
  8
0
 62
     9
 10
0.0
 20
0.0
 30
0.0
 70
   128
 71
    80
 72
    17
 73
    20
  0
VERTEX
  5
8E2
  8
0
 62
     9
 10
0.0
 20
0.0
 30
0.0
 70
   128
 71
    23
 72
    77
 73
    29
  0
VERTEX
  5
8E3
  8
0
 62
     9
 10
0.0
 20
0.0
 30
0.0
 70
   128
 71
    77
 72
    81
 73
    28
  0
VERTEX
  5
8E4
  8
0
 62
     9
 10
0.0
 20
0.0
 30
0.0
 70
   128
 71
    20
 72
    21
 73
    82
  0
VERTEX
  5
8E5
  8
0
 62
     9
 10
0.0
 20
0.0
 30
0.0
 70
   128
 71
    81
 72
    35
 73
    33
  0
VERTEX
  5
8E6
  8
0
 62
     9
 10
0.0
 20
0.0
 30
0.0
 70
   128
 71
    36
 72
    83
 73
    73
  0
VERTEX
  5
8E7
  8
0
 62
     9
 10
0.0
 20
0.0
 30
0.0
 70
   128
 71
    13
 72
    16
 73
    84
  0
VERTEX
  5
8E8
  8
0
 62
     9
 10
0.0
 20
0.0
 30
0.0
 70
   128
 71
    69
 72
    70
 73
    85
  0
VERTEX
  5
8E9
  8
0
 62
     9
 10
0.0
 20
0.0
 30
0.0
 70
   128
 71
     5
 72
    87
 73
    86
  0
VERTEX
  5
8EA
  8
0
 62
     9
 10
0.0
 20
0.0
 30
0.0
 70
   128
 71
    60
 72
    79
 73
    88
  0
VERTEX
  5
8EB
  8
0
 62
     9
 10
0.0
 20
0.0
 30
0.0
 70
   128
 71
     4
 72
     2
 73
    89
  0
VERTEX
  5
8EC
  8
0
 62
     9
 10
0.0
 20
0.0
 30
0.0
 70
   128
 71
    90
 72
    53
 73
    63
  0
VERTEX
  5
8ED
  8
0
 62
     9
 10
0.0
 20
0.0
 30
0.0
 70
   128
 71
    90
 72
    63
 73
    88
  0
VERTEX
  5
8EE
  8
0
 62
     9
 10
0.0
 20
0.0
 30
0.0
 70
   128
 71
    56
 72
    57
 73
    91
  0
VERTEX
  5
8EF
  8
0
 62
     9
 10
0.0
 20
0.0
 30
0.0
 70
   128
 71
    91
 72
    57
 73
    53
  0
VERTEX
  5
8F0
  8
0
 62
     9
 10
0.0
 20
0.0
 30
0.0
 70
   128
 71
    46
 72
    56
 73
    92
  0
VERTEX
  5
8F1
  8
0
 62
     9
 10
0.0
 20
0.0
 30
0.0
 70
   128
 71
    49
 72
    48
 73
    93
  0
VERTEX
  5
8F2
  8
0
 62
     9
 10
0.0
 20
0.0
 30
0.0
 70
   128
 71
    48
 72
    92
 73
    93
  0
VERTEX
  5
8F3
  8
0
 62
     9
 10
0.0
 20
0.0
 30
0.0
 70
   128
 71
    45
 72
    43
 73
    94
  0
VERTEX
  5
8F4
  8
0
 62
     9
 10
0.0
 20
0.0
 30
0.0
 70
   128
 71
    94
 72
    43
 73
    93
  0
VERTEX
  5
8F5
  8
0
 62
     9
 10
0.0
 20
0.0
 30
0.0
 70
   128
 71
    89
 72
     2
 73
    94
  0
VERTEX
  5
8F6
  8
0
 62
     9
 10
0.0
 20
0.0
 30
0.0
 70
   128
 71
    60
 72
    88
 73
    61
  0
VERTEX
  5
8F7
  8
0
 62
     9
 10
0.0
 20
0.0
 30
0.0
 70
   128
 71
    79
 72
    66
 73
    85
  0
VERTEX
  5
8F8
  8
0
 62
     9
 10
0.0
 20
0.0
 30
0.0
 70
   128
 71
    87
 72
     6
 73
     8
  0
VERTEX
  5
8F9
  8
0
 62
     9
 10
0.0
 20
0.0
 30
0.0
 70
   128
 71
    87
 72
     8
 73
    89
  0
VERTEX
  5
8FA
  8
0
 62
     9
 10
0.0
 20
0.0
 30
0.0
 70
   128
 71
    85
 72
    70
 73
    83
  0
VERTEX
  5
8FB
  8
0
 62
     9
 10
0.0
 20
0.0
 30
0.0
 70
   128
 71
    86
 72
    14
 73
     5
  0
VERTEX
  5
8FC
  8
0
 62
     9
 10
0.0
 20
0.0
 30
0.0
 70
   128
 71
    73
 72
    83
 73
    71
  0
VERTEX
  5
8FD
  8
0
 62
     9
 10
0.0
 20
0.0
 30
0.0
 70
   128
 71
    16
 72
    86
 73
    84
  0
VERTEX
  5
8FE
  8
0
 62
     9
 10
0.0
 20
0.0
 30
0.0
 70
   128
 71
    82
 72
    21
 73
    84
  0
VERTEX
  5
8FF
  8
0
 62
     9
 10
0.0
 20
0.0
 30
0.0
 70
   128
 71
    33
 72
    28
 73
    81
  0
VERTEX
  5
900
  8
0
 62
     9
 10
0.0
 20
0.0
 30
0.0
 70
   128
 71
    71
 72
    83
 73
    70
  0
VERTEX
  5
901
  8
0
 62
     9
 10
0.0
 20
0.0
 30
0.0
 70
   128
 71
    69
 72
    85
 73
    66
  0
VERTEX
  5
902
  8
0
 62
     9
 10
0.0
 20
0.0
 30
0.0
 70
   128
 71
    67
 72
    79
 73
    60
  0
VERTEX
  5
903
  8
0
 62
     9
 10
0.0
 20
0.0
 30
0.0
 70
   128
 71
    61
 72
    88
 73
    63
  0
VERTEX
  5
904
  8
0
 62
     9
 10
0.0
 20
0.0
 30
0.0
 70
   128
 71
    90
 72
    91
 73
    53
  0
VERTEX
  5
905
  8
0
 62
     9
 10
0.0
 20
0.0
 30
0.0
 70
   128
 71
    91
 72
    92
 73
    56
  0
VERTEX
  5
906
  8
0
 62
     9
 10
0.0
 20
0.0
 30
0.0
 70
   128
 71
    46
 72
    92
 73
    48
  0
VERTEX
  5
907
  8
0
 62
     9
 10
0.0
 20
0.0
 30
0.0
 70
   128
 71
    49
 72
    93
 73
    43
  0
VERTEX
  5
908
  8
0
 62
     9
 10
0.0
 20
0.0
 30
0.0
 70
   128
 71
    45
 72
    94
 73
     2
  0
VERTEX
  5
909
  8
0
 62
     9
 10
0.0
 20
0.0
 30
0.0
 70
   128
 71
     4
 72
    89
 73
     8
  0
VERTEX
  5
90A
  8
0
 62
     9
 10
0.0
 20
0.0
 30
0.0
 70
   128
 71
     6
 72
    87
 73
     5
  0
VERTEX
  5
90B
  8
0
 62
     9
 10
0.0
 20
0.0
 30
0.0
 70
   128
 71
    14
 72
    86
 73
    16
  0
VERTEX
  5
90C
  8
0
 62
     9
 10
0.0
 20
0.0
 30
0.0
 70
   128
 71
    13
 72
    84
 73
    21
  0
VERTEX
  5
90D
  8
0
 62
     9
 10
0.0
 20
0.0
 30
0.0
 70
   128
 71
    82
 72
    80
 73
    20
  0
VERTEX
  5
90E
  8
0
 62
     9
 10
0.0
 20
0.0
 30
0.0
 70
   128
 71
    80
 72
    78
 73
    27
  0
VERTEX
  5
90F
  8
0
 62
     9
 10
0.0
 20
0.0
 30
0.0
 70
   128
 71
    24
 72
    78
 73
    23
  0
VERTEX
  5
910
  8
0
 62
     9
 10
0.0
 20
0.0
 30
0.0
 70
   128
 71
    29
 72
    77
 73
    28
  0
VERTEX
  5
911
  8
0
 62
     9
 10
0.0
 20
0.0
 30
0.0
 70
   128
 71
    81
 72
    36
 73
    35
  0
SEQEND
  5
912
  8
0
 62
     9
  0
ENDBLK
  5
915
  8
0
  0
BLOCK
  8
0
  2
45
 70
     0
 10
0.0
 20
0.0
 30
0.0
  3
45
  1

  0
POLYLINE
  5
917
  8
0
 62
     9
 66
     1
 10
0.0
 20
0.0
 30
0.0
 70
    64
 71
    94
 72
   129
  0
VERTEX
  5
918
  8
0
 10
2.820605039596558
 20
2.616077184677124
 30
31.64203834533691
 70
   192
  0
VERTEX
  5
919
  8
0
 10
29.01185035705566
 20
0.0000000000000446
 30
31.75
 70
   192
  0
VERTEX
  5
91A
  8
0
 10
-0.0000000000000153
 20
0.0000000000000303
 30
31.75
 70
   192
  0
VERTEX
  5
91B
  8
0
 10
29.01185035705566
 20
5.543815612792969
 30
31.26218414306641
 70
   192
  0
VERTEX
  5
91C
  8
0
 10
29.01185035705566
 20
20.39145469665527
 30
24.33621406555176
 70
   192
  0
VERTEX
  5
91D
  8
0
 10
29.01185035705566
 20
15.85631465911865
 30
27.50732421875
 70
   192
  0
VERTEX
  5
91E
  8
0
 10
2.820605039596558
 20
17.73348045349121
 30
26.33860778808594
 70
   192
  0
VERTEX
  5
91F
  8
0
 10
29.01185035705566
 20
10.86834907531738
 30
29.83176612854004
 70
   192
  0
VERTEX
  5
920
  8
0
 10
2.820605039596558
 20
7.945930480957031
 30
30.76358795166016
 70
   192
  0
VERTEX
  5
921
  8
0
 10
2.820605039596558
 20
12.9718770980835
 30
28.85934257507324
 70
   192
  0
VERTEX
  5
922
  8
0
 10
2.820605039596558
 20
28.32928276062012
 30
14.33570957183838
 70
   192
  0
VERTEX
  5
923
  8
0
 10
2.820605039596558
 20
30.34562683105469
 30
9.339319229125977
 70
   192
  0
VERTEX
  5
924
  8
0
 10
29.01185035705566
 20
29.83283233642578
 30
10.86577701568604
 70
   192
  0
VERTEX
  5
925
  8
0
 10
29.01185035705566
 20
24.33786773681641
 30
20.38940048217773
 70
   192
  0
VERTEX
  5
926
  8
0
 10
2.820605039596558
 20
25.49594116210938
 30
18.9226016998291
 70
   192
  0
VERTEX
  5
927
  8
0
 10
29.01185035705566
 20
27.5082836151123
 30
15.85400009155273
 70
   192
  0
VERTEX
  5
928
  8
0
 10
29.01185035705566
 20
31.26218414306641
 30
-5.543815612792969
 70
   192
  0
VERTEX
  5
929
  8
0
 10
2.820605039596558
 20
31.72201728820801
 30
-1.312167167663574
 70
   192
  0
VERTEX
  5
92A
  8
0
 10
2.820605039596558
 20
31.04322814941406
 30
-6.655350208282471
 70
   192
  0
VERTEX
  5
92B
  8
0
 10
29.01185035705566
 20
31.75
 30
-0.0000000000000812
 70
   192
  0
VERTEX
  5
92C
  8
0
 10
29.01185035705566
 20
31.26292991638184
 30
5.542015075683594
 70
   192
  0
VERTEX
  5
92D
  8
0
 10
2.820605039596558
 20
31.48738861083984
 30
4.073390007019043
 70
   192
  0
VERTEX
  5
92E
  8
0
 10
29.01185035705566
 20
24.33621406555176
 30
-20.39145469665527
 70
   192
  0
VERTEX
  5
92F
  8
0
 10
29.01185035705566
 20
27.50732421875
 30
-15.85631465911865
 70
   192
  0
VERTEX
  5
930
  8
0
 10
2.820605039596558
 20
27.04701805114746
 30
-16.62369537353516
 70
   192
  0
VERTEX
  5
931
  8
0
 10
2.820605039596558
 20
29.46890068054199
 30
-11.81104946136475
 70
   192
  0
VERTEX
  5
932
  8
0
 10
29.01185035705566
 20
29.83176612854004
 30
-10.86834907531738
 70
   192
  0
VERTEX
  5
933
  8
0
 10
29.01185035705566
 20
15.85400009155273
 30
-27.5082836151123
 70
   192
  0
VERTEX
  5
934
  8
0
 10
29.01185035705566
 20
20.38940048217773
 30
-24.33786773681641
 70
   192
  0
VERTEX
  5
935
  8
0
 10
2.820605039596558
 20
19.96169471740723
 30
-24.69130897521973
 70
   192
  0
VERTEX
  5
936
  8
0
 10
2.820605039596558
 20
23.8477725982666
 30
-20.95657730102539
 70
   192
  0
VERTEX
  5
937
  8
0
 10
2.820605039596558
 20
15.48857975006104
 30
-27.70022010803223
 70
   192
  0
VERTEX
  5
938
  8
0
 10
29.01185035705566
 20
10.86577701568604
 30
-29.83283233642578
 70
   192
  0
VERTEX
  5
939
  8
0
 10
2.820605039596558
 20
10.5786657333374
 30
-29.91905784606934
 70
   192
  0
VERTEX
  5
93A
  8
0
 10
29.01185035705566
 20
5.542015075683594
 30
-31.26292991638184
 70
   192
  0
VERTEX
  5
93B
  8
0
 10
29.01185035705566
 20
0.0000000000000416
 30
-31.75
 70
   192
  0
VERTEX
  5
93C
  8
0
 10
2.820605039596558
 20
5.366841316223145
 30
-31.2914867401123
 70
   192
  0
VERTEX
  5
93D
  8
0
 10
2.820605039596558
 20
0.0000000000000287
 30
-31.75
 70
   192
  0
VERTEX
  5
93E
  8
0
 10
2.820605039596558
 20
21.93222427368164
 30
22.95996475219727
 70
   192
  0
VERTEX
  5
93F
  8
0
 10
-0.0000000000000168
 20
2.616077184677124
 30
31.64203834533691
 70
   192
  0
VERTEX
  5
940
  8
0
 10
2.820605039596558
 20
-2.616077184677124
 30
31.64203834533691
 70
   192
  0
VERTEX
  5
941
  8
0
 10
-0.0000000000000142
 20
-2.616077184677124
 30
31.64203834533691
 70
   192
  0
VERTEX
  5
942
  8
0
 10
29.01185035705566
 20
-10.86577701568604
 30
29.83283233642578
 70
   192
  0
VERTEX
  5
943
  8
0
 10
2.820605039596558
 20
-7.927319526672363
 30
30.74382019042969
 70
   192
  0
VERTEX
  5
944
  8
0
 10
29.01185035705566
 20
-5.542015075683594
 30
31.26292991638184
 70
   192
  0
VERTEX
  5
945
  8
0
 10
29.01185035705566
 20
-24.33621406555176
 30
20.39145469665527
 70
   192
  0
VERTEX
  5
946
  8
0
 10
2.820605039596558
 20
-21.92473411560059
 30
22.96447372436523
 70
   192
  0
VERTEX
  5
947
  8
0
 10
29.01185035705566
 20
-20.38940048217773
 30
24.33786773681641
 70
   192
  0
VERTEX
  5
948
  8
0
 10
29.01185035705566
 20
-15.85400009155273
 30
27.5082836151123
 70
   192
  0
VERTEX
  5
949
  8
0
 10
2.820605039596558
 20
-17.71529960632324
 30
26.31903076171875
 70
   192
  0
VERTEX
  5
94A
  8
0
 10
2.820605039596558
 20
-13.00678539276123
 30
28.94328498840332
 70
   192
  0
VERTEX
  5
94B
  8
0
 10
2.820605039596558
 20
-30.34280204772949
 30
9.345263481140137
 70
   192
  0
VERTEX
  5
94C
  8
0
 10
29.01185035705566
 20
-31.26218414306641
 30
5.543815612792969
 70
   192
  0
VERTEX
  5
94D
  8
0
 10
2.820605039596558
 20
-31.48680114746094
 30
4.077106952667236
 70
   192
  0
VERTEX
  5
94E
  8
0
 10
2.820605039596558
 20
-28.32627296447754
 30
14.34163665771484
 70
   192
  0
VERTEX
  5
94F
  8
0
 10
29.01185035705566
 20
-27.50732421875
 30
15.85631465911865
 70
   192
  0
VERTEX
  5
950
  8
0
 10
29.01185035705566
 20
-29.83176612854004
 30
10.86834907531738
 70
   192
  0
VERTEX
  5
951
  8
0
 10
2.820605039596558
 20
-29.47452735900879
 30
-11.80586719512939
 70
   192
  0
VERTEX
  5
952
  8
0
 10
2.820605039596558
 20
-31.04569816589355
 30
-6.651913166046143
 70
   192
  0
VERTEX
  5
953
  8
0
 10
29.01185035705566
 20
-29.83283233642578
 30
-10.86577701568604
 70
   192
  0
VERTEX
  5
954
  8
0
 10
29.01185035705566
 20
-31.26292991638184
 30
-5.542015075683594
 70
   192
  0
VERTEX
  5
955
  8
0
 10
2.820605039596558
 20
-31.72306251525879
 30
-1.303972482681274
 70
   192
  0
VERTEX
  5
956
  8
0
 10
29.01185035705566
 20
-31.75
 30
-0.0000000000000929
 70
   192
  0
VERTEX
  5
957
  8
0
 10
2.820605039596558
 20
-23.85338401794434
 30
-20.95790672302246
 70
   192
  0
VERTEX
  5
958
  8
0
 10
2.820605039596558
 20
-27.05470657348633
 30
-16.61946868896484
 70
   192
  0
VERTEX
  5
959
  8
0
 10
29.01185035705566
 20
-24.33786773681641
 30
-20.38940048217773
 70
   192
  0
VERTEX
  5
95A
  8
0
 10
29.01185035705566
 20
-27.5082836151123
 30
-15.85400009155273
 70
   192
  0
VERTEX
  5
95B
  8
0
 10
2.820605039596558
 20
-19.96744918823242
 30
-24.68695449829102
 70
   192
  0
VERTEX
  5
95C
  8
0
 10
29.01185035705566
 20
-20.39145469665527
 30
-24.33621406555176
 70
   192
  0
VERTEX
  5
95D
  8
0
 10
29.01185035705566
 20
-15.85631465911865
 30
-27.50732421875
 70
   192
  0
VERTEX
  5
95E
  8
0
 10
29.01185035705566
 20
-10.86834907531738
 30
-29.83176612854004
 70
   192
  0
VERTEX
  5
95F
  8
0
 10
2.820605039596558
 20
-15.4597806930542
 30
-27.6341667175293
 70
   192
  0
VERTEX
  5
960
  8
0
 10
29.01185035705566
 20
-5.543815612792969
 30
-31.26218414306641
 70
   192
  0
VERTEX
  5
961
  8
0
 10
2.820605039596558
 20
-10.60195732116699
 30
-29.9546012878418
 70
   192
  0
VERTEX
  5
962
  8
0
 10
2.820605039596558
 20
-5.37550687789917
 30
-31.2946949005127
 70
   192
  0
VERTEX
  5
963
  8
0
 10
2.820605039596558
 20
-25.49305152893066
 30
18.92279624938965
 70
   192
  0
VERTEX
  5
964
  8
0
 10
29.01185035705566
 20
19.0164966583252
 30
-24.4007740020752
 70
   192
  0
VERTEX
  5
965
  8
0
 10
29.01185035705566
 20
25.89769554138184
 30
-16.92246055603027
 70
   192
  0
VERTEX
  5
966
  8
0
 10
29.01185035705566
 20
-25.89437484741211
 30
-16.92877578735352
 70
   192
  0
VERTEX
  5
967
  8
0
 10
29.01185035705566
 20
29.9920654296875
 30
-7.588841915130615
 70
   192
  0
VERTEX
  5
968
  8
0
 10
29.01185035705566
 20
10.04887962341309
 30
-29.26002883911133
 70
   192
  0
VERTEX
  5
969
  8
0
 10
29.01185035705566
 20
30.82792472839355
 30
2.573984622955322
 70
   192
  0
VERTEX
  5
96A
  8
0
 10
29.01185035705566
 20
-10.02971458435059
 30
-29.26548385620117
 70
   192
  0
VERTEX
  5
96B
  8
0
 10
29.01185035705566
 20
28.32979393005371
 30
12.42782306671143
 70
   192
  0
VERTEX
  5
96C
  8
0
 10
29.01185035705566
 20
-18.99816131591797
 30
-24.41687202453613
 70
   192
  0
VERTEX
  5
96D
  8
0
 10
29.01185035705566
 20
22.75467681884766
 30
20.95991897583008
 70
   192
  0
VERTEX
  5
96E
  8
0
 10
29.01185035705566
 20
14.7070894241333
 30
27.21529197692871
 70
   192
  0
VERTEX
  5
96F
  8
0
 10
29.01185035705566
 20
-29.9871711730957
 30
-7.60604190826416
 70
   192
  0
VERTEX
  5
970
  8
0
 10
29.01185035705566
 20
5.086959362030029
 30
30.5148983001709
 70
   192
  0
VERTEX
  5
971
  8
0
 10
29.01185035705566
 20
-30.83162498474121
 30
2.543479681015015
 70
   192
  0
VERTEX
  5
972
  8
0
 10
29.01185035705566
 20
-28.33606910705566
 30
12.41589546203613
 70
   192
  0
VERTEX
  5
973
  8
0
 10
29.01185035705566
 20
-22.76617622375488
 30
20.94682312011719
 70
   192
  0
VERTEX
  5
974
  8
0
 10
29.01185035705566
 20
-14.73866271972656
 30
27.19868087768555
 70
   192
  0
VERTEX
  5
975
  8
0
 10
29.01185035705566
 20
-5.103598594665527
 30
30.51287841796875
 70
   192
  0
VERTEX
  5
976
  8
0
 62
     9
 10
0.0
 20
0.0
 30
0.0
 70
   128
 71
     3
 72
     2
 73
     1
  0
VERTEX
  5
977
  8
0
 62
     9
 10
0.0
 20
0.0
 30
0.0
 70
   128
 71
     1
 72
     2
 73
     4
  0
VERTEX
  5
978
  8
0
 62
     9
 10
0.0
 20
0.0
 30
0.0
 70
   128
 71
     7
 72
     6
 73
     5
  0
VERTEX
  5
979
  8
0
 62
     9
 10
0.0
 20
0.0
 30
0.0
 70
   128
 71
    10
 72
     9
 73
     8
  0
VERTEX
  5
97A
  8
0
 62
     9
 10
0.0
 20
0.0
 30
0.0
 70
   128
 71
    13
 72
    12
 73
    11
  0
VERTEX
  5
97B
  8
0
 62
     9
 10
0.0
 20
0.0
 30
0.0
 70
   128
 71
    16
 72
    15
 73
    14
  0
VERTEX
  5
97C
  8
0
 62
     9
 10
0.0
 20
0.0
 30
0.0
 70
   128
 71
    19
 72
    18
 73
    17
  0
VERTEX
  5
97D
  8
0
 62
     9
 10
0.0
 20
0.0
 30
0.0
 70
   128
 71
    22
 72
    21
 73
    20
  0
VERTEX
  5
97E
  8
0
 62
     9
 10
0.0
 20
0.0
 30
0.0
 70
   128
 71
    25
 72
    24
 73
    23
  0
VERTEX
  5
97F
  8
0
 62
     9
 10
0.0
 20
0.0
 30
0.0
 70
   128
 71
    27
 72
    24
 73
    26
  0
VERTEX
  5
980
  8
0
 62
     9
 10
0.0
 20
0.0
 30
0.0
 70
   128
 71
    30
 72
    29
 73
    28
  0
VERTEX
  5
981
  8
0
 62
     9
 10
0.0
 20
0.0
 30
0.0
 70
   128
 71
    23
 72
    29
 73
    31
  0
VERTEX
  5
982
  8
0
 62
     9
 10
0.0
 20
0.0
 30
0.0
 70
   128
 71
    33
 72
    32
 73
    28
  0
VERTEX
  5
983
  8
0
 62
     9
 10
0.0
 20
0.0
 30
0.0
 70
   128
 71
    30
 72
    28
 73
    32
  0
VERTEX
  5
984
  8
0
 62
     9
 10
0.0
 20
0.0
 30
0.0
 70
   128
 71
    33
 72
    35
 73
    34
  0
VERTEX
  5
985
  8
0
 62
     9
 10
0.0
 20
0.0
 30
0.0
 70
   128
 71
    34
 72
    32
 73
    33
  0
VERTEX
  5
986
  8
0
 62
     9
 10
0.0
 20
0.0
 30
0.0
 70
   128
 71
    37
 72
    35
 73
    36
  0
VERTEX
  5
987
  8
0
 62
     9
 10
0.0
 20
0.0
 30
0.0
 70
   128
 71
    35
 72
    37
 73
    34
  0
VERTEX
  5
988
  8
0
 62
     9
 10
0.0
 20
0.0
 30
0.0
 70
   128
 71
    37
 72
    36
 73
    38
  0
VERTEX
  5
989
  8
0
 62
     9
 10
0.0
 20
0.0
 30
0.0
 70
   128
 71
    29
 72
    30
 73
    31
  0
VERTEX
  5
98A
  8
0
 62
     9
 10
0.0
 20
0.0
 30
0.0
 70
   128
 71
    25
 72
    23
 73
    31
  0
VERTEX
  5
98B
  8
0
 62
     9
 10
0.0
 20
0.0
 30
0.0
 70
   128
 71
    26
 72
    24
 73
    25
  0
VERTEX
  5
98C
  8
0
 62
     9
 10
0.0
 20
0.0
 30
0.0
 70
   128
 71
    19
 72
    27
 73
    26
  0
VERTEX
  5
98D
  8
0
 62
     9
 10
0.0
 20
0.0
 30
0.0
 70
   128
 71
    18
 72
    20
 73
    17
  0
VERTEX
  5
98E
  8
0
 62
     9
 10
0.0
 20
0.0
 30
0.0
 70
   128
 71
    19
 72
    17
 73
    27
  0
VERTEX
  5
98F
  8
0
 62
     9
 10
0.0
 20
0.0
 30
0.0
 70
   128
 71
    22
 72
    12
 73
    21
  0
VERTEX
  5
990
  8
0
 62
     9
 10
0.0
 20
0.0
 30
0.0
 70
   128
 71
    18
 72
    22
 73
    20
  0
VERTEX
  5
991
  8
0
 62
     9
 10
0.0
 20
0.0
 30
0.0
 70
   128
 71
    13
 72
    11
 73
    16
  0
VERTEX
  5
992
  8
0
 62
     9
 10
0.0
 20
0.0
 30
0.0
 70
   128
 71
    21
 72
    12
 73
    13
  0
VERTEX
  5
993
  8
0
 62
     9
 10
0.0
 20
0.0
 30
0.0
 70
   128
 71
    14
 72
    15
 73
    39
  0
VERTEX
  5
994
  8
0
 62
     9
 10
0.0
 20
0.0
 30
0.0
 70
   128
 71
    16
 72
    11
 73
    15
  0
VERTEX
  5
995
  8
0
 62
     9
 10
0.0
 20
0.0
 30
0.0
 70
   128
 71
    39
 72
     7
 73
     5
  0
VERTEX
  5
996
  8
0
 62
     9
 10
0.0
 20
0.0
 30
0.0
 70
   128
 71
     5
 72
    14
 73
    39
  0
VERTEX
  5
997
  8
0
 62
     9
 10
0.0
 20
0.0
 30
0.0
 70
   128
 71
    10
 72
     6
 73
     7
  0
VERTEX
  5
998
  8
0
 62
     9
 10
0.0
 20
0.0
 30
0.0
 70
   128
 71
     9
 72
     4
 73
     8
  0
VERTEX
  5
999
  8
0
 62
     9
 10
0.0
 20
0.0
 30
0.0
 70
   128
 71
    10
 72
     8
 73
     6
  0
VERTEX
  5
99A
  8
0
 62
     9
 10
0.0
 20
0.0
 30
0.0
 70
   128
 71
     1
 72
     4
 73
     9
  0
VERTEX
  5
99B
  8
0
 62
     9
 10
0.0
 20
0.0
 30
0.0
 70
   128
 71
     1
 72
    40
 73
     3
  0
VERTEX
  5
99C
  8
0
 62
     9
 10
0.0
 20
0.0
 30
0.0
 70
   128
 71
     3
 72
    41
 73
     2
  0
VERTEX
  5
99D
  8
0
 62
     9
 10
0.0
 20
0.0
 30
0.0
 70
   128
 71
    41
 72
     3
 73
    42
  0
VERTEX
  5
99E
  8
0
 62
     9
 10
0.0
 20
0.0
 30
0.0
 70
   128
 71
    45
 72
    44
 73
    43
  0
VERTEX
  5
99F
  8
0
 62
     9
 10
0.0
 20
0.0
 30
0.0
 70
   128
 71
    48
 72
    47
 73
    46
  0
VERTEX
  5
9A0
  8
0
 62
     9
 10
0.0
 20
0.0
 30
0.0
 70
   128
 71
    51
 72
    50
 73
    49
  0
VERTEX
  5
9A1
  8
0
 62
     9
 10
0.0
 20
0.0
 30
0.0
 70
   128
 71
    54
 72
    53
 73
    52
  0
VERTEX
  5
9A2
  8
0
 62
     9
 10
0.0
 20
0.0
 30
0.0
 70
   128
 71
    57
 72
    56
 73
    55
  0
VERTEX
  5
9A3
  8
0
 62
     9
 10
0.0
 20
0.0
 30
0.0
 70
   128
 71
    60
 72
    59
 73
    58
  0
VERTEX
  5
9A4
  8
0
 62
     9
 10
0.0
 20
0.0
 30
0.0
 70
   128
 71
    63
 72
    62
 73
    61
  0
VERTEX
  5
9A5
  8
0
 62
     9
 10
0.0
 20
0.0
 30
0.0
 70
   128
 71
    66
 72
    65
 73
    64
  0
VERTEX
  5
9A6
  8
0
 62
     9
 10
0.0
 20
0.0
 30
0.0
 70
   128
 71
    58
 72
    65
 73
    67
  0
VERTEX
  5
9A7
  8
0
 62
     9
 10
0.0
 20
0.0
 30
0.0
 70
   128
 71
    70
 72
    69
 73
    68
  0
VERTEX
  5
9A8
  8
0
 62
     9
 10
0.0
 20
0.0
 30
0.0
 70
   128
 71
    64
 72
    68
 73
    69
  0
VERTEX
  5
9A9
  8
0
 62
     9
 10
0.0
 20
0.0
 30
0.0
 70
   128
 71
    72
 72
    71
 73
    70
  0
VERTEX
  5
9AA
  8
0
 62
     9
 10
0.0
 20
0.0
 30
0.0
 70
   128
 71
    70
 72
    68
 73
    72
  0
VERTEX
  5
9AB
  8
0
 62
     9
 10
0.0
 20
0.0
 30
0.0
 70
   128
 71
    71
 72
    74
 73
    73
  0
VERTEX
  5
9AC
  8
0
 62
     9
 10
0.0
 20
0.0
 30
0.0
 70
   128
 71
    74
 72
    71
 73
    72
  0
VERTEX
  5
9AD
  8
0
 62
     9
 10
0.0
 20
0.0
 30
0.0
 70
   128
 71
    36
 72
    73
 73
    75
  0
VERTEX
  5
9AE
  8
0
 62
     9
 10
0.0
 20
0.0
 30
0.0
 70
   128
 71
    74
 72
    75
 73
    73
  0
VERTEX
  5
9AF
  8
0
 62
     9
 10
0.0
 20
0.0
 30
0.0
 70
   128
 71
    36
 72
    75
 73
    38
  0
VERTEX
  5
9B0
  8
0
 62
     9
 10
0.0
 20
0.0
 30
0.0
 70
   128
 71
    65
 72
    66
 73
    67
  0
VERTEX
  5
9B1
  8
0
 62
     9
 10
0.0
 20
0.0
 30
0.0
 70
   128
 71
    66
 72
    64
 73
    69
  0
VERTEX
  5
9B2
  8
0
 62
     9
 10
0.0
 20
0.0
 30
0.0
 70
   128
 71
    59
 72
    60
 73
    61
  0
VERTEX
  5
9B3
  8
0
 62
     9
 10
0.0
 20
0.0
 30
0.0
 70
   128
 71
    60
 72
    58
 73
    67
  0
VERTEX
  5
9B4
  8
0
 62
     9
 10
0.0
 20
0.0
 30
0.0
 70
   128
 71
    63
 72
    54
 73
    62
  0
VERTEX
  5
9B5
  8
0
 62
     9
 10
0.0
 20
0.0
 30
0.0
 70
   128
 71
    61
 72
    62
 73
    59
  0
VERTEX
  5
9B6
  8
0
 62
     9
 10
0.0
 20
0.0
 30
0.0
 70
   128
 71
    53
 72
    57
 73
    52
  0
VERTEX
  5
9B7
  8
0
 62
     9
 10
0.0
 20
0.0
 30
0.0
 70
   128
 71
    63
 72
    53
 73
    54
  0
VERTEX
  5
9B8
  8
0
 62
     9
 10
0.0
 20
0.0
 30
0.0
 70
   128
 71
    55
 72
    56
 73
    76
  0
VERTEX
  5
9B9
  8
0
 62
     9
 10
0.0
 20
0.0
 30
0.0
 70
   128
 71
    52
 72
    57
 73
    55
  0
VERTEX
  5
9BA
  8
0
 62
     9
 10
0.0
 20
0.0
 30
0.0
 70
   128
 71
    46
 72
    47
 73
    76
  0
VERTEX
  5
9BB
  8
0
 62
     9
 10
0.0
 20
0.0
 30
0.0
 70
   128
 71
    76
 72
    56
 73
    46
  0
VERTEX
  5
9BC
  8
0
 62
     9
 10
0.0
 20
0.0
 30
0.0
 70
   128
 71
    49
 72
    50
 73
    48
  0
VERTEX
  5
9BD
  8
0
 62
     9
 10
0.0
 20
0.0
 30
0.0
 70
   128
 71
    50
 72
    47
 73
    48
  0
VERTEX
  5
9BE
  8
0
 62
     9
 10
0.0
 20
0.0
 30
0.0
 70
   128
 71
    43
 72
    44
 73
    51
  0
VERTEX
  5
9BF
  8
0
 62
     9
 10
0.0
 20
0.0
 30
0.0
 70
   128
 71
    43
 72
    51
 73
    49
  0
VERTEX
  5
9C0
  8
0
 62
     9
 10
0.0
 20
0.0
 30
0.0
 70
   128
 71
    45
 72
     2
 73
    41
  0
VERTEX
  5
9C1
  8
0
 62
     9
 10
0.0
 20
0.0
 30
0.0
 70
   128
 71
    45
 72
    41
 73
    44
  0
VERTEX
  5
9C2
  8
0
 62
     9
 10
0.0
 20
0.0
 30
0.0
 70
   128
 71
    23
 72
    78
 73
    77
  0
VERTEX
  5
9C3
  8
0
 62
     9
 10
0.0
 20
0.0
 30
0.0
 70
   128
 71
    67
 72
    66
 73
    79
  0
VERTEX
  5
9C4
  8
0
 62
     9
 10
0.0
 20
0.0
 30
0.0
 70
   128
 71
    17
 72
    80
 73
    27
  0
VERTEX
  5
9C5
  8
0
 62
     9
 10
0.0
 20
0.0
 30
0.0
 70
   128
 71
    78
 72
    24
 73
    27
  0
VERTEX
  5
9C6
  8
0
 62
     9
 10
0.0
 20
0.0
 30
0.0
 70
   128
 71
    80
 72
    17
 73
    20
  0
VERTEX
  5
9C7
  8
0
 62
     9
 10
0.0
 20
0.0
 30
0.0
 70
   128
 71
    23
 72
    77
 73
    29
  0
VERTEX
  5
9C8
  8
0
 62
     9
 10
0.0
 20
0.0
 30
0.0
 70
   128
 71
    77
 72
    81
 73
    28
  0
VERTEX
  5
9C9
  8
0
 62
     9
 10
0.0
 20
0.0
 30
0.0
 70
   128
 71
    20
 72
    21
 73
    82
  0
VERTEX
  5
9CA
  8
0
 62
     9
 10
0.0
 20
0.0
 30
0.0
 70
   128
 71
    81
 72
    35
 73
    33
  0
VERTEX
  5
9CB
  8
0
 62
     9
 10
0.0
 20
0.0
 30
0.0
 70
   128
 71
    36
 72
    83
 73
    73
  0
VERTEX
  5
9CC
  8
0
 62
     9
 10
0.0
 20
0.0
 30
0.0
 70
   128
 71
    13
 72
    16
 73
    84
  0
VERTEX
  5
9CD
  8
0
 62
     9
 10
0.0
 20
0.0
 30
0.0
 70
   128
 71
    69
 72
    70
 73
    85
  0
VERTEX
  5
9CE
  8
0
 62
     9
 10
0.0
 20
0.0
 30
0.0
 70
   128
 71
     5
 72
    87
 73
    86
  0
VERTEX
  5
9CF
  8
0
 62
     9
 10
0.0
 20
0.0
 30
0.0
 70
   128
 71
    60
 72
    79
 73
    88
  0
VERTEX
  5
9D0
  8
0
 62
     9
 10
0.0
 20
0.0
 30
0.0
 70
   128
 71
     4
 72
     2
 73
    89
  0
VERTEX
  5
9D1
  8
0
 62
     9
 10
0.0
 20
0.0
 30
0.0
 70
   128
 71
    90
 72
    53
 73
    63
  0
VERTEX
  5
9D2
  8
0
 62
     9
 10
0.0
 20
0.0
 30
0.0
 70
   128
 71
    90
 72
    63
 73
    88
  0
VERTEX
  5
9D3
  8
0
 62
     9
 10
0.0
 20
0.0
 30
0.0
 70
   128
 71
    56
 72
    57
 73
    91
  0
VERTEX
  5
9D4
  8
0
 62
     9
 10
0.0
 20
0.0
 30
0.0
 70
   128
 71
    91
 72
    57
 73
    53
  0
VERTEX
  5
9D5
  8
0
 62
     9
 10
0.0
 20
0.0
 30
0.0
 70
   128
 71
    46
 72
    56
 73
    92
  0
VERTEX
  5
9D6
  8
0
 62
     9
 10
0.0
 20
0.0
 30
0.0
 70
   128
 71
    49
 72
    48
 73
    93
  0
VERTEX
  5
9D7
  8
0
 62
     9
 10
0.0
 20
0.0
 30
0.0
 70
   128
 71
    48
 72
    92
 73
    93
  0
VERTEX
  5
9D8
  8
0
 62
     9
 10
0.0
 20
0.0
 30
0.0
 70
   128
 71
    45
 72
    43
 73
    94
  0
VERTEX
  5
9D9
  8
0
 62
     9
 10
0.0
 20
0.0
 30
0.0
 70
   128
 71
    94
 72
    43
 73
    93
  0
VERTEX
  5
9DA
  8
0
 62
     9
 10
0.0
 20
0.0
 30
0.0
 70
   128
 71
    89
 72
     2
 73
    94
  0
VERTEX
  5
9DB
  8
0
 62
     9
 10
0.0
 20
0.0
 30
0.0
 70
   128
 71
    60
 72
    88
 73
    61
  0
VERTEX
  5
9DC
  8
0
 62
     9
 10
0.0
 20
0.0
 30
0.0
 70
   128
 71
    79
 72
    66
 73
    85
  0
VERTEX
  5
9DD
  8
0
 62
     9
 10
0.0
 20
0.0
 30
0.0
 70
   128
 71
    87
 72
     6
 73
     8
  0
VERTEX
  5
9DE
  8
0
 62
     9
 10
0.0
 20
0.0
 30
0.0
 70
   128
 71
    87
 72
     8
 73
    89
  0
VERTEX
  5
9DF
  8
0
 62
     9
 10
0.0
 20
0.0
 30
0.0
 70
   128
 71
    85
 72
    70
 73
    83
  0
VERTEX
  5
9E0
  8
0
 62
     9
 10
0.0
 20
0.0
 30
0.0
 70
   128
 71
    86
 72
    14
 73
     5
  0
VERTEX
  5
9E1
  8
0
 62
     9
 10
0.0
 20
0.0
 30
0.0
 70
   128
 71
    73
 72
    83
 73
    71
  0
VERTEX
  5
9E2
  8
0
 62
     9
 10
0.0
 20
0.0
 30
0.0
 70
   128
 71
    16
 72
    86
 73
    84
  0
VERTEX
  5
9E3
  8
0
 62
     9
 10
0.0
 20
0.0
 30
0.0
 70
   128
 71
    82
 72
    21
 73
    84
  0
VERTEX
  5
9E4
  8
0
 62
     9
 10
0.0
 20
0.0
 30
0.0
 70
   128
 71
    33
 72
    28
 73
    81
  0
VERTEX
  5
9E5
  8
0
 62
     9
 10
0.0
 20
0.0
 30
0.0
 70
   128
 71
    71
 72
    83
 73
    70
  0
VERTEX
  5
9E6
  8
0
 62
     9
 10
0.0
 20
0.0
 30
0.0
 70
   128
 71
    69
 72
    85
 73
    66
  0
VERTEX
  5
9E7
  8
0
 62
     9
 10
0.0
 20
0.0
 30
0.0
 70
   128
 71
    67
 72
    79
 73
    60
  0
VERTEX
  5
9E8
  8
0
 62
     9
 10
0.0
 20
0.0
 30
0.0
 70
   128
 71
    61
 72
    88
 73
    63
  0
VERTEX
  5
9E9
  8
0
 62
     9
 10
0.0
 20
0.0
 30
0.0
 70
   128
 71
    90
 72
    91
 73
    53
  0
VERTEX
  5
9EA
  8
0
 62
     9
 10
0.0
 20
0.0
 30
0.0
 70
   128
 71
    91
 72
    92
 73
    56
  0
VERTEX
  5
9EB
  8
0
 62
     9
 10
0.0
 20
0.0
 30
0.0
 70
   128
 71
    46
 72
    92
 73
    48
  0
VERTEX
  5
9EC
  8
0
 62
     9
 10
0.0
 20
0.0
 30
0.0
 70
   128
 71
    49
 72
    93
 73
    43
  0
VERTEX
  5
9ED
  8
0
 62
     9
 10
0.0
 20
0.0
 30
0.0
 70
   128
 71
    45
 72
    94
 73
     2
  0
VERTEX
  5
9EE
  8
0
 62
     9
 10
0.0
 20
0.0
 30
0.0
 70
   128
 71
     4
 72
    89
 73
     8
  0
VERTEX
  5
9EF
  8
0
 62
     9
 10
0.0
 20
0.0
 30
0.0
 70
   128
 71
     6
 72
    87
 73
     5
  0
VERTEX
  5
9F0
  8
0
 62
     9
 10
0.0
 20
0.0
 30
0.0
 70
   128
 71
    14
 72
    86
 73
    16
  0
VERTEX
  5
9F1
  8
0
 62
     9
 10
0.0
 20
0.0
 30
0.0
 70
   128
 71
    13
 72
    84
 73
    21
  0
VERTEX
  5
9F2
  8
0
 62
     9
 10
0.0
 20
0.0
 30
0.0
 70
   128
 71
    82
 72
    80
 73
    20
  0
VERTEX
  5
9F3
  8
0
 62
     9
 10
0.0
 20
0.0
 30
0.0
 70
   128
 71
    80
 72
    78
 73
    27
  0
VERTEX
  5
9F4
  8
0
 62
     9
 10
0.0
 20
0.0
 30
0.0
 70
   128
 71
    24
 72
    78
 73
    23
  0
VERTEX
  5
9F5
  8
0
 62
     9
 10
0.0
 20
0.0
 30
0.0
 70
   128
 71
    29
 72
    77
 73
    28
  0
VERTEX
  5
9F6
  8
0
 62
     9
 10
0.0
 20
0.0
 30
0.0
 70
   128
 71
    81
 72
    36
 73
    35
  0
SEQEND
  5
9F7
  8
0
 62
     9
  0
ENDBLK
  5
9FA
  8
0
  0
ENDSEC
  0
SECTION
  2
ENTITIES
  0
INSERT
  5
B6
  8
LAYER_1
  2
100707_NEUTRAL_LEVER_STICK
 10
0.0
 20
0.0
 30
0.0
  0
INSERT
  5
159
  8
LAYER_1
  2
39
 10
0.0
 20
0.0
 30
0.0
  0
INSERT
  5
53B
  8
LAYER_1
  2
100719_ESCUTCHEON_ATRIO01
 10
0.0
 20
0.0
 30
0.0
  0
INSERT
  5
68B
  8
LAYER_1
  2
41
 10
0.0
 20
0.0
 30
0.0
  0
INSERT
  5
707
  8
LAYER_1
  2
100702_ATRIO_THM_LEVER_BUT
 10
0.0
 20
0.0
 30
0.0
  0
INSERT
  5
82E
  8
LAYER_1
  2
100707_LEVER_RING_SMALL
 10
0.0
 20
0.0
 30
0.0
  0
INSERT
  5
913
  8
LAYER_1
  2
44
 10
0.0
 20
0.0
 30
0.0
  0
INSERT
  5
9F8
  8
LAYER_1
  2
45
 10
0.0
 20
0.0
 30
0.0
  0
ENDSEC
  0
EOF
