  0
SECTION
  2
HEADER
  9
$ACADVER
  1
AC1009
  9
$DWGCODEPAGE
  3
ansi_1252
  9
$INSBASE
 10
0.0
 20
0.0
 30
0.0
  9
$EXTMIN
 10
1.000000000000000E+20
 20
1.000000000000000E+20
 30
1.000000000000000E+20
  9
$EXTMAX
 10
-1.000000000000000E+20
 20
-1.000000000000000E+20
 30
-1.000000000000000E+20
  9
$LIMMIN
 10
0.0
 20
0.0
  9
$LIMMAX
 10
12.0
 20
9.0
  9
$ORTHOMODE
 70
     0
  9
$REGENMODE
 70
     1
  9
$FILLMODE
 70
     1
  9
$QTEXTMODE
 70
     0
  9
$MIRRTEXT
 70
     1
  9
$DRAGMODE
 70
     2
  9
$LTSCALE
 40
1.0
  9
$OSMODE
 70
    37
  9
$ATTMODE
 70
     1
  9
$TEXTSIZE
 40
0.2
  9
$TRACEWID
 40
0.05
  9
$TEXTSTYLE
  7
STANDARD
  9
$CLAYER
  8
0
  9
$CELTYPE
  6
BYLAYER
  9
$CECOLOR
 62
   256
  9
$DIMSCALE
 40
1.0
  9
$DIMASZ
 40
0.18
  9
$DIMEXO
 40
0.0625
  9
$DIMDLI
 40
0.38
  9
$DIMRND
 40
0.0
  9
$DIMDLE
 40
0.0
  9
$DIMEXE
 40
0.18
  9
$DIMTP
 40
0.0
  9
$DIMTM
 40
0.0
  9
$DIMTXT
 40
0.18
  9
$DIMCEN
 40
0.09
  9
$DIMTSZ
 40
0.0
  9
$DIMTOL
 70
     0
  9
$DIMLIM
 70
     0
  9
$DIMTIH
 70
     1
  9
$DIMTOH
 70
     1
  9
$DIMSE1
 70
     0
  9
$DIMSE2
 70
     0
  9
$DIMTAD
 70
     0
  9
$DIMZIN
 70
     0
  9
$DIMBLK
  1

  9
$DIMASO
 70
     1
  9
$DIMSHO
 70
     1
  9
$DIMPOST
  1

  9
$DIMAPOST
  1

  9
$DIMALT
 70
     0
  9
$DIMALTD
 70
     2
  9
$DIMALTF
 40
25.4
  9
$DIMLFAC
 40
1.0
  9
$DIMTOFL
 70
     0
  9
$DIMTVP
 40
0.0
  9
$DIMTIX
 70
     0
  9
$DIMSOXD
 70
     0
  9
$DIMSAH
 70
     0
  9
$DIMBLK1
  1

  9
$DIMBLK2
  1

  9
$DIMSTYLE
  2
STANDARD
  9
$DIMCLRD
 70
     0
  9
$DIMCLRE
 70
     0
  9
$DIMCLRT
 70
     0
  9
$DIMTFAC
 40
1.0
  9
$DIMGAP
 40
0.09
  9
$LUNITS
 70
     2
  9
$LUPREC
 70
     4
  9
$SKETCHINC
 40
0.1
  9
$FILLETRAD
 40
0.5
  9
$AUNITS
 70
     0
  9
$AUPREC
 70
     0
  9
$MENU
  1
.
  9
$ELEVATION
 40
0.0
  9
$PELEVATION
 40
0.0
  9
$THICKNESS
 40
0.0
  9
$LIMCHECK
 70
     0
  9
$CHAMFERA
 40
0.5
  9
$CHAMFERB
 40
0.5
  9
$SKPOLY
 70
     0
  9
$TDCREATE
 40
2457584.480905301
  9
$TDUPDATE
 40
2457584.480905301
  9
$TDINDWG
 40
0.0000000116
  9
$TDUSRTIMER
 40
0.0000000116
  9
$USRTIMER
 70
     1
  9
$ANGBASE
 50
0.0
  9
$ANGDIR
 70
     0
  9
$PDMODE
 70
     0
  9
$PDSIZE
 40
0.0
  9
$PLINEWID
 40
0.0
  9
$COORDS
 70
     1
  9
$SPLFRAME
 70
     0
  9
$SPLINETYPE
 70
     6
  9
$SPLINESEGS
 70
     8
  9
$ATTDIA
 70
     0
  9
$ATTREQ
 70
     1
  9
$HANDLING
 70
     1
  9
$HANDSEED
  5
7CB
  9
$SURFTAB1
 70
     6
  9
$SURFTAB2
 70
     6
  9
$SURFTYPE
 70
     6
  9
$SURFU
 70
     6
  9
$SURFV
 70
     6
  9
$UCSNAME
  2

  9
$UCSORG
 10
0.0
 20
0.0
 30
0.0
  9
$UCSXDIR
 10
1.0
 20
0.0
 30
0.0
  9
$UCSYDIR
 10
0.0
 20
1.0
 30
0.0
  9
$PUCSNAME
  2

  9
$PUCSORG
 10
0.0
 20
0.0
 30
0.0
  9
$PUCSXDIR
 10
1.0
 20
0.0
 30
0.0
  9
$PUCSYDIR
 10
0.0
 20
1.0
 30
0.0
  9
$USERI1
 70
     0
  9
$USERI2
 70
     0
  9
$USERI3
 70
     0
  9
$USERI4
 70
     0
  9
$USERI5
 70
     0
  9
$USERR1
 40
0.0
  9
$USERR2
 40
0.0
  9
$USERR3
 40
0.0
  9
$USERR4
 40
0.0
  9
$USERR5
 40
0.0
  9
$WORLDVIEW
 70
     1
  9
$SHADEDGE
 70
     3
  9
$SHADEDIF
 70
    70
  9
$TILEMODE
 70
     1
  9
$MAXACTVP
 70
    64
  9
$PLIMCHECK
 70
     0
  9
$PEXTMIN
 10
1.000000000000000E+20
 20
1.000000000000000E+20
 30
1.000000000000000E+20
  9
$PEXTMAX
 10
-1.000000000000000E+20
 20
-1.000000000000000E+20
 30
-1.000000000000000E+20
  9
$PLIMMIN
 10
0.0
 20
0.0
  9
$PLIMMAX
 10
12.0
 20
9.0
  9
$UNITMODE
 70
     0
  9
$VISRETAIN
 70
     1
  9
$PLINEGEN
 70
     0
  9
$PSLTSCALE
 70
     1
  0
ENDSEC
  0
SECTION
  2
TABLES
  0
TABLE
  2
VPORT
 70
     1
  0
VPORT
  2
*ACTIVE
 70
     0
 10
0.0
 20
0.0
 11
1.0
 21
1.0
 12
0.0
 22
0.0
 13
0.0
 23
0.0
 14
0.5
 24
0.5
 15
0.5
 25
0.5
 16
241.3774566650391
 26
-241.3774566650391
 36
241.6958160400391
 17
41.39662170410156
 27
0.130218505859375
 37
74.79499816894531
 40
194.4675084065127
 41
1.972972972850329
 42
50.0
 43
0.0
 44
0.0
 50
0.0
 51
0.0
 71
     0
 72
   100
 73
     1
 74
     3
 75
     0
 76
     0
 77
     0
 78
     0
  0
ENDTAB
  0
TABLE
  2
LTYPE
 70
     1
  0
LTYPE
  2
CONTINUOUS
 70
     0
  3
Solid line
 72
    65
 73
     0
 40
0.0
  0
ENDTAB
  0
TABLE
  2
LAYER
 70
     2
  0
LAYER
  2
0
 70
     0
 62
     7
  6
CONTINUOUS
  0
LAYER
  2
LAYER_1
 70
     0
 62
     7
  6
CONTINUOUS
  0
ENDTAB
  0
TABLE
  2
STYLE
 70
     1
  0
STYLE
  2
STANDARD
 70
     0
 40
0.0
 41
1.0
 50
0.0
 71
     0
 42
0.2
  3
txt
  4

  0
ENDTAB
  0
TABLE
  2
VIEW
 70
     0
  0
ENDTAB
  0
TABLE
  2
UCS
 70
     0
  0
ENDTAB
  0
TABLE
  2
APPID
 70
     1
  0
APPID
  2
ACAD
 70
     0
  0
ENDTAB
  0
TABLE
  2
DIMSTYLE
 70
     1
  0
DIMSTYLE
  2
STANDARD
 70
     0
  3

  4

  5

  6

  7

 40
1.0
 41
0.18
 42
0.0625
 43
0.38
 44
0.18
 45
0.0
 46
0.0
 47
0.0
 48
0.0
140
0.18
141
0.09
142
0.0
143
25.4
144
1.0
145
0.0
146
1.0
147
0.09
 71
     0
 72
     0
 73
     1
 74
     1
 75
     0
 76
     0
 77
     0
 78
     0
170
     0
171
     2
172
     0
173
     0
174
     0
175
     0
176
     0
177
     0
178
     0
  0
ENDTAB
  0
ENDSEC
  0
SECTION
  2
BLOCKS
  0
BLOCK
  8
0
  2
$MODEL_SPACE
 70
     0
 10
0.0
 20
0.0
 30
0.0
  3
$MODEL_SPACE
  1

  0
ENDBLK
  5
21
  8
0
  0
BLOCK
 67
     1
  8
0
  2
$PAPER_SPACE
 70
     0
 10
0.0
 20
0.0
 30
0.0
  3
$PAPER_SPACE
  1

  0
ENDBLK
  5
1D
 67
     1
  8
0
  0
BLOCK
  8
0
  2
38
 70
     0
 10
0.0
 20
0.0
 30
0.0
  3
38
  1

  0
POLYLINE
  5
3C
  8
0
 62
   123
 66
     1
 10
0.0
 20
0.0
 30
0.0
 70
    64
 71
    23
 72
    22
  0
VERTEX
  5
3D
  8
0
 10
47.64438247680664
 20
1.821168065071106
 30
132.0231170654297
 70
   192
  0
VERTEX
  5
3E
  8
0
 10
47.47802352905273
 20
2.517971754074097
 30
131.3776550292969
 70
   192
  0
VERTEX
  5
3F
  8
0
 10
47.25159454345703
 20
-0.0000631867660559
 30
129.1290893554688
 70
   192
  0
VERTEX
  5
40
  8
0
 10
47.76036834716797
 20
0.9596914649009705
 30
132.436767578125
 70
   192
  0
VERTEX
  5
41
  8
0
 10
47.80241012573242
 20
-0.0000000656532961
 30
132.5811614990234
 70
   192
  0
VERTEX
  5
42
  8
0
 10
47.29237365722656
 20
2.995122909545898
 30
130.5608825683594
 70
   192
  0
VERTEX
  5
43
  8
0
 10
47.11516571044922
 20
3.227094173431396
 30
129.6412353515625
 70
   192
  0
VERTEX
  5
44
  8
0
 10
46.96532821655273
 20
3.210542917251587
 30
128.6886291503906
 70
   192
  0
VERTEX
  5
45
  8
0
 10
46.85117721557617
 20
2.95645546913147
 30
127.7669677734375
 70
   192
  0
VERTEX
  5
46
  8
0
 10
46.77276611328125
 20
2.481115102767944
 30
126.9354934692383
 70
   192
  0
VERTEX
  5
47
  8
0
 10
46.7249870300293
 20
1.803532123565674
 30
126.2547836303711
 70
   192
  0
VERTEX
  5
48
  8
0
 10
46.70084762573242
 20
0.9565422534942627
 30
125.7979507446289
 70
   192
  0
VERTEX
  5
49
  8
0
 10
46.6934928894043
 20
0.008590710349381
 30
125.6335830688477
 70
   192
  0
VERTEX
  5
4A
  8
0
 10
46.72348403930664
 20
-1.794371843338013
 30
126.2496185302734
 70
   192
  0
VERTEX
  5
4B
  8
0
 10
46.70001602172852
 20
-0.9427923560142517
 30
125.7937164306641
 70
   192
  0
VERTEX
  5
4C
  8
0
 10
46.84912872314453
 20
-2.956114053726196
 30
127.7673034667969
 70
   192
  0
VERTEX
  5
4D
  8
0
 10
46.77077102661133
 20
-2.477561950683594
 30
126.9319610595703
 70
   192
  0
VERTEX
  5
4E
  8
0
 10
47.11360549926758
 20
-3.226671934127808
 30
129.6457672119141
 70
   192
  0
VERTEX
  5
4F
  8
0
 10
46.96353149414062
 20
-3.210935592651367
 30
128.6923217773438
 70
   192
  0
VERTEX
  5
50
  8
0
 10
47.47630310058594
 20
-2.518246412277222
 30
131.3784484863281
 70
   192
  0
VERTEX
  5
51
  8
0
 10
47.2905158996582
 20
-2.99486231803894
 30
130.5626373291016
 70
   192
  0
VERTEX
  5
52
  8
0
 10
47.76008605957031
 20
-0.9562768340110779
 30
132.4385375976562
 70
   192
  0
VERTEX
  5
53
  8
0
 10
47.64324569702148
 20
-1.820833802223206
 30
132.0240783691406
 70
   192
  0
VERTEX
  5
54
  8
0
 62
   123
 10
0.0
 20
0.0
 30
0.0
 70
   128
 71
     3
 72
     2
 73
     1
  0
VERTEX
  5
55
  8
0
 62
   123
 10
0.0
 20
0.0
 30
0.0
 70
   128
 71
     1
 72
     4
 73
     3
  0
VERTEX
  5
56
  8
0
 62
   123
 10
0.0
 20
0.0
 30
0.0
 70
   128
 71
     4
 72
     5
 73
     3
  0
VERTEX
  5
57
  8
0
 62
   123
 10
0.0
 20
0.0
 30
0.0
 70
   128
 71
     7
 72
     6
 73
     3
  0
VERTEX
  5
58
  8
0
 62
   123
 10
0.0
 20
0.0
 30
0.0
 70
   128
 71
     3
 72
     6
 73
     2
  0
VERTEX
  5
59
  8
0
 62
   123
 10
0.0
 20
0.0
 30
0.0
 70
   128
 71
     9
 72
     8
 73
     3
  0
VERTEX
  5
5A
  8
0
 62
   123
 10
0.0
 20
0.0
 30
0.0
 70
   128
 71
     3
 72
     8
 73
     7
  0
VERTEX
  5
5B
  8
0
 62
   123
 10
0.0
 20
0.0
 30
0.0
 70
   128
 71
    11
 72
    10
 73
     3
  0
VERTEX
  5
5C
  8
0
 62
   123
 10
0.0
 20
0.0
 30
0.0
 70
   128
 71
     3
 72
    10
 73
     9
  0
VERTEX
  5
5D
  8
0
 62
   123
 10
0.0
 20
0.0
 30
0.0
 70
   128
 71
    13
 72
    12
 73
     3
  0
VERTEX
  5
5E
  8
0
 62
   123
 10
0.0
 20
0.0
 30
0.0
 70
   128
 71
     3
 72
    12
 73
    11
  0
VERTEX
  5
5F
  8
0
 62
   123
 10
0.0
 20
0.0
 30
0.0
 70
   128
 71
    15
 72
     3
 73
    14
  0
VERTEX
  5
60
  8
0
 62
   123
 10
0.0
 20
0.0
 30
0.0
 70
   128
 71
    15
 72
    13
 73
     3
  0
VERTEX
  5
61
  8
0
 62
   123
 10
0.0
 20
0.0
 30
0.0
 70
   128
 71
    17
 72
     3
 73
    16
  0
VERTEX
  5
62
  8
0
 62
   123
 10
0.0
 20
0.0
 30
0.0
 70
   128
 71
    17
 72
    14
 73
     3
  0
VERTEX
  5
63
  8
0
 62
   123
 10
0.0
 20
0.0
 30
0.0
 70
   128
 71
    19
 72
     3
 73
    18
  0
VERTEX
  5
64
  8
0
 62
   123
 10
0.0
 20
0.0
 30
0.0
 70
   128
 71
    19
 72
    16
 73
     3
  0
VERTEX
  5
65
  8
0
 62
   123
 10
0.0
 20
0.0
 30
0.0
 70
   128
 71
    21
 72
     3
 73
    20
  0
VERTEX
  5
66
  8
0
 62
   123
 10
0.0
 20
0.0
 30
0.0
 70
   128
 71
    21
 72
    18
 73
     3
  0
VERTEX
  5
67
  8
0
 62
   123
 10
0.0
 20
0.0
 30
0.0
 70
   128
 71
    23
 72
     3
 73
    22
  0
VERTEX
  5
68
  8
0
 62
   123
 10
0.0
 20
0.0
 30
0.0
 70
   128
 71
    23
 72
    20
 73
     3
  0
VERTEX
  5
69
  8
0
 62
   123
 10
0.0
 20
0.0
 30
0.0
 70
   128
 71
    22
 72
     3
 73
     5
  0
SEQEND
  5
6A
  8
0
 62
   123
  0
ENDBLK
  5
6E
  8
0
  0
BLOCK
  8
0
  2
07844138_HEBEL_EHM-_OHM_LE
 70
     0
 10
0.0
 20
0.0
 30
0.0
  3
07844138_HEBEL_EHM-_OHM_LE
  1

  0
POLYLINE
  5
70
  8
0
 62
     9
 66
     1
 10
0.0
 20
0.0
 30
0.0
 70
    64
 71
   274
 72
   536
  0
VERTEX
  5
71
  8
0
 10
49.07645416259766
 20
3.392399072647095
 30
142.1587982177734
 70
   192
  0
VERTEX
  5
72
  8
0
 10
108.5009994506836
 20
3.419526338577271
 30
142.0113677978516
 70
   192
  0
VERTEX
  5
73
  8
0
 10
48.6844367980957
 20
4.395786762237549
 30
140.6751098632812
 70
   192
  0
VERTEX
  5
74
  8
0
 10
108.2264404296875
 20
4.45706844329834
 30
140.4633178710938
 70
   192
  0
VERTEX
  5
75
  8
0
 10
108.7145614624023
 20
1.75723135471344
 30
143.2164764404297
 70
   192
  0
VERTEX
  5
76
  8
0
 10
48.33380126953125
 20
4.748970031738281
 30
138.8272552490234
 70
   192
  0
VERTEX
  5
77
  8
0
 10
49.36747360229492
 20
1.758502602577209
 30
143.0296936035156
 70
   192
  0
VERTEX
  5
78
  8
0
 10
107.9270935058594
 20
4.761170387268066
 30
138.7774505615234
 70
   192
  0
VERTEX
  5
79
  8
0
 10
108.7697067260742
 20
0.0111707309260964
 30
143.5276336669922
 70
   192
  0
VERTEX
  5
7A
  8
0
 10
49.56085968017578
 20
0.0111707309260964
 30
143.5981292724609
 70
   192
  0
VERTEX
  5
7B
  8
0
 10
48.1278076171875
 20
4.33008861541748
 30
137.1309661865234
 70
   192
  0
VERTEX
  5
7C
  8
0
 10
107.5992965698242
 20
4.388924121856689
 30
136.933837890625
 70
   192
  0
VERTEX
  5
7D
  8
0
 10
48.05475997924805
 20
3.257519721984863
 30
135.6271514892578
 70
   192
  0
VERTEX
  5
7E
  8
0
 10
107.3210220336914
 20
3.291432619094849
 30
135.3705139160156
 70
   192
  0
VERTEX
  5
7F
  8
0
 10
48.03277587890625
 20
1.771996736526489
 30
134.6784973144531
 70
   192
  0
VERTEX
  5
80
  8
0
 10
47.80241012573242
 20
0.008590710349381
 30
132.5811462402344
 70
   192
  0
VERTEX
  5
81
  8
0
 10
107.1436309814453
 20
1.799727320671082
 30
134.3743286132812
 70
   192
  0
VERTEX
  5
82
  8
0
 10
107.0822296142578
 20
0.0111707309260964
 30
134.0296325683594
 70
   192
  0
VERTEX
  5
83
  8
0
 10
108.7035140991211
 20
-1.828847408294678
 30
143.1537780761719
 70
   192
  0
VERTEX
  5
84
  8
0
 10
108.3592147827148
 20
-0.9324214458465576
 30
140.9990081787109
 70
   192
  0
VERTEX
  5
85
  8
0
 10
108.2223052978516
 20
-1.939319491386414
 30
140.2279357910156
 70
   192
  0
VERTEX
  5
86
  8
0
 10
108.5205612182617
 20
-3.358837842941284
 30
142.1207275390625
 70
   192
  0
VERTEX
  5
87
  8
0
 10
107.9680480957031
 20
-2.424122333526611
 30
138.7959136962891
 70
   192
  0
VERTEX
  5
88
  8
0
 10
107.9808197021484
 20
-0.0001083885144908
 30
138.7936553955078
 70
   192
  0
VERTEX
  5
89
  8
0
 10
108.2470474243164
 20
-4.373057842254639
 30
140.5777282714844
 70
   192
  0
VERTEX
  5
8A
  8
0
 10
107.9278106689453
 20
-4.738829135894775
 30
138.7787933349609
 70
   192
  0
VERTEX
  5
8B
  8
0
 10
107.7137832641602
 20
-1.939319491386414
 30
137.3639068603516
 70
   192
  0
VERTEX
  5
8C
  8
0
 10
107.5965118408203
 20
-4.351622104644775
 30
136.9147644042969
 70
   192
  0
VERTEX
  5
8D
  8
0
 10
107.5768737792969
 20
-0.9324214458465576
 30
136.5928344726562
 70
   192
  0
VERTEX
  5
8E
  8
0
 10
107.5442810058594
 20
-0.0001083885144908
 30
136.4092407226562
 70
   192
  0
VERTEX
  5
8F
  8
0
 10
107.149040222168
 20
-1.827946662902832
 30
134.4030303955078
 70
   192
  0
VERTEX
  5
90
  8
0
 10
107.3242034912109
 20
-3.301832437515259
 30
135.3855133056641
 70
   192
  0
VERTEX
  5
91
  8
0
 10
108.387809753418
 20
-0.0001083882016246
 30
141.1585540771484
 70
   192
  0
VERTEX
  5
92
  8
0
 10
6.083868980407715
 20
18.86261558532715
 30
119.8426818847656
 70
   192
  0
VERTEX
  5
93
  8
0
 10
40.88751983642578
 20
-13.05478191375732
 30
113.6630477905273
 70
   192
  0
VERTEX
  5
94
  8
0
 10
36.44962692260742
 20
-18.23915481567383
 30
114.4510192871094
 70
   192
  0
VERTEX
  5
95
  8
0
 10
39.48728179931641
 20
15.04985523223877
 30
113.9116439819336
 70
   192
  0
VERTEX
  5
96
  8
0
 10
31.21977424621582
 20
21.74634742736816
 30
115.3791275024414
 70
   192
  0
VERTEX
  5
97
  8
0
 10
35.72562026977539
 20
18.87104606628418
 30
114.5794219970703
 70
   192
  0
VERTEX
  5
98
  8
0
 10
42.31935501098633
 20
10.47606086730957
 30
113.4087219238281
 70
   192
  0
VERTEX
  5
99
  8
0
 10
26.18857192993164
 20
23.4681224822998
 30
116.2725830078125
 70
   192
  0
VERTEX
  5
9A
  8
0
 10
44.07908630371094
 20
5.377542495727539
 30
113.096305847168
 70
   192
  0
VERTEX
  5
9B
  8
0
 10
44.67549133300781
 20
0.0085941655561328
 30
112.990478515625
 70
   192
  0
VERTEX
  5
9C
  8
0
 10
20.90868186950684
 20
24.12674140930176
 30
117.2103881835938
 70
   192
  0
VERTEX
  5
9D
  8
0
 10
10.5894193649292
 20
21.72762107849121
 30
119.0426559448242
 70
   192
  0
VERTEX
  5
9E
  8
0
 10
43.70660781860352
 20
-6.807438373565674
 30
113.1625061035156
 70
   192
  0
VERTEX
  5
9F
  8
0
 10
15.65750312805176
 20
23.43573760986328
 30
118.1424865722656
 70
   192
  0
VERTEX
  5
A0
  8
0
 10
-0.5125021934509277
 20
10.47194862365723
 30
121.0145874023438
 70
   192
  0
VERTEX
  5
A1
  8
0
 10
2.317158460617065
 20
15.04919815063477
 30
120.5115966796875
 70
   192
  0
VERTEX
  5
A2
  8
0
 10
30.75864028930664
 20
-21.94103813171387
 30
115.4614791870117
 70
   192
  0
VERTEX
  5
A3
  8
0
 10
17.52029228210449
 20
-23.86443519592285
 30
117.8120193481445
 70
   192
  0
VERTEX
  5
A4
  8
0
 10
-1.908762812614441
 20
-6.781309127807617
 30
121.2617416381836
 70
   192
  0
VERTEX
  5
A5
  8
0
 10
-2.870664834976196
 20
0.008590710349381
 30
121.4325332641602
 70
   192
  0
VERTEX
  5
A6
  8
0
 10
-2.271819829940796
 20
5.374183654785156
 30
121.3267440795898
 70
   192
  0
VERTEX
  5
A7
  8
0
 10
24.27863883972168
 20
-23.86630630493164
 30
116.6120376586914
 70
   192
  0
VERTEX
  5
A8
  8
0
 10
5.335190296173096
 20
-18.21790885925293
 30
119.9755401611328
 70
   192
  0
VERTEX
  5
A9
  8
0
 10
0.9019320607185364
 20
-13.02713203430176
 30
120.7626876831055
 70
   192
  0
VERTEX
  5
AA
  8
0
 10
11.02950000762939
 20
-21.93054580688477
 30
118.9644927978516
 70
   192
  0
VERTEX
  5
AB
  8
0
 10
107.7137832641602
 20
1.93911349773407
 30
137.3639068603516
 70
   192
  0
VERTEX
  5
AC
  8
0
 10
107.5768737792969
 20
0.9322097897529602
 30
136.5928192138672
 70
   192
  0
VERTEX
  5
AD
  8
0
 10
107.9680480957031
 20
2.423918962478638
 30
138.7959136962891
 70
   192
  0
VERTEX
  5
AE
  8
0
 10
108.2223052978516
 20
1.93911349773407
 30
140.2279357910156
 70
   192
  0
VERTEX
  5
AF
  8
0
 10
108.3592224121094
 20
0.9322097897529602
 30
140.9990234375
 70
   192
  0
VERTEX
  5
B0
  8
0
 10
49.36766815185547
 20
-1.737924814224243
 30
143.0291137695312
 70
   192
  0
VERTEX
  5
B1
  8
0
 10
48.35833740234375
 20
-4.719216346740723
 30
138.9639739990234
 70
   192
  0
VERTEX
  5
B2
  8
0
 10
48.69431686401367
 20
-4.281704425811768
 30
140.6426696777344
 70
   192
  0
VERTEX
  5
B3
  8
0
 10
49.09248352050781
 20
-3.213225603103638
 30
142.1034088134766
 70
   192
  0
VERTEX
  5
B4
  8
0
 10
48.02229690551758
 20
-3.399421691894531
 30
135.5798492431641
 70
   192
  0
VERTEX
  5
B5
  8
0
 10
48.03315734863281
 20
-1.751369714736938
 30
134.6790466308594
 70
   192
  0
VERTEX
  5
B6
  8
0
 10
48.10943222045898
 20
-4.403275012969971
 30
137.1033935546875
 70
   192
  0
VERTEX
  5
B7
  8
0
 10
29.26276016235352
 20
-21.85889434814453
 30
148.6087188720703
 70
   192
  0
VERTEX
  5
B8
  8
0
 10
22.93010711669922
 20
-21.85666084289551
 30
148.5967864990234
 70
   192
  0
VERTEX
  5
B9
  8
0
 10
29.28935241699219
 20
-22.01469612121582
 30
148.5603942871094
 70
   192
  0
VERTEX
  5
BA
  8
0
 10
48.70478057861328
 20
-0.0000182939093065
 30
148.549072265625
 70
   192
  0
VERTEX
  5
BB
  8
0
 10
48.53149795532227
 20
0.0000582893735555
 30
148.6056823730469
 70
   192
  0
VERTEX
  5
BC
  8
0
 10
47.60516738891602
 20
-6.282071113586426
 30
148.6071166992188
 70
   192
  0
VERTEX
  5
BD
  8
0
 10
45.05878067016602
 20
-12.11552715301514
 30
148.5557098388672
 70
   192
  0
VERTEX
  5
BE
  8
0
 10
44.91894912719727
 20
-12.01800537109375
 30
148.6106719970703
 70
   192
  0
VERTEX
  5
BF
  8
0
 10
40.7148323059082
 20
-16.7523021697998
 30
148.6139373779297
 70
   192
  0
VERTEX
  5
C0
  8
0
 10
35.34658432006836
 20
-20.1175479888916
 30
148.6141052246094
 70
   192
  0
VERTEX
  5
C1
  8
0
 10
40.81650161743164
 20
-16.88497352600098
 30
148.5608367919922
 70
   192
  0
VERTEX
  5
C2
  8
0
 10
47.76981353759766
 20
-6.332588195800781
 30
148.5509643554688
 70
   192
  0
VERTEX
  5
C3
  8
0
 10
11.37894058227539
 20
-16.84828948974609
 30
148.5168151855469
 70
   192
  0
VERTEX
  5
C4
  8
0
 10
7.265218734741211
 20
-11.99617195129395
 30
148.5386962890625
 70
   192
  0
VERTEX
  5
C5
  8
0
 10
7.14890718460083
 20
-12.07445240020752
 30
148.4986877441406
 70
   192
  0
VERTEX
  5
C6
  8
0
 10
16.83489990234375
 20
-20.10659599304199
 30
148.5790710449219
 70
   192
  0
VERTEX
  5
C7
  8
0
 10
16.78085708618164
 20
-20.24459266662598
 30
148.5355834960938
 70
   192
  0
VERTEX
  5
C8
  8
0
 10
22.91299057006836
 20
-22.00874710083008
 30
148.5509643554688
 70
   192
  0
VERTEX
  5
C9
  8
0
 10
3.92621898651123
 20
-4.676865577697754
 30
148.4037628173828
 70
   192
  0
VERTEX
  5
CA
  8
0
 10
4.451788425445557
 20
-6.299362182617188
 30
148.4855346679688
 70
   192
  0
VERTEX
  5
CB
  8
0
 10
3.525693416595459
 20
-0.0000254797650996
 30
148.4807281494141
 70
   192
  0
VERTEX
  5
CC
  8
0
 10
4.584753513336182
 20
-6.263672351837158
 30
148.5245666503906
 70
   192
  0
VERTEX
  5
CD
  8
0
 10
3.407252550125122
 20
-0.0001134401609306
 30
148.4013671875
 70
   192
  0
VERTEX
  5
CE
  8
0
 10
5.403520584106445
 20
-9.144354820251465
 30
148.409912109375
 70
   192
  0
VERTEX
  5
CF
  8
0
 10
3.662865400314331
 20
0.0000531006553501
 30
148.5194702148438
 70
   192
  0
VERTEX
  5
D0
  8
0
 10
11.47417831420898
 20
-16.74078941345215
 30
148.558349609375
 70
   192
  0
VERTEX
  5
D1
  8
0
 10
10.99378967285156
 20
-16.65804290771484
 30
148.4297790527344
 70
   192
  0
VERTEX
  5
D2
  8
0
 10
28.48688888549805
 20
-22.2422981262207
 30
148.4585418701172
 70
   192
  0
VERTEX
  5
D3
  8
0
 10
35.41249084472656
 20
-20.26651382446289
 30
148.5632629394531
 70
   192
  0
VERTEX
  5
D4
  8
0
 10
44.4671630859375
 20
-13.21559619903564
 30
148.4413452148438
 70
   192
  0
VERTEX
  5
D5
  8
0
 10
48.34732818603516
 20
-4.684765815734863
 30
148.4306793212891
 70
   192
  0
VERTEX
  5
D6
  8
0
 10
48.84179306030273
 20
-0.0001134259946411
 30
148.4289093017578
 70
   192
  0
VERTEX
  5
D7
  8
0
 10
7.794484615325928
 20
-13.1996955871582
 30
148.4190673828125
 70
   192
  0
VERTEX
  5
D8
  8
0
 10
14.84109687805176
 20
-19.37197303771973
 30
148.4403381347656
 70
   192
  0
VERTEX
  5
D9
  8
0
 10
19.15650939941406
 20
-21.24700355529785
 30
148.4493255615234
 70
   192
  0
VERTEX
  5
DA
  8
0
 10
23.76806259155273
 20
-22.24370956420898
 30
148.4557800292969
 70
   192
  0
VERTEX
  5
DB
  8
0
 10
33.10995483398438
 20
-21.31460571289062
 30
148.4579162597656
 70
   192
  0
VERTEX
  5
DC
  8
0
 10
37.42910385131836
 20
-19.41431999206543
 30
148.4540557861328
 70
   192
  0
VERTEX
  5
DD
  8
0
 10
41.27384185791016
 20
-16.68379783630371
 30
148.4481201171875
 70
   192
  0
VERTEX
  5
DE
  8
0
 10
46.86273193359375
 20
-9.156792640686035
 30
148.4351348876953
 70
   192
  0
VERTEX
  5
DF
  8
0
 10
22.9339714050293
 20
21.85698890686035
 30
148.5968017578125
 70
   192
  0
VERTEX
  5
E0
  8
0
 10
29.26644706726074
 20
21.8581485748291
 30
148.6087341308594
 70
   192
  0
VERTEX
  5
E1
  8
0
 10
22.9106273651123
 20
22.00819396972656
 30
148.5509490966797
 70
   192
  0
VERTEX
  5
E2
  8
0
 10
11.48404121398926
 20
16.74891471862793
 30
148.5583953857422
 70
   192
  0
VERTEX
  5
E3
  8
0
 10
7.164130210876465
 20
12.09736156463623
 30
148.4987640380859
 70
   192
  0
VERTEX
  5
E4
  8
0
 10
7.278604984283447
 20
12.01628303527832
 30
148.5387573242188
 70
   192
  0
VERTEX
  5
E5
  8
0
 10
4.590399265289307
 20
6.282153129577637
 30
148.5245971679688
 70
   192
  0
VERTEX
  5
E6
  8
0
 10
16.8519287109375
 20
20.11397552490234
 30
148.5791168212891
 70
   192
  0
VERTEX
  5
E7
  8
0
 10
11.3980131149292
 20
16.86422348022461
 30
148.5168914794922
 70
   192
  0
VERTEX
  5
E8
  8
0
 10
4.458706855773926
 20
6.322061538696289
 30
148.4855804443359
 70
   192
  0
VERTEX
  5
E9
  8
0
 10
40.83510971069336
 20
16.86902809143066
 30
148.5608215332031
 70
   192
  0
VERTEX
  5
EA
  8
0
 10
44.93188095092773
 20
11.99813842773438
 30
148.6106567382812
 70
   192
  0
VERTEX
  5
EB
  8
0
 10
45.0738410949707
 20
12.09245872497559
 30
148.5556793212891
 70
   192
  0
VERTEX
  5
EC
  8
0
 10
35.36279678344727
 20
20.1101016998291
 30
148.6141052246094
 70
   192
  0
VERTEX
  5
ED
  8
0
 10
35.42428207397461
 20
20.26104927062988
 30
148.5632629394531
 70
   192
  0
VERTEX
  5
EE
  8
0
 10
29.28668403625488
 20
22.01484680175781
 30
148.5603942871094
 70
   192
  0
VERTEX
  5
EF
  8
0
 10
48.33260726928711
 20
4.677370071411133
 30
148.4306945800781
 70
   192
  0
VERTEX
  5
F0
  8
0
 10
47.77674102783203
 20
6.309447288513184
 30
148.5509490966797
 70
   192
  0
VERTEX
  5
F1
  8
0
 10
47.61056900024414
 20
6.263907432556152
 30
148.6071166992188
 70
   192
  0
VERTEX
  5
F2
  8
0
 10
46.84535217285156
 20
9.142868041992188
 30
148.4350891113281
 70
   192
  0
VERTEX
  5
F3
  8
0
 10
40.72412490844727
 20
16.74421691894531
 30
148.6139373779297
 70
   192
  0
VERTEX
  5
F4
  8
0
 10
41.26301574707031
 20
16.65997123718262
 30
148.4479522705078
 70
   192
  0
VERTEX
  5
F5
  8
0
 10
23.77342224121094
 20
22.21334266662598
 30
148.4556732177734
 70
   192
  0
VERTEX
  5
F6
  8
0
 10
16.7932300567627
 20
20.24990272521973
 30
148.5356140136719
 70
   192
  0
VERTEX
  5
F7
  8
0
 10
7.788206100463867
 20
13.2053165435791
 30
148.4190521240234
 70
   192
  0
VERTEX
  5
F8
  8
0
 10
3.895725965499878
 20
4.684876918792725
 30
148.4036407470703
 70
   192
  0
VERTEX
  5
F9
  8
0
 10
44.45218658447266
 20
13.19650936126709
 30
148.4412536621094
 70
   192
  0
VERTEX
  5
FA
  8
0
 10
37.42482757568359
 20
19.38844108581543
 30
148.453857421875
 70
   192
  0
VERTEX
  5
FB
  8
0
 10
33.10663986206055
 20
21.27240371704102
 30
148.4577026367188
 70
   192
  0
VERTEX
  5
FC
  8
0
 10
28.49253082275391
 20
22.23232650756836
 30
148.4585113525391
 70
   192
  0
VERTEX
  5
FD
  8
0
 10
19.16199493408203
 20
21.27600479125977
 30
148.4495849609375
 70
   192
  0
VERTEX
  5
FE
  8
0
 10
14.82179546356201
 20
19.42095947265625
 30
148.4406127929688
 70
   192
  0
VERTEX
  5
FF
  8
0
 10
10.97887706756592
 20
16.67776489257812
 30
148.4298400878906
 70
   192
  0
VERTEX
  5
100
  8
0
 10
5.390493392944336
 20
9.150829315185547
 30
148.4098663330078
 70
   192
  0
VERTEX
  5
101
  8
0
 10
5.968581676483154
 20
12.93561840057373
 30
147.1062469482422
 70
   192
  0
VERTEX
  5
102
  8
0
 10
4.774159908294678
 20
10.94108486175537
 30
147.0108947753906
 70
   192
  0
VERTEX
  5
103
  8
0
 10
3.161129951477051
 20
6.737860202789307
 30
147.2124633789062
 70
   192
  0
VERTEX
  5
104
  8
0
 10
3.062140226364136
 20
6.047299861907959
 30
147.3329925537109
 70
   192
  0
VERTEX
  5
105
  8
0
 10
2.290627479553223
 20
0.0088547086343169
 30
147.3652801513672
 70
   192
  0
VERTEX
  5
106
  8
0
 10
14.21955108642578
 20
20.70075035095215
 30
146.9904174804688
 70
   192
  0
VERTEX
  5
107
  8
0
 10
16.13386154174805
 20
21.78612327575684
 30
146.8192291259766
 70
   192
  0
VERTEX
  5
108
  8
0
 10
10.41134548187256
 20
18.09453582763672
 30
146.9632873535156
 70
   192
  0
VERTEX
  5
109
  8
0
 10
5.350147247314453
 20
11.73124217987061
 30
147.2471466064453
 70
   192
  0
VERTEX
  5
10A
  8
0
 10
29.4733772277832
 20
23.7014331817627
 30
146.6440124511719
 70
   192
  0
VERTEX
  5
10B
  8
0
 10
34.49176025390625
 20
22.43634986877441
 30
146.4629058837891
 70
   192
  0
VERTEX
  5
10C
  8
0
 10
28.76210975646973
 20
23.82187080383301
 30
146.4827117919922
 70
   192
  0
VERTEX
  5
10D
  8
0
 10
22.66726493835449
 20
23.70543098449707
 30
146.7062683105469
 70
   192
  0
VERTEX
  5
10E
  8
0
 10
17.5749626159668
 20
22.43002891540527
 30
146.6363220214844
 70
   192
  0
VERTEX
  5
10F
  8
0
 10
44.22985458374023
 20
15.63306617736816
 30
146.5205078125
 70
   192
  0
VERTEX
  5
110
  8
0
 10
46.20744323730469
 20
12.97013282775879
 30
146.7264404296875
 70
   192
  0
VERTEX
  5
111
  8
0
 10
47.50732421875
 20
10.71722412109375
 30
146.5667114257812
 70
   192
  0
VERTEX
  5
112
  8
0
 10
41.7321891784668
 20
18.11134338378906
 30
146.6712646484375
 70
   192
  0
VERTEX
  5
113
  8
0
 10
39.50004577636719
 20
19.84301376342773
 30
146.4781341552734
 70
   192
  0
VERTEX
  5
114
  8
0
 10
50.03435134887695
 20
-0.0001248407061212
 30
146.7961730957031
 70
   192
  0
VERTEX
  5
115
  8
0
 10
49.05458068847656
 20
6.772904872894287
 30
146.7753448486328
 70
   192
  0
VERTEX
  5
116
  8
0
 10
49.16560745239258
 20
6.083456516265869
 30
146.9425354003906
 70
   192
  0
VERTEX
  5
117
  8
0
 10
49.36478805541992
 20
5.655184268951416
 30
146.5999450683594
 70
   192
  0
VERTEX
  5
118
  8
0
 10
50.04228210449219
 20
0.008590710349381
 30
146.6143188476562
 70
   192
  0
VERTEX
  5
119
  8
0
 10
49.95565795898438
 20
0.0089070498943329
 30
146.9603424072266
 70
   192
  0
VERTEX
  5
11A
  8
0
 10
35.99940490722656
 20
21.78521728515625
 30
146.6361541748047
 70
   192
  0
VERTEX
  5
11B
  8
0
 10
23.19173240661621
 20
23.80827140808105
 30
146.5402374267578
 70
   192
  0
VERTEX
  5
11C
  8
0
 10
12.39929103851318
 20
19.69993591308594
 30
146.7603607177734
 70
   192
  0
VERTEX
  5
11D
  8
0
 10
8.14714241027832
 20
15.90624237060547
 30
146.8899841308594
 70
   192
  0
VERTEX
  5
11E
  8
0
 10
2.2027268409729
 20
-0.0002785757824313
 30
147.2532958984375
 70
   192
  0
VERTEX
  5
11F
  8
0
 10
2.819710731506348
 20
5.639771938323975
 30
147.0899810791016
 70
   192
  0
VERTEX
  5
120
  8
0
 10
2.153830766677856
 20
0.0085907457396388
 30
147.1195831298828
 70
   192
  0
VERTEX
  5
121
  8
0
 10
9.244233131408691
 20
16.88230323791504
 30
147.1204833984375
 70
   192
  0
VERTEX
  5
122
  8
0
 10
19.9814395904541
 20
23.07052612304688
 30
146.8801422119141
 70
   192
  0
VERTEX
  5
123
  8
0
 10
26.0837230682373
 20
23.85993576049805
 30
146.8086395263672
 70
   192
  0
VERTEX
  5
124
  8
0
 10
32.04364776611328
 20
23.09730911254883
 30
146.7818908691406
 70
   192
  0
VERTEX
  5
125
  8
0
 10
38.02221298217773
 20
20.64825057983398
 30
146.7971649169922
 70
   192
  0
VERTEX
  5
126
  8
0
 10
42.94575881958008
 20
16.87326622009277
 30
146.8423156738281
 70
   192
  0
VERTEX
  5
127
  8
0
 10
46.98058700561523
 20
11.52305603027344
 30
146.9011535644531
 70
   192
  0
VERTEX
  5
128
  8
0
 10
46.2227897644043
 20
-12.93175983428955
 30
146.7370452880859
 70
   192
  0
VERTEX
  5
129
  8
0
 10
47.50324630737305
 20
-10.71093654632568
 30
146.5752868652344
 70
   192
  0
VERTEX
  5
12A
  8
0
 10
49.06087875366211
 20
-6.737334728240967
 30
146.7808685302734
 70
   192
  0
VERTEX
  5
12B
  8
0
 10
49.16964340209961
 20
-6.05394458770752
 30
146.947509765625
 70
   192
  0
VERTEX
  5
12C
  8
0
 10
37.87665176391602
 20
-20.71575736999512
 30
146.8132171630859
 70
   192
  0
VERTEX
  5
12D
  8
0
 10
36.01809692382812
 20
-21.76076507568359
 30
146.6536254882812
 70
   192
  0
VERTEX
  5
12E
  8
0
 10
41.75313186645508
 20
-18.07808303833008
 30
146.6859283447266
 70
   192
  0
VERTEX
  5
12F
  8
0
 10
46.90474319458008
 20
-11.64386653900146
 30
146.90966796875
 70
   192
  0
VERTEX
  5
130
  8
0
 10
22.68041229248047
 20
-23.68954467773438
 30
146.7252655029297
 70
   192
  0
VERTEX
  5
131
  8
0
 10
17.60914611816406
 20
-22.42442893981934
 30
146.6539154052734
 70
   192
  0
VERTEX
  5
132
  8
0
 10
23.23148727416992
 20
-23.79531478881836
 30
146.5589141845703
 70
   192
  0
VERTEX
  5
133
  8
0
 10
29.48355293273926
 20
-23.68316268920898
 30
146.6629638671875
 70
   192
  0
VERTEX
  5
134
  8
0
 10
34.51779556274414
 20
-22.41040992736816
 30
146.4808349609375
 70
   192
  0
VERTEX
  5
135
  8
0
 10
8.167375564575195
 20
-15.90922546386719
 30
146.9020080566406
 70
   192
  0
VERTEX
  5
136
  8
0
 10
5.991260051727295
 20
-12.95061874389648
 30
147.1164093017578
 70
   192
  0
VERTEX
  5
137
  8
0
 10
4.89654016494751
 20
-11.15726757049561
 30
147.0160827636719
 70
   192
  0
VERTEX
  5
138
  8
0
 10
10.44045352935791
 20
-18.10015106201172
 30
146.9775390625
 70
   192
  0
VERTEX
  5
139
  8
0
 10
12.91158866882324
 20
-20.02777099609375
 30
146.7636871337891
 70
   192
  0
VERTEX
  5
13A
  8
0
 10
2.827655553817749
 20
-5.65168571472168
 30
147.0944976806641
 70
   192
  0
VERTEX
  5
13B
  8
0
 10
3.171992540359497
 20
-6.754056930541992
 30
147.2178344726562
 70
   192
  0
VERTEX
  5
13C
  8
0
 10
3.069765567779541
 20
-6.055521011352539
 30
147.3379211425781
 70
   192
  0
VERTEX
  5
13D
  8
0
 10
16.15966987609863
 20
-21.77916526794434
 30
146.8365325927734
 70
   192
  0
VERTEX
  5
13E
  8
0
 10
28.79374885559082
 20
-23.80132865905762
 30
146.5016174316406
 70
   192
  0
VERTEX
  5
13F
  8
0
 10
39.4918212890625
 20
-19.83312034606934
 30
146.4939575195312
 70
   192
  0
VERTEX
  5
140
  8
0
 10
44.2308235168457
 20
-15.61709308624268
 30
146.5330352783203
 70
   192
  0
VERTEX
  5
141
  8
0
 10
49.36894607543945
 20
-5.623877048492432
 30
146.6045532226562
 70
   192
  0
VERTEX
  5
142
  8
0
 10
42.95561599731445
 20
-16.84843635559082
 30
146.8559417724609
 70
   192
  0
VERTEX
  5
143
  8
0
 10
32.07114410400391
 20
-23.07371139526367
 30
146.8004455566406
 70
   192
  0
VERTEX
  5
144
  8
0
 10
26.11800765991211
 20
-23.84260749816895
 30
146.82763671875
 70
   192
  0
VERTEX
  5
145
  8
0
 10
20.00260162353516
 20
-23.05794906616211
 30
146.8986511230469
 70
   192
  0
VERTEX
  5
146
  8
0
 10
14.22201251983643
 20
-20.68317604064941
 30
147.0074157714844
 70
   192
  0
VERTEX
  5
147
  8
0
 10
9.262377738952637
 20
-16.88058090209961
 30
147.1341400146484
 70
   192
  0
VERTEX
  5
148
  8
0
 10
5.369049549102783
 20
-11.74426937103271
 30
147.2565002441406
 70
   192
  0
VERTEX
  5
149
  8
0
 10
49.39872360229492
 20
-0.0001134181511588
 30
147.6946105957031
 70
   192
  0
VERTEX
  5
14A
  8
0
 10
48.65231323242188
 20
6.424447536468506
 30
147.4692687988281
 70
   192
  0
VERTEX
  5
14B
  8
0
 10
45.91768264770508
 20
12.39900302886963
 30
147.4930572509766
 70
   192
  0
VERTEX
  5
14C
  8
0
 10
41.57204055786133
 20
17.39309120178223
 30
147.5286407470703
 70
   192
  0
VERTEX
  5
14D
  8
0
 10
29.49798011779785
 20
22.87250518798828
 30
147.6129608154297
 70
   192
  0
VERTEX
  5
14E
  8
0
 10
35.94809341430664
 20
20.98921585083008
 30
147.5706024169922
 70
   192
  0
VERTEX
  5
14F
  8
0
 10
16.30743408203125
 20
20.98630332946777
 30
147.6800079345703
 70
   192
  0
VERTEX
  5
150
  8
0
 10
22.76047134399414
 20
22.87167739868164
 30
147.6505432128906
 70
   192
  0
VERTEX
  5
151
  8
0
 10
6.332273483276367
 20
12.39276123046875
 30
147.7127838134766
 70
   192
  0
VERTEX
  5
152
  8
0
 10
10.67999267578125
 20
17.38785552978516
 30
147.7004241943359
 70
   192
  0
VERTEX
  5
153
  8
0
 10
3.596952676773071
 20
6.418922424316406
 30
147.718994140625
 70
   192
  0
VERTEX
  5
154
  8
0
 10
2.848944902420044
 20
-0.0001134346312028
 30
147.8833465576172
 70
   192
  0
VERTEX
  5
155
  8
0
 10
10.68496990203857
 20
-17.38075828552246
 30
147.7090759277344
 70
   192
  0
VERTEX
  5
156
  8
0
 10
16.3104133605957
 20
-20.97816276550293
 30
147.6890716552734
 70
   192
  0
VERTEX
  5
157
  8
0
 10
48.64424514770508
 20
-6.420920372009277
 30
147.4807586669922
 70
   192
  0
VERTEX
  5
158
  8
0
 10
6.338908672332764
 20
-12.38716602325439
 30
147.7210998535156
 70
   192
  0
VERTEX
  5
159
  8
0
 10
3.604832172393799
 20
-6.415205478668213
 30
147.7271118164062
 70
   192
  0
VERTEX
  5
15A
  8
0
 10
22.76123809814453
 20
-22.86303520202637
 30
147.6600799560547
 70
   192
  0
VERTEX
  5
15B
  8
0
 10
29.49648094177246
 20
-22.86395454406738
 30
147.6230163574219
 70
   192
  0
VERTEX
  5
15C
  8
0
 10
35.94445037841797
 20
-20.98133850097656
 30
147.5811309814453
 70
   192
  0
VERTEX
  5
15D
  8
0
 10
41.56651306152344
 20
-17.38639640808105
 30
147.5395965576172
 70
   192
  0
VERTEX
  5
15E
  8
0
 10
45.91064453125
 20
-12.39387702941895
 30
147.5043334960938
 70
   192
  0
VERTEX
  5
15F
  8
0
 10
33.57033157348633
 20
7.425179958343506
 30
149.5901641845703
 70
   192
  0
VERTEX
  5
160
  8
0
 10
33.57032775878906
 20
-7.425825119018555
 30
149.5901489257812
 70
   192
  0
VERTEX
  5
161
  8
0
 10
18.56989288330078
 20
-7.323568344116211
 30
149.5632781982422
 70
   192
  0
VERTEX
  5
162
  8
0
 10
18.56989479064941
 20
7.322929382324219
 30
149.5632934570312
 70
   192
  0
VERTEX
  5
163
  8
0
 10
46.73199081420898
 20
1.94748854637146
 30
126.3697204589844
 70
   192
  0
VERTEX
  5
164
  8
0
 10
45.34815979003906
 20
0.008590710349381
 30
117.2048416137695
 70
   192
  0
VERTEX
  5
165
  8
0
 10
46.02082443237305
 20
0.008590710349381
 30
121.4192123413086
 70
   192
  0
VERTEX
  5
166
  8
0
 10
46.89284896850586
 20
3.087057828903198
 30
128.132080078125
 70
   192
  0
VERTEX
  5
167
  8
0
 10
47.61444091796875
 20
1.975224733352661
 30
131.9121704101562
 70
   192
  0
VERTEX
  5
168
  8
0
 10
46.6934928894043
 20
0.008590710349381
 30
125.6335830688477
 70
   192
  0
VERTEX
  5
169
  8
0
 10
46.34571075439453
 20
6.782522201538086
 30
129.6007690429688
 70
   192
  0
VERTEX
  5
16A
  8
0
 10
43.52756881713867
 20
13.00771999359131
 30
129.8828887939453
 70
   192
  0
VERTEX
  5
16B
  8
0
 10
39.08488464355469
 20
18.17971992492676
 30
130.3276062011719
 70
   192
  0
VERTEX
  5
16C
  8
0
 10
47.21962738037109
 20
3.117473602294922
 30
130.2038116455078
 70
   192
  0
VERTEX
  5
16D
  8
0
 10
33.37776565551758
 20
21.87969398498535
 30
130.8989105224609
 70
   192
  0
VERTEX
  5
16E
  8
0
 10
20.08437919616699
 20
23.8077335357666
 30
132.2296295166016
 70
   192
  0
VERTEX
  5
16F
  8
0
 10
7.867970943450928
 20
18.17971992492676
 30
133.4525451660156
 70
   192
  0
VERTEX
  5
170
  8
0
 10
13.57509326934814
 20
21.87969398498535
 30
132.8812408447266
 70
   192
  0
VERTEX
  5
171
  8
0
 10
0.6071457862854004
 20
6.782522201538086
 30
134.1793823242188
 70
   192
  0
VERTEX
  5
172
  8
0
 10
3.425287961959839
 20
13.00771999359131
 30
133.8972778320312
 70
   192
  0
VERTEX
  5
173
  8
0
 10
-0.3584205508232117
 20
0.008590710349381
 30
134.2760314941406
 70
   192
  0
VERTEX
  5
174
  8
0
 10
26.86847877502441
 20
23.8077335357666
 30
131.5505218505859
 70
   192
  0
VERTEX
  5
175
  8
0
 10
0.6071501970291138
 20
-6.765341281890869
 30
134.1793975830078
 70
   192
  0
VERTEX
  5
176
  8
0
 10
47.21727752685547
 20
-3.117884874343872
 30
130.2035980224609
 70
   192
  0
VERTEX
  5
177
  8
0
 10
47.61342620849609
 20
-1.97385847568512
 30
131.9140472412109
 70
   192
  0
VERTEX
  5
178
  8
0
 10
43.5275764465332
 20
-12.9905366897583
 30
129.8829040527344
 70
   192
  0
VERTEX
  5
179
  8
0
 10
46.34571838378906
 20
-6.765337944030762
 30
129.6007995605469
 70
   192
  0
VERTEX
  5
17A
  8
0
 10
46.89046096801758
 20
-3.086182117462158
 30
128.1304168701172
 70
   192
  0
VERTEX
  5
17B
  8
0
 10
46.73027420043945
 20
-1.939202070236206
 30
126.3635101318359
 70
   192
  0
VERTEX
  5
17C
  8
0
 10
39.08489227294922
 20
-18.16253662109375
 30
130.32763671875
 70
   192
  0
VERTEX
  5
17D
  8
0
 10
33.37776947021484
 20
-21.86251258850098
 30
130.8989410400391
 70
   192
  0
VERTEX
  5
17E
  8
0
 10
26.86848449707031
 20
-23.79055213928223
 30
131.5505523681641
 70
   192
  0
VERTEX
  5
17F
  8
0
 10
20.08438491821289
 20
-23.79055213928223
 30
132.2296600341797
 70
   192
  0
VERTEX
  5
180
  8
0
 10
13.57509899139404
 20
-21.86251449584961
 30
132.8812561035156
 70
   192
  0
VERTEX
  5
181
  8
0
 10
7.867976188659668
 20
-18.16254043579102
 30
133.4525604248047
 70
   192
  0
VERTEX
  5
182
  8
0
 10
3.425292491912842
 20
-12.99053955078125
 30
133.8972930908203
 70
   192
  0
VERTEX
  5
183
  8
0
 62
     9
 10
0.0
 20
0.0
 30
0.0
 70
   128
 71
     3
 72
     2
 73
     1
  0
VERTEX
  5
184
  8
0
 62
     9
 10
0.0
 20
0.0
 30
0.0
 70
   128
 71
     4
 72
     2
 73
     3
  0
VERTEX
  5
185
  8
0
 62
     9
 10
0.0
 20
0.0
 30
0.0
 70
   128
 71
     1
 72
     2
 73
     5
  0
VERTEX
  5
186
  8
0
 62
     9
 10
0.0
 20
0.0
 30
0.0
 70
   128
 71
     4
 72
     3
 73
     6
  0
VERTEX
  5
187
  8
0
 62
     9
 10
0.0
 20
0.0
 30
0.0
 70
   128
 71
     5
 72
     7
 73
     1
  0
VERTEX
  5
188
  8
0
 62
     9
 10
0.0
 20
0.0
 30
0.0
 70
   128
 71
     4
 72
     6
 73
     8
  0
VERTEX
  5
189
  8
0
 62
     9
 10
0.0
 20
0.0
 30
0.0
 70
   128
 71
     7
 72
     5
 73
     9
  0
VERTEX
  5
18A
  8
0
 62
     9
 10
0.0
 20
0.0
 30
0.0
 70
   128
 71
     9
 72
    10
 73
     7
  0
VERTEX
  5
18B
  8
0
 62
     9
 10
0.0
 20
0.0
 30
0.0
 70
   128
 71
     6
 72
    11
 73
     8
  0
VERTEX
  5
18C
  8
0
 62
     9
 10
0.0
 20
0.0
 30
0.0
 70
   128
 71
    11
 72
    13
 73
    12
  0
VERTEX
  5
18D
  8
0
 62
     9
 10
0.0
 20
0.0
 30
0.0
 70
   128
 71
    12
 72
     8
 73
    11
  0
VERTEX
  5
18E
  8
0
 62
     9
 10
0.0
 20
0.0
 30
0.0
 70
   128
 71
    15
 72
    14
 73
    13
  0
VERTEX
  5
18F
  8
0
 62
     9
 10
0.0
 20
0.0
 30
0.0
 70
   128
 71
    12
 72
    13
 73
    14
  0
VERTEX
  5
190
  8
0
 62
     9
 10
0.0
 20
0.0
 30
0.0
 70
   128
 71
    17
 72
    15
 73
    16
  0
VERTEX
  5
191
  8
0
 62
     9
 10
0.0
 20
0.0
 30
0.0
 70
   128
 71
    15
 72
    17
 73
    14
  0
VERTEX
  5
192
  8
0
 62
     9
 10
0.0
 20
0.0
 30
0.0
 70
   128
 71
    18
 72
    17
 73
    16
  0
VERTEX
  5
193
  8
0
 62
     9
 10
0.0
 20
0.0
 30
0.0
 70
   128
 71
     9
 72
    20
 73
    19
  0
VERTEX
  5
194
  8
0
 62
     9
 10
0.0
 20
0.0
 30
0.0
 70
   128
 71
    22
 72
    20
 73
    21
  0
VERTEX
  5
195
  8
0
 62
     9
 10
0.0
 20
0.0
 30
0.0
 70
   128
 71
    24
 72
    23
 73
    21
  0
VERTEX
  5
196
  8
0
 62
     9
 10
0.0
 20
0.0
 30
0.0
 70
   128
 71
    23
 72
    26
 73
    25
  0
VERTEX
  5
197
  8
0
 62
     9
 10
0.0
 20
0.0
 30
0.0
 70
   128
 71
    28
 72
    23
 73
    27
  0
VERTEX
  5
198
  8
0
 62
     9
 10
0.0
 20
0.0
 30
0.0
 70
   128
 71
    29
 72
    27
 73
    24
  0
VERTEX
  5
199
  8
0
 62
     9
 10
0.0
 20
0.0
 30
0.0
 70
   128
 71
    31
 72
    29
 73
    30
  0
VERTEX
  5
19A
  8
0
 62
     9
 10
0.0
 20
0.0
 30
0.0
 70
   128
 71
    32
 72
    28
 73
    27
  0
VERTEX
  5
19B
  8
0
 62
     9
 10
0.0
 20
0.0
 30
0.0
 70
   128
 71
    24
 72
    30
 73
    29
  0
VERTEX
  5
19C
  8
0
 62
     9
 10
0.0
 20
0.0
 30
0.0
 70
   128
 71
    18
 72
    31
 73
    30
  0
VERTEX
  5
19D
  8
0
 62
     9
 10
0.0
 20
0.0
 30
0.0
 70
   128
 71
    27
 72
    29
 73
    32
  0
VERTEX
  5
19E
  8
0
 62
     9
 10
0.0
 20
0.0
 30
0.0
 70
   128
 71
    31
 72
    32
 73
    29
  0
VERTEX
  5
19F
  8
0
 62
     9
 10
0.0
 20
0.0
 30
0.0
 70
   128
 71
    25
 72
    21
 73
    23
  0
VERTEX
  5
1A0
  8
0
 62
     9
 10
0.0
 20
0.0
 30
0.0
 70
   128
 71
    28
 72
    26
 73
    23
  0
VERTEX
  5
1A1
  8
0
 62
     9
 10
0.0
 20
0.0
 30
0.0
 70
   128
 71
    27
 72
    23
 73
    24
  0
VERTEX
  5
1A2
  8
0
 62
     9
 10
0.0
 20
0.0
 30
0.0
 70
   128
 71
    20
 72
    33
 73
    24
  0
VERTEX
  5
1A3
  8
0
 62
     9
 10
0.0
 20
0.0
 30
0.0
 70
   128
 71
    19
 72
    20
 73
    22
  0
VERTEX
  5
1A4
  8
0
 62
     9
 10
0.0
 20
0.0
 30
0.0
 70
   128
 71
    22
 72
    21
 73
    25
  0
VERTEX
  5
1A5
  8
0
 62
     9
 10
0.0
 20
0.0
 30
0.0
 70
   128
 71
    21
 72
    20
 73
    24
  0
VERTEX
  5
1A6
  8
0
 62
     9
 10
0.0
 20
0.0
 30
0.0
 70
   128
 71
    33
 72
    20
 73
     9
  0
VERTEX
  5
1A7
  8
0
 62
     9
 10
0.0
 20
0.0
 30
0.0
 70
   128
 71
    36
 72
    35
 73
    34
  0
VERTEX
  5
1A8
  8
0
 62
     9
 10
0.0
 20
0.0
 30
0.0
 70
   128
 71
    39
 72
    38
 73
    37
  0
VERTEX
  5
1A9
  8
0
 62
     9
 10
0.0
 20
0.0
 30
0.0
 70
   128
 71
    38
 72
    40
 73
    37
  0
VERTEX
  5
1AA
  8
0
 62
     9
 10
0.0
 20
0.0
 30
0.0
 70
   128
 71
    42
 72
    40
 73
    41
  0
VERTEX
  5
1AB
  8
0
 62
     9
 10
0.0
 20
0.0
 30
0.0
 70
   128
 71
    41
 72
    40
 73
    38
  0
VERTEX
  5
1AC
  8
0
 62
     9
 10
0.0
 20
0.0
 30
0.0
 70
   128
 71
    41
 72
    44
 73
    43
  0
VERTEX
  5
1AD
  8
0
 62
     9
 10
0.0
 20
0.0
 30
0.0
 70
   128
 71
    43
 72
    42
 73
    41
  0
VERTEX
  5
1AE
  8
0
 62
     9
 10
0.0
 20
0.0
 30
0.0
 70
   128
 71
    35
 72
    46
 73
    45
  0
VERTEX
  5
1AF
  8
0
 62
     9
 10
0.0
 20
0.0
 30
0.0
 70
   128
 71
    47
 72
    43
 73
    44
  0
VERTEX
  5
1B0
  8
0
 62
     9
 10
0.0
 20
0.0
 30
0.0
 70
   128
 71
    50
 72
    49
 73
    48
  0
VERTEX
  5
1B1
  8
0
 62
     9
 10
0.0
 20
0.0
 30
0.0
 70
   128
 71
    53
 72
    52
 73
    51
  0
VERTEX
  5
1B2
  8
0
 62
     9
 10
0.0
 20
0.0
 30
0.0
 70
   128
 71
    53
 72
    55
 73
    54
  0
VERTEX
  5
1B3
  8
0
 62
     9
 10
0.0
 20
0.0
 30
0.0
 70
   128
 71
    58
 72
    57
 73
    56
  0
VERTEX
  5
1B4
  8
0
 62
     9
 10
0.0
 20
0.0
 30
0.0
 70
   128
 71
    58
 72
    51
 73
    52
  0
VERTEX
  5
1B5
  8
0
 62
     9
 10
0.0
 20
0.0
 30
0.0
 70
   128
 71
    52
 72
    57
 73
    58
  0
VERTEX
  5
1B6
  8
0
 62
     9
 10
0.0
 20
0.0
 30
0.0
 70
   128
 71
    53
 72
    51
 73
    55
  0
VERTEX
  5
1B7
  8
0
 62
     9
 10
0.0
 20
0.0
 30
0.0
 70
   128
 71
    48
 72
    54
 73
    50
  0
VERTEX
  5
1B8
  8
0
 62
     9
 10
0.0
 20
0.0
 30
0.0
 70
   128
 71
    50
 72
    54
 73
    55
  0
VERTEX
  5
1B9
  8
0
 62
     9
 10
0.0
 20
0.0
 30
0.0
 70
   128
 71
    36
 72
    34
 73
    49
  0
VERTEX
  5
1BA
  8
0
 62
     9
 10
0.0
 20
0.0
 30
0.0
 70
   128
 71
    50
 72
    36
 73
    49
  0
VERTEX
  5
1BB
  8
0
 62
     9
 10
0.0
 20
0.0
 30
0.0
 70
   128
 71
    47
 72
    45
 73
    46
  0
VERTEX
  5
1BC
  8
0
 62
     9
 10
0.0
 20
0.0
 30
0.0
 70
   128
 71
    34
 72
    35
 73
    45
  0
VERTEX
  5
1BD
  8
0
 62
     9
 10
0.0
 20
0.0
 30
0.0
 70
   128
 71
    46
 72
    43
 73
    47
  0
VERTEX
  5
1BE
  8
0
 62
     9
 10
0.0
 20
0.0
 30
0.0
 70
   128
 71
    59
 72
    14
 73
    17
  0
VERTEX
  5
1BF
  8
0
 62
     9
 10
0.0
 20
0.0
 30
0.0
 70
   128
 71
    18
 72
    60
 73
    17
  0
VERTEX
  5
1C0
  8
0
 62
     9
 10
0.0
 20
0.0
 30
0.0
 70
   128
 71
    61
 72
    59
 73
    24
  0
VERTEX
  5
1C1
  8
0
 62
     9
 10
0.0
 20
0.0
 30
0.0
 70
   128
 71
    61
 72
     8
 73
    12
  0
VERTEX
  5
1C2
  8
0
 62
     9
 10
0.0
 20
0.0
 30
0.0
 70
   128
 71
    63
 72
    62
 73
    24
  0
VERTEX
  5
1C3
  8
0
 62
     9
 10
0.0
 20
0.0
 30
0.0
 70
   128
 71
    61
 72
    62
 73
     4
  0
VERTEX
  5
1C4
  8
0
 62
     9
 10
0.0
 20
0.0
 30
0.0
 70
   128
 71
    63
 72
    33
 73
     5
  0
VERTEX
  5
1C5
  8
0
 62
     9
 10
0.0
 20
0.0
 30
0.0
 70
   128
 71
     2
 72
     4
 73
    62
  0
VERTEX
  5
1C6
  8
0
 62
     9
 10
0.0
 20
0.0
 30
0.0
 70
   128
 71
    24
 72
    33
 73
    63
  0
VERTEX
  5
1C7
  8
0
 62
     9
 10
0.0
 20
0.0
 30
0.0
 70
   128
 71
     9
 72
     5
 73
    33
  0
VERTEX
  5
1C8
  8
0
 62
     9
 10
0.0
 20
0.0
 30
0.0
 70
   128
 71
    62
 72
    63
 73
     2
  0
VERTEX
  5
1C9
  8
0
 62
     9
 10
0.0
 20
0.0
 30
0.0
 70
   128
 71
     5
 72
     2
 73
    63
  0
VERTEX
  5
1CA
  8
0
 62
     9
 10
0.0
 20
0.0
 30
0.0
 70
   128
 71
    12
 72
    59
 73
    61
  0
VERTEX
  5
1CB
  8
0
 62
     9
 10
0.0
 20
0.0
 30
0.0
 70
   128
 71
     4
 72
     8
 73
    61
  0
VERTEX
  5
1CC
  8
0
 62
     9
 10
0.0
 20
0.0
 30
0.0
 70
   128
 71
    62
 72
    61
 73
    24
  0
VERTEX
  5
1CD
  8
0
 62
     9
 10
0.0
 20
0.0
 30
0.0
 70
   128
 71
    60
 72
    30
 73
    24
  0
VERTEX
  5
1CE
  8
0
 62
     9
 10
0.0
 20
0.0
 30
0.0
 70
   128
 71
    60
 72
    59
 73
    17
  0
VERTEX
  5
1CF
  8
0
 62
     9
 10
0.0
 20
0.0
 30
0.0
 70
   128
 71
    14
 72
    59
 73
    12
  0
VERTEX
  5
1D0
  8
0
 62
     9
 10
0.0
 20
0.0
 30
0.0
 70
   128
 71
    59
 72
    60
 73
    24
  0
VERTEX
  5
1D1
  8
0
 62
     9
 10
0.0
 20
0.0
 30
0.0
 70
   128
 71
    30
 72
    60
 73
    18
  0
VERTEX
  5
1D2
  8
0
 62
     9
 10
0.0
 20
0.0
 30
0.0
 70
   128
 71
    10
 72
     9
 73
    64
  0
VERTEX
  5
1D3
  8
0
 62
     9
 10
0.0
 20
0.0
 30
0.0
 70
   128
 71
    65
 72
    25
 73
    26
  0
VERTEX
  5
1D4
  8
0
 62
     9
 10
0.0
 20
0.0
 30
0.0
 70
   128
 71
    67
 72
    22
 73
    66
  0
VERTEX
  5
1D5
  8
0
 62
     9
 10
0.0
 20
0.0
 30
0.0
 70
   128
 71
    69
 72
    68
 73
    32
  0
VERTEX
  5
1D6
  8
0
 62
     9
 10
0.0
 20
0.0
 30
0.0
 70
   128
 71
    28
 72
    68
 73
    70
  0
VERTEX
  5
1D7
  8
0
 62
     9
 10
0.0
 20
0.0
 30
0.0
 70
   128
 71
    69
 72
    31
 73
    16
  0
VERTEX
  5
1D8
  8
0
 62
     9
 10
0.0
 20
0.0
 30
0.0
 70
   128
 71
    31
 72
    69
 73
    32
  0
VERTEX
  5
1D9
  8
0
 62
     9
 10
0.0
 20
0.0
 30
0.0
 70
   128
 71
    16
 72
    31
 73
    18
  0
VERTEX
  5
1DA
  8
0
 62
     9
 10
0.0
 20
0.0
 30
0.0
 70
   128
 71
    25
 72
    65
 73
    66
  0
VERTEX
  5
1DB
  8
0
 62
     9
 10
0.0
 20
0.0
 30
0.0
 70
   128
 71
    25
 72
    66
 73
    22
  0
VERTEX
  5
1DC
  8
0
 62
     9
 10
0.0
 20
0.0
 30
0.0
 70
   128
 71
    28
 72
    70
 73
    26
  0
VERTEX
  5
1DD
  8
0
 62
     9
 10
0.0
 20
0.0
 30
0.0
 70
   128
 71
    32
 72
    68
 73
    28
  0
VERTEX
  5
1DE
  8
0
 62
     9
 10
0.0
 20
0.0
 30
0.0
 70
   128
 71
    70
 72
    65
 73
    26
  0
VERTEX
  5
1DF
  8
0
 62
     9
 10
0.0
 20
0.0
 30
0.0
 70
   128
 71
    64
 72
    19
 73
    67
  0
VERTEX
  5
1E0
  8
0
 62
     9
 10
0.0
 20
0.0
 30
0.0
 70
   128
 71
    19
 72
    22
 73
    67
  0
VERTEX
  5
1E1
  8
0
 62
     9
 10
0.0
 20
0.0
 30
0.0
 70
   128
 71
     9
 72
    19
 73
    64
  0
VERTEX
  5
1E2
  8
0
 62
     9
 10
0.0
 20
0.0
 30
0.0
 70
   128
 71
    73
 72
    72
 73
    71
  0
VERTEX
  5
1E3
  8
0
 62
     9
 10
0.0
 20
0.0
 30
0.0
 70
   128
 71
    76
 72
    75
 73
    74
  0
VERTEX
  5
1E4
  8
0
 62
     9
 10
0.0
 20
0.0
 30
0.0
 70
   128
 71
    79
 72
    78
 73
    77
  0
VERTEX
  5
1E5
  8
0
 62
     9
 10
0.0
 20
0.0
 30
0.0
 70
   128
 71
    79
 72
    81
 73
    80
  0
VERTEX
  5
1E6
  8
0
 62
     9
 10
0.0
 20
0.0
 30
0.0
 70
   128
 71
    82
 72
    77
 73
    78
  0
VERTEX
  5
1E7
  8
0
 62
     9
 10
0.0
 20
0.0
 30
0.0
 70
   128
 71
    85
 72
    84
 73
    83
  0
VERTEX
  5
1E8
  8
0
 62
     9
 10
0.0
 20
0.0
 30
0.0
 70
   128
 71
    88
 72
    87
 73
    86
  0
VERTEX
  5
1E9
  8
0
 62
     9
 10
0.0
 20
0.0
 30
0.0
 70
   128
 71
    91
 72
    90
 73
    89
  0
VERTEX
  5
1EA
  8
0
 62
     9
 10
0.0
 20
0.0
 30
0.0
 70
   128
 71
    85
 72
    92
 73
    84
  0
VERTEX
  5
1EB
  8
0
 62
     9
 10
0.0
 20
0.0
 30
0.0
 70
   128
 71
    91
 72
    89
 73
    93
  0
VERTEX
  5
1EC
  8
0
 62
     9
 10
0.0
 20
0.0
 30
0.0
 70
   128
 71
    89
 72
    90
 73
    94
  0
VERTEX
  5
1ED
  8
0
 62
     9
 10
0.0
 20
0.0
 30
0.0
 70
   128
 71
    85
 72
    90
 73
    92
  0
VERTEX
  5
1EE
  8
0
 62
     9
 10
0.0
 20
0.0
 30
0.0
 70
   128
 71
    91
 72
    95
 73
    90
  0
VERTEX
  5
1EF
  8
0
 62
     9
 10
0.0
 20
0.0
 30
0.0
 70
   128
 71
    84
 72
    96
 73
    83
  0
VERTEX
  5
1F0
  8
0
 62
     9
 10
0.0
 20
0.0
 30
0.0
 70
   128
 71
    97
 72
    85
 73
    83
  0
VERTEX
  5
1F1
  8
0
 62
     9
 10
0.0
 20
0.0
 30
0.0
 70
   128
 71
    87
 72
    96
 73
    86
  0
VERTEX
  5
1F2
  8
0
 62
     9
 10
0.0
 20
0.0
 30
0.0
 70
   128
 71
    96
 72
    87
 73
    83
  0
VERTEX
  5
1F3
  8
0
 62
     9
 10
0.0
 20
0.0
 30
0.0
 70
   128
 71
    88
 72
    73
 73
    98
  0
VERTEX
  5
1F4
  8
0
 62
     9
 10
0.0
 20
0.0
 30
0.0
 70
   128
 71
    72
 72
    88
 73
    86
  0
VERTEX
  5
1F5
  8
0
 62
     9
 10
0.0
 20
0.0
 30
0.0
 70
   128
 71
    99
 72
    73
 73
    71
  0
VERTEX
  5
1F6
  8
0
 62
     9
 10
0.0
 20
0.0
 30
0.0
 70
   128
 71
    73
 72
    88
 73
    72
  0
VERTEX
  5
1F7
  8
0
 62
     9
 10
0.0
 20
0.0
 30
0.0
 70
   128
 71
    81
 72
    99
 73
    80
  0
VERTEX
  5
1F8
  8
0
 62
     9
 10
0.0
 20
0.0
 30
0.0
 70
   128
 71
    99
 72
    71
 73
    80
  0
VERTEX
  5
1F9
  8
0
 62
     9
 10
0.0
 20
0.0
 30
0.0
 70
   128
 71
    79
 72
    77
 73
    81
  0
VERTEX
  5
1FA
  8
0
 62
     9
 10
0.0
 20
0.0
 30
0.0
 70
   128
 71
    77
 72
   100
 73
    81
  0
VERTEX
  5
1FB
  8
0
 62
     9
 10
0.0
 20
0.0
 30
0.0
 70
   128
 71
    78
 72
    76
 73
    82
  0
VERTEX
  5
1FC
  8
0
 62
     9
 10
0.0
 20
0.0
 30
0.0
 70
   128
 71
    74
 72
   101
 73
    82
  0
VERTEX
  5
1FD
  8
0
 62
     9
 10
0.0
 20
0.0
 30
0.0
 70
   128
 71
   101
 72
    74
 73
   102
  0
VERTEX
  5
1FE
  8
0
 62
     9
 10
0.0
 20
0.0
 30
0.0
 70
   128
 71
    85
 72
   103
 73
    94
  0
VERTEX
  5
1FF
  8
0
 62
     9
 10
0.0
 20
0.0
 30
0.0
 70
   128
 71
    92
 72
    90
 73
    95
  0
VERTEX
  5
200
  8
0
 62
     9
 10
0.0
 20
0.0
 30
0.0
 70
   128
 71
    90
 72
    85
 73
    94
  0
VERTEX
  5
201
  8
0
 62
     9
 10
0.0
 20
0.0
 30
0.0
 70
   128
 71
   103
 72
    85
 73
    97
  0
VERTEX
  5
202
  8
0
 62
     9
 10
0.0
 20
0.0
 30
0.0
 70
   128
 71
    83
 72
   104
 73
    97
  0
VERTEX
  5
203
  8
0
 62
     9
 10
0.0
 20
0.0
 30
0.0
 70
   128
 71
    87
 72
   105
 73
   104
  0
VERTEX
  5
204
  8
0
 62
     9
 10
0.0
 20
0.0
 30
0.0
 70
   128
 71
    83
 72
    87
 73
   104
  0
VERTEX
  5
205
  8
0
 62
     9
 10
0.0
 20
0.0
 30
0.0
 70
   128
 71
    88
 72
   106
 73
   105
  0
VERTEX
  5
206
  8
0
 62
     9
 10
0.0
 20
0.0
 30
0.0
 70
   128
 71
    87
 72
    88
 73
   105
  0
VERTEX
  5
207
  8
0
 62
     9
 10
0.0
 20
0.0
 30
0.0
 70
   128
 71
   106
 72
    88
 73
    98
  0
VERTEX
  5
208
  8
0
 62
     9
 10
0.0
 20
0.0
 30
0.0
 70
   128
 71
    73
 72
   107
 73
    98
  0
VERTEX
  5
209
  8
0
 62
     9
 10
0.0
 20
0.0
 30
0.0
 70
   128
 71
    99
 72
   108
 73
   107
  0
VERTEX
  5
20A
  8
0
 62
     9
 10
0.0
 20
0.0
 30
0.0
 70
   128
 71
    73
 72
    99
 73
   107
  0
VERTEX
  5
20B
  8
0
 62
     9
 10
0.0
 20
0.0
 30
0.0
 70
   128
 71
   109
 72
   108
 73
    81
  0
VERTEX
  5
20C
  8
0
 62
     9
 10
0.0
 20
0.0
 30
0.0
 70
   128
 71
    99
 72
    81
 73
   108
  0
VERTEX
  5
20D
  8
0
 62
     9
 10
0.0
 20
0.0
 30
0.0
 70
   128
 71
   109
 72
    81
 73
   100
  0
VERTEX
  5
20E
  8
0
 62
     9
 10
0.0
 20
0.0
 30
0.0
 70
   128
 71
    77
 72
   110
 73
   100
  0
VERTEX
  5
20F
  8
0
 62
     9
 10
0.0
 20
0.0
 30
0.0
 70
   128
 71
    82
 72
   101
 73
   110
  0
VERTEX
  5
210
  8
0
 62
     9
 10
0.0
 20
0.0
 30
0.0
 70
   128
 71
   110
 72
    77
 73
    82
  0
VERTEX
  5
211
  8
0
 62
     9
 10
0.0
 20
0.0
 30
0.0
 70
   128
 71
    82
 72
    76
 73
    74
  0
VERTEX
  5
212
  8
0
 62
     9
 10
0.0
 20
0.0
 30
0.0
 70
   128
 71
   113
 72
   112
 73
   111
  0
VERTEX
  5
213
  8
0
 62
     9
 10
0.0
 20
0.0
 30
0.0
 70
   128
 71
   116
 72
   115
 73
   114
  0
VERTEX
  5
214
  8
0
 62
     9
 10
0.0
 20
0.0
 30
0.0
 70
   128
 71
   117
 72
    95
 73
    91
  0
VERTEX
  5
215
  8
0
 62
     9
 10
0.0
 20
0.0
 30
0.0
 70
   128
 71
   114
 72
   119
 73
   118
  0
VERTEX
  5
216
  8
0
 62
     9
 10
0.0
 20
0.0
 30
0.0
 70
   128
 71
   115
 72
   116
 73
   120
  0
VERTEX
  5
217
  8
0
 62
     9
 10
0.0
 20
0.0
 30
0.0
 70
   128
 71
   123
 72
   122
 73
   121
  0
VERTEX
  5
218
  8
0
 62
     9
 10
0.0
 20
0.0
 30
0.0
 70
   128
 71
   126
 72
   125
 73
   124
  0
VERTEX
  5
219
  8
0
 62
     9
 10
0.0
 20
0.0
 30
0.0
 70
   128
 71
    74
 72
   128
 73
   127
  0
VERTEX
  5
21A
  8
0
 62
     9
 10
0.0
 20
0.0
 30
0.0
 70
   128
 71
   123
 72
   129
 73
   122
  0
VERTEX
  5
21B
  8
0
 62
     9
 10
0.0
 20
0.0
 30
0.0
 70
   128
 71
    74
 72
   127
 73
   102
  0
VERTEX
  5
21C
  8
0
 62
     9
 10
0.0
 20
0.0
 30
0.0
 70
   128
 71
   127
 72
   128
 73
   130
  0
VERTEX
  5
21D
  8
0
 62
     9
 10
0.0
 20
0.0
 30
0.0
 70
   128
 71
   123
 72
   128
 73
   129
  0
VERTEX
  5
21E
  8
0
 62
     9
 10
0.0
 20
0.0
 30
0.0
 70
   128
 71
    74
 72
    75
 73
   128
  0
VERTEX
  5
21F
  8
0
 62
     9
 10
0.0
 20
0.0
 30
0.0
 70
   128
 71
   122
 72
   131
 73
   121
  0
VERTEX
  5
220
  8
0
 62
     9
 10
0.0
 20
0.0
 30
0.0
 70
   128
 71
   132
 72
   123
 73
   121
  0
VERTEX
  5
221
  8
0
 62
     9
 10
0.0
 20
0.0
 30
0.0
 70
   128
 71
   125
 72
   131
 73
   124
  0
VERTEX
  5
222
  8
0
 62
     9
 10
0.0
 20
0.0
 30
0.0
 70
   128
 71
   131
 72
   125
 73
   121
  0
VERTEX
  5
223
  8
0
 62
     9
 10
0.0
 20
0.0
 30
0.0
 70
   128
 71
   126
 72
   113
 73
   133
  0
VERTEX
  5
224
  8
0
 62
     9
 10
0.0
 20
0.0
 30
0.0
 70
   128
 71
   112
 72
   126
 73
   124
  0
VERTEX
  5
225
  8
0
 62
     9
 10
0.0
 20
0.0
 30
0.0
 70
   128
 71
   134
 72
   113
 73
   111
  0
VERTEX
  5
226
  8
0
 62
     9
 10
0.0
 20
0.0
 30
0.0
 70
   128
 71
   113
 72
   126
 73
   112
  0
VERTEX
  5
227
  8
0
 62
     9
 10
0.0
 20
0.0
 30
0.0
 70
   128
 71
   119
 72
   134
 73
   118
  0
VERTEX
  5
228
  8
0
 62
     9
 10
0.0
 20
0.0
 30
0.0
 70
   128
 71
   134
 72
   111
 73
   118
  0
VERTEX
  5
229
  8
0
 62
     9
 10
0.0
 20
0.0
 30
0.0
 70
   128
 71
   114
 72
   115
 73
   119
  0
VERTEX
  5
22A
  8
0
 62
     9
 10
0.0
 20
0.0
 30
0.0
 70
   128
 71
   115
 72
   135
 73
   119
  0
VERTEX
  5
22B
  8
0
 62
     9
 10
0.0
 20
0.0
 30
0.0
 70
   128
 71
   116
 72
   117
 73
   120
  0
VERTEX
  5
22C
  8
0
 62
     9
 10
0.0
 20
0.0
 30
0.0
 70
   128
 71
    91
 72
   136
 73
   120
  0
VERTEX
  5
22D
  8
0
 62
     9
 10
0.0
 20
0.0
 30
0.0
 70
   128
 71
   136
 72
    91
 73
    93
  0
VERTEX
  5
22E
  8
0
 62
     9
 10
0.0
 20
0.0
 30
0.0
 70
   128
 71
   123
 72
   137
 73
   130
  0
VERTEX
  5
22F
  8
0
 62
     9
 10
0.0
 20
0.0
 30
0.0
 70
   128
 71
   129
 72
   128
 73
    75
  0
VERTEX
  5
230
  8
0
 62
     9
 10
0.0
 20
0.0
 30
0.0
 70
   128
 71
   128
 72
   123
 73
   130
  0
VERTEX
  5
231
  8
0
 62
     9
 10
0.0
 20
0.0
 30
0.0
 70
   128
 71
   137
 72
   123
 73
   132
  0
VERTEX
  5
232
  8
0
 62
     9
 10
0.0
 20
0.0
 30
0.0
 70
   128
 71
   121
 72
   138
 73
   132
  0
VERTEX
  5
233
  8
0
 62
     9
 10
0.0
 20
0.0
 30
0.0
 70
   128
 71
   125
 72
   139
 73
   138
  0
VERTEX
  5
234
  8
0
 62
     9
 10
0.0
 20
0.0
 30
0.0
 70
   128
 71
   121
 72
   125
 73
   138
  0
VERTEX
  5
235
  8
0
 62
     9
 10
0.0
 20
0.0
 30
0.0
 70
   128
 71
   126
 72
   140
 73
   139
  0
VERTEX
  5
236
  8
0
 62
     9
 10
0.0
 20
0.0
 30
0.0
 70
   128
 71
   125
 72
   126
 73
   139
  0
VERTEX
  5
237
  8
0
 62
     9
 10
0.0
 20
0.0
 30
0.0
 70
   128
 71
   140
 72
   126
 73
   133
  0
VERTEX
  5
238
  8
0
 62
     9
 10
0.0
 20
0.0
 30
0.0
 70
   128
 71
   113
 72
   141
 73
   133
  0
VERTEX
  5
239
  8
0
 62
     9
 10
0.0
 20
0.0
 30
0.0
 70
   128
 71
   134
 72
   142
 73
   141
  0
VERTEX
  5
23A
  8
0
 62
     9
 10
0.0
 20
0.0
 30
0.0
 70
   128
 71
   113
 72
   134
 73
   141
  0
VERTEX
  5
23B
  8
0
 62
     9
 10
0.0
 20
0.0
 30
0.0
 70
   128
 71
   143
 72
   142
 73
   119
  0
VERTEX
  5
23C
  8
0
 62
     9
 10
0.0
 20
0.0
 30
0.0
 70
   128
 71
   134
 72
   119
 73
   142
  0
VERTEX
  5
23D
  8
0
 62
     9
 10
0.0
 20
0.0
 30
0.0
 70
   128
 71
   143
 72
   119
 73
   135
  0
VERTEX
  5
23E
  8
0
 62
     9
 10
0.0
 20
0.0
 30
0.0
 70
   128
 71
   115
 72
   144
 73
   135
  0
VERTEX
  5
23F
  8
0
 62
     9
 10
0.0
 20
0.0
 30
0.0
 70
   128
 71
   120
 72
   136
 73
   144
  0
VERTEX
  5
240
  8
0
 62
     9
 10
0.0
 20
0.0
 30
0.0
 70
   128
 71
   144
 72
   115
 73
   120
  0
VERTEX
  5
241
  8
0
 62
     9
 10
0.0
 20
0.0
 30
0.0
 70
   128
 71
   120
 72
   117
 73
    91
  0
VERTEX
  5
242
  8
0
 62
     9
 10
0.0
 20
0.0
 30
0.0
 70
   128
 71
   147
 72
   146
 73
   145
  0
VERTEX
  5
243
  8
0
 62
     9
 10
0.0
 20
0.0
 30
0.0
 70
   128
 71
   149
 72
   147
 73
   148
  0
VERTEX
  5
244
  8
0
 62
     9
 10
0.0
 20
0.0
 30
0.0
 70
   128
 71
   152
 72
   151
 73
   150
  0
VERTEX
  5
245
  8
0
 62
     9
 10
0.0
 20
0.0
 30
0.0
 70
   128
 71
   147
 72
   145
 73
   153
  0
VERTEX
  5
246
  8
0
 62
     9
 10
0.0
 20
0.0
 30
0.0
 70
   128
 71
   156
 72
   155
 73
   154
  0
VERTEX
  5
247
  8
0
 62
     9
 10
0.0
 20
0.0
 30
0.0
 70
   128
 71
   151
 72
   158
 73
   157
  0
VERTEX
  5
248
  8
0
 62
     9
 10
0.0
 20
0.0
 30
0.0
 70
   128
 71
   161
 72
   160
 73
   159
  0
VERTEX
  5
249
  8
0
 62
     9
 10
0.0
 20
0.0
 30
0.0
 70
   128
 71
   163
 72
   159
 73
   162
  0
VERTEX
  5
24A
  8
0
 62
     9
 10
0.0
 20
0.0
 30
0.0
 70
   128
 71
   166
 72
   165
 73
   164
  0
VERTEX
  5
24B
  8
0
 62
     9
 10
0.0
 20
0.0
 30
0.0
 70
   128
 71
   165
 72
   160
 73
   161
  0
VERTEX
  5
24C
  8
0
 62
     9
 10
0.0
 20
0.0
 30
0.0
 70
   128
 71
   165
 72
   167
 73
   164
  0
VERTEX
  5
24D
  8
0
 62
     9
 10
0.0
 20
0.0
 30
0.0
 70
   128
 71
   164
 72
   167
 73
   168
  0
VERTEX
  5
24E
  8
0
 62
     9
 10
0.0
 20
0.0
 30
0.0
 70
   128
 71
   166
 72
   164
 73
   169
  0
VERTEX
  5
24F
  8
0
 62
     9
 10
0.0
 20
0.0
 30
0.0
 70
   128
 71
   162
 72
   159
 73
   160
  0
VERTEX
  5
250
  8
0
 62
     9
 10
0.0
 20
0.0
 30
0.0
 70
   128
 71
   163
 72
   170
 73
   155
  0
VERTEX
  5
251
  8
0
 62
     9
 10
0.0
 20
0.0
 30
0.0
 70
   128
 71
   170
 72
   163
 73
   162
  0
VERTEX
  5
252
  8
0
 62
     9
 10
0.0
 20
0.0
 30
0.0
 70
   128
 71
   154
 72
   157
 73
   156
  0
VERTEX
  5
253
  8
0
 62
     9
 10
0.0
 20
0.0
 30
0.0
 70
   128
 71
   170
 72
   154
 73
   155
  0
VERTEX
  5
254
  8
0
 62
     9
 10
0.0
 20
0.0
 30
0.0
 70
   128
 71
   158
 72
   171
 73
   157
  0
VERTEX
  5
255
  8
0
 62
     9
 10
0.0
 20
0.0
 30
0.0
 70
   128
 71
   157
 72
   171
 73
   156
  0
VERTEX
  5
256
  8
0
 62
     9
 10
0.0
 20
0.0
 30
0.0
 70
   128
 71
   172
 72
   151
 73
   152
  0
VERTEX
  5
257
  8
0
 62
     9
 10
0.0
 20
0.0
 30
0.0
 70
   128
 71
   158
 72
   151
 73
   172
  0
VERTEX
  5
258
  8
0
 62
     9
 10
0.0
 20
0.0
 30
0.0
 70
   128
 71
   173
 72
   172
 73
   152
  0
VERTEX
  5
259
  8
0
 62
     9
 10
0.0
 20
0.0
 30
0.0
 70
   128
 71
   152
 72
   145
 73
   173
  0
VERTEX
  5
25A
  8
0
 62
     9
 10
0.0
 20
0.0
 30
0.0
 70
   128
 71
   147
 72
   149
 73
   174
  0
VERTEX
  5
25B
  8
0
 62
     9
 10
0.0
 20
0.0
 30
0.0
 70
   128
 71
   148
 72
   147
 73
   153
  0
VERTEX
  5
25C
  8
0
 62
     9
 10
0.0
 20
0.0
 30
0.0
 70
   128
 71
   176
 72
   175
 73
   174
  0
VERTEX
  5
25D
  8
0
 62
     9
 10
0.0
 20
0.0
 30
0.0
 70
   128
 71
   147
 72
   175
 73
   146
  0
VERTEX
  5
25E
  8
0
 62
     9
 10
0.0
 20
0.0
 30
0.0
 70
   128
 71
   175
 72
   147
 73
   174
  0
VERTEX
  5
25F
  8
0
 62
     9
 10
0.0
 20
0.0
 30
0.0
 70
   128
 71
   153
 72
   145
 73
   177
  0
VERTEX
  5
260
  8
0
 62
     9
 10
0.0
 20
0.0
 30
0.0
 70
   128
 71
   145
 72
   146
 73
   173
  0
VERTEX
  5
261
  8
0
 62
     9
 10
0.0
 20
0.0
 30
0.0
 70
   128
 71
   152
 72
   177
 73
   145
  0
VERTEX
  5
262
  8
0
 62
     9
 10
0.0
 20
0.0
 30
0.0
 70
   128
 71
   177
 72
   152
 73
   150
  0
VERTEX
  5
263
  8
0
 62
     9
 10
0.0
 20
0.0
 30
0.0
 70
   128
 71
   151
 72
   178
 73
   150
  0
VERTEX
  5
264
  8
0
 62
     9
 10
0.0
 20
0.0
 30
0.0
 70
   128
 71
   178
 72
   157
 73
   151
  0
VERTEX
  5
265
  8
0
 62
     9
 10
0.0
 20
0.0
 30
0.0
 70
   128
 71
   157
 72
   179
 73
   178
  0
VERTEX
  5
266
  8
0
 62
     9
 10
0.0
 20
0.0
 30
0.0
 70
   128
 71
   154
 72
   180
 73
   179
  0
VERTEX
  5
267
  8
0
 62
     9
 10
0.0
 20
0.0
 30
0.0
 70
   128
 71
   154
 72
   157
 73
   179
  0
VERTEX
  5
268
  8
0
 62
     9
 10
0.0
 20
0.0
 30
0.0
 70
   128
 71
   170
 72
   181
 73
   180
  0
VERTEX
  5
269
  8
0
 62
     9
 10
0.0
 20
0.0
 30
0.0
 70
   128
 71
   154
 72
   170
 73
   180
  0
VERTEX
  5
26A
  8
0
 62
     9
 10
0.0
 20
0.0
 30
0.0
 70
   128
 71
   162
 72
   182
 73
   181
  0
VERTEX
  5
26B
  8
0
 62
     9
 10
0.0
 20
0.0
 30
0.0
 70
   128
 71
   170
 72
   162
 73
   181
  0
VERTEX
  5
26C
  8
0
 62
     9
 10
0.0
 20
0.0
 30
0.0
 70
   128
 71
   183
 72
   182
 73
   160
  0
VERTEX
  5
26D
  8
0
 62
     9
 10
0.0
 20
0.0
 30
0.0
 70
   128
 71
   162
 72
   160
 73
   182
  0
VERTEX
  5
26E
  8
0
 62
     9
 10
0.0
 20
0.0
 30
0.0
 70
   128
 71
   165
 72
   166
 73
   183
  0
VERTEX
  5
26F
  8
0
 62
     9
 10
0.0
 20
0.0
 30
0.0
 70
   128
 71
   160
 72
   165
 73
   183
  0
VERTEX
  5
270
  8
0
 62
     9
 10
0.0
 20
0.0
 30
0.0
 70
   128
 71
   167
 72
   165
 73
   161
  0
VERTEX
  5
271
  8
0
 62
     9
 10
0.0
 20
0.0
 30
0.0
 70
   128
 71
   186
 72
   185
 73
   184
  0
VERTEX
  5
272
  8
0
 62
     9
 10
0.0
 20
0.0
 30
0.0
 70
   128
 71
   169
 72
   186
 73
   187
  0
VERTEX
  5
273
  8
0
 62
     9
 10
0.0
 20
0.0
 30
0.0
 70
   128
 71
   190
 72
   189
 73
   188
  0
VERTEX
  5
274
  8
0
 62
     9
 10
0.0
 20
0.0
 30
0.0
 70
   128
 71
   186
 72
   184
 73
   191
  0
VERTEX
  5
275
  8
0
 62
     9
 10
0.0
 20
0.0
 30
0.0
 70
   128
 71
   194
 72
   193
 73
   192
  0
VERTEX
  5
276
  8
0
 62
     9
 10
0.0
 20
0.0
 30
0.0
 70
   128
 71
   189
 72
   196
 73
   195
  0
VERTEX
  5
277
  8
0
 62
     9
 10
0.0
 20
0.0
 30
0.0
 70
   128
 71
   199
 72
   198
 73
   197
  0
VERTEX
  5
278
  8
0
 62
     9
 10
0.0
 20
0.0
 30
0.0
 70
   128
 71
   201
 72
   197
 73
   200
  0
VERTEX
  5
279
  8
0
 62
     9
 10
0.0
 20
0.0
 30
0.0
 70
   128
 71
   174
 72
   203
 73
   202
  0
VERTEX
  5
27A
  8
0
 62
     9
 10
0.0
 20
0.0
 30
0.0
 70
   128
 71
   203
 72
   198
 73
   199
  0
VERTEX
  5
27B
  8
0
 62
     9
 10
0.0
 20
0.0
 30
0.0
 70
   128
 71
   202
 72
   203
 73
   199
  0
VERTEX
  5
27C
  8
0
 62
     9
 10
0.0
 20
0.0
 30
0.0
 70
   128
 71
   174
 72
   202
 73
   176
  0
VERTEX
  5
27D
  8
0
 62
     9
 10
0.0
 20
0.0
 30
0.0
 70
   128
 71
   204
 72
   174
 73
   149
  0
VERTEX
  5
27E
  8
0
 62
     9
 10
0.0
 20
0.0
 30
0.0
 70
   128
 71
   200
 72
   197
 73
   198
  0
VERTEX
  5
27F
  8
0
 62
     9
 10
0.0
 20
0.0
 30
0.0
 70
   128
 71
   201
 72
   205
 73
   193
  0
VERTEX
  5
280
  8
0
 62
     9
 10
0.0
 20
0.0
 30
0.0
 70
   128
 71
   205
 72
   201
 73
   200
  0
VERTEX
  5
281
  8
0
 62
     9
 10
0.0
 20
0.0
 30
0.0
 70
   128
 71
   192
 72
   195
 73
   194
  0
VERTEX
  5
282
  8
0
 62
     9
 10
0.0
 20
0.0
 30
0.0
 70
   128
 71
   205
 72
   192
 73
   193
  0
VERTEX
  5
283
  8
0
 62
     9
 10
0.0
 20
0.0
 30
0.0
 70
   128
 71
   196
 72
   206
 73
   195
  0
VERTEX
  5
284
  8
0
 62
     9
 10
0.0
 20
0.0
 30
0.0
 70
   128
 71
   195
 72
   206
 73
   194
  0
VERTEX
  5
285
  8
0
 62
     9
 10
0.0
 20
0.0
 30
0.0
 70
   128
 71
   207
 72
   189
 73
   190
  0
VERTEX
  5
286
  8
0
 62
     9
 10
0.0
 20
0.0
 30
0.0
 70
   128
 71
   196
 72
   189
 73
   207
  0
VERTEX
  5
287
  8
0
 62
     9
 10
0.0
 20
0.0
 30
0.0
 70
   128
 71
   208
 72
   207
 73
   190
  0
VERTEX
  5
288
  8
0
 62
     9
 10
0.0
 20
0.0
 30
0.0
 70
   128
 71
   190
 72
   184
 73
   208
  0
VERTEX
  5
289
  8
0
 62
     9
 10
0.0
 20
0.0
 30
0.0
 70
   128
 71
   186
 72
   169
 73
   164
  0
VERTEX
  5
28A
  8
0
 62
     9
 10
0.0
 20
0.0
 30
0.0
 70
   128
 71
   187
 72
   186
 73
   191
  0
VERTEX
  5
28B
  8
0
 62
     9
 10
0.0
 20
0.0
 30
0.0
 70
   128
 71
   168
 72
   209
 73
   164
  0
VERTEX
  5
28C
  8
0
 62
     9
 10
0.0
 20
0.0
 30
0.0
 70
   128
 71
   186
 72
   209
 73
   185
  0
VERTEX
  5
28D
  8
0
 62
     9
 10
0.0
 20
0.0
 30
0.0
 70
   128
 71
   209
 72
   186
 73
   164
  0
VERTEX
  5
28E
  8
0
 62
     9
 10
0.0
 20
0.0
 30
0.0
 70
   128
 71
   191
 72
   184
 73
   210
  0
VERTEX
  5
28F
  8
0
 62
     9
 10
0.0
 20
0.0
 30
0.0
 70
   128
 71
   184
 72
   185
 73
   208
  0
VERTEX
  5
290
  8
0
 62
     9
 10
0.0
 20
0.0
 30
0.0
 70
   128
 71
   190
 72
   210
 73
   184
  0
VERTEX
  5
291
  8
0
 62
     9
 10
0.0
 20
0.0
 30
0.0
 70
   128
 71
   210
 72
   190
 73
   188
  0
VERTEX
  5
292
  8
0
 62
     9
 10
0.0
 20
0.0
 30
0.0
 70
   128
 71
   189
 72
   211
 73
   188
  0
VERTEX
  5
293
  8
0
 62
     9
 10
0.0
 20
0.0
 30
0.0
 70
   128
 71
   195
 72
   211
 73
   189
  0
VERTEX
  5
294
  8
0
 62
     9
 10
0.0
 20
0.0
 30
0.0
 70
   128
 71
   195
 72
   212
 73
   211
  0
VERTEX
  5
295
  8
0
 62
     9
 10
0.0
 20
0.0
 30
0.0
 70
   128
 71
   192
 72
   213
 73
   212
  0
VERTEX
  5
296
  8
0
 62
     9
 10
0.0
 20
0.0
 30
0.0
 70
   128
 71
   192
 72
   195
 73
   212
  0
VERTEX
  5
297
  8
0
 62
     9
 10
0.0
 20
0.0
 30
0.0
 70
   128
 71
   205
 72
   214
 73
   213
  0
VERTEX
  5
298
  8
0
 62
     9
 10
0.0
 20
0.0
 30
0.0
 70
   128
 71
   205
 72
   192
 73
   213
  0
VERTEX
  5
299
  8
0
 62
     9
 10
0.0
 20
0.0
 30
0.0
 70
   128
 71
   200
 72
   215
 73
   214
  0
VERTEX
  5
29A
  8
0
 62
     9
 10
0.0
 20
0.0
 30
0.0
 70
   128
 71
   200
 72
   205
 73
   214
  0
VERTEX
  5
29B
  8
0
 62
     9
 10
0.0
 20
0.0
 30
0.0
 70
   128
 71
   216
 72
   215
 73
   198
  0
VERTEX
  5
29C
  8
0
 62
     9
 10
0.0
 20
0.0
 30
0.0
 70
   128
 71
   200
 72
   198
 73
   215
  0
VERTEX
  5
29D
  8
0
 62
     9
 10
0.0
 20
0.0
 30
0.0
 70
   128
 71
   203
 72
   204
 73
   216
  0
VERTEX
  5
29E
  8
0
 62
     9
 10
0.0
 20
0.0
 30
0.0
 70
   128
 71
   198
 72
   203
 73
   216
  0
VERTEX
  5
29F
  8
0
 62
     9
 10
0.0
 20
0.0
 30
0.0
 70
   128
 71
   203
 72
   174
 73
   204
  0
VERTEX
  5
2A0
  8
0
 62
     9
 10
0.0
 20
0.0
 30
0.0
 70
   128
 71
   102
 72
   127
 73
   217
  0
VERTEX
  5
2A1
  8
0
 62
     9
 10
0.0
 20
0.0
 30
0.0
 70
   128
 71
   166
 72
   218
 73
   183
  0
VERTEX
  5
2A2
  8
0
 62
     9
 10
0.0
 20
0.0
 30
0.0
 70
   128
 71
   220
 72
   219
 73
   137
  0
VERTEX
  5
2A3
  8
0
 62
     9
 10
0.0
 20
0.0
 30
0.0
 70
   128
 71
   130
 72
   219
 73
   218
  0
VERTEX
  5
2A4
  8
0
 62
     9
 10
0.0
 20
0.0
 30
0.0
 70
   128
 71
   180
 72
   222
 73
   221
  0
VERTEX
  5
2A5
  8
0
 62
     9
 10
0.0
 20
0.0
 30
0.0
 70
   128
 71
   181
 72
   220
 73
   222
  0
VERTEX
  5
2A6
  8
0
 62
     9
 10
0.0
 20
0.0
 30
0.0
 70
   128
 71
   178
 72
   224
 73
   223
  0
VERTEX
  5
2A7
  8
0
 62
     9
 10
0.0
 20
0.0
 30
0.0
 70
   128
 71
   221
 72
   224
 73
   179
  0
VERTEX
  5
2A8
  8
0
 62
     9
 10
0.0
 20
0.0
 30
0.0
 70
   128
 71
   177
 72
   226
 73
   225
  0
VERTEX
  5
2A9
  8
0
 62
     9
 10
0.0
 20
0.0
 30
0.0
 70
   128
 71
   226
 72
   177
 73
   150
  0
VERTEX
  5
2AA
  8
0
 62
     9
 10
0.0
 20
0.0
 30
0.0
 70
   128
 71
   153
 72
   225
 73
   227
  0
VERTEX
  5
2AB
  8
0
 62
     9
 10
0.0
 20
0.0
 30
0.0
 70
   128
 71
   227
 72
   225
 73
   144
  0
VERTEX
  5
2AC
  8
0
 62
     9
 10
0.0
 20
0.0
 30
0.0
 70
   128
 71
   148
 72
   227
 73
   149
  0
VERTEX
  5
2AD
  8
0
 62
     9
 10
0.0
 20
0.0
 30
0.0
 70
   128
 71
   227
 72
   148
 73
   153
  0
VERTEX
  5
2AE
  8
0
 62
     9
 10
0.0
 20
0.0
 30
0.0
 70
   128
 71
    93
 72
   228
 73
   136
  0
VERTEX
  5
2AF
  8
0
 62
     9
 10
0.0
 20
0.0
 30
0.0
 70
   128
 71
   228
 72
   149
 73
   227
  0
VERTEX
  5
2B0
  8
0
 62
     9
 10
0.0
 20
0.0
 30
0.0
 70
   128
 71
   177
 72
   225
 73
   153
  0
VERTEX
  5
2B1
  8
0
 62
     9
 10
0.0
 20
0.0
 30
0.0
 70
   128
 71
   178
 72
   223
 73
   150
  0
VERTEX
  5
2B2
  8
0
 62
     9
 10
0.0
 20
0.0
 30
0.0
 70
   128
 71
   223
 72
   226
 73
   150
  0
VERTEX
  5
2B3
  8
0
 62
     9
 10
0.0
 20
0.0
 30
0.0
 70
   128
 71
   178
 72
   179
 73
   224
  0
VERTEX
  5
2B4
  8
0
 62
     9
 10
0.0
 20
0.0
 30
0.0
 70
   128
 71
   224
 72
   141
 73
   223
  0
VERTEX
  5
2B5
  8
0
 62
     9
 10
0.0
 20
0.0
 30
0.0
 70
   128
 71
   180
 72
   181
 73
   222
  0
VERTEX
  5
2B6
  8
0
 62
     9
 10
0.0
 20
0.0
 30
0.0
 70
   128
 71
   180
 72
   221
 73
   179
  0
VERTEX
  5
2B7
  8
0
 62
     9
 10
0.0
 20
0.0
 30
0.0
 70
   128
 71
   138
 72
   222
 73
   220
  0
VERTEX
  5
2B8
  8
0
 62
     9
 10
0.0
 20
0.0
 30
0.0
 70
   128
 71
   219
 72
   183
 73
   218
  0
VERTEX
  5
2B9
  8
0
 62
     9
 10
0.0
 20
0.0
 30
0.0
 70
   128
 71
   219
 72
   220
 73
   182
  0
VERTEX
  5
2BA
  8
0
 62
     9
 10
0.0
 20
0.0
 30
0.0
 70
   128
 71
   217
 72
   127
 73
   218
  0
VERTEX
  5
2BB
  8
0
 62
     9
 10
0.0
 20
0.0
 30
0.0
 70
   128
 71
   130
 72
   137
 73
   219
  0
VERTEX
  5
2BC
  8
0
 62
     9
 10
0.0
 20
0.0
 30
0.0
 70
   128
 71
   217
 72
   166
 73
   169
  0
VERTEX
  5
2BD
  8
0
 62
     9
 10
0.0
 20
0.0
 30
0.0
 70
   128
 71
   218
 72
   166
 73
   217
  0
VERTEX
  5
2BE
  8
0
 62
     9
 10
0.0
 20
0.0
 30
0.0
 70
   128
 71
   130
 72
   218
 73
   127
  0
VERTEX
  5
2BF
  8
0
 62
     9
 10
0.0
 20
0.0
 30
0.0
 70
   128
 71
   137
 72
   132
 73
   220
  0
VERTEX
  5
2C0
  8
0
 62
     9
 10
0.0
 20
0.0
 30
0.0
 70
   128
 71
   183
 72
   219
 73
   182
  0
VERTEX
  5
2C1
  8
0
 62
     9
 10
0.0
 20
0.0
 30
0.0
 70
   128
 71
   220
 72
   132
 73
   138
  0
VERTEX
  5
2C2
  8
0
 62
     9
 10
0.0
 20
0.0
 30
0.0
 70
   128
 71
   182
 72
   220
 73
   181
  0
VERTEX
  5
2C3
  8
0
 62
     9
 10
0.0
 20
0.0
 30
0.0
 70
   128
 71
   139
 72
   222
 73
   138
  0
VERTEX
  5
2C4
  8
0
 62
     9
 10
0.0
 20
0.0
 30
0.0
 70
   128
 71
   140
 72
   221
 73
   139
  0
VERTEX
  5
2C5
  8
0
 62
     9
 10
0.0
 20
0.0
 30
0.0
 70
   128
 71
   221
 72
   222
 73
   139
  0
VERTEX
  5
2C6
  8
0
 62
     9
 10
0.0
 20
0.0
 30
0.0
 70
   128
 71
   140
 72
   133
 73
   224
  0
VERTEX
  5
2C7
  8
0
 62
     9
 10
0.0
 20
0.0
 30
0.0
 70
   128
 71
   224
 72
   221
 73
   140
  0
VERTEX
  5
2C8
  8
0
 62
     9
 10
0.0
 20
0.0
 30
0.0
 70
   128
 71
   224
 72
   133
 73
   141
  0
VERTEX
  5
2C9
  8
0
 62
     9
 10
0.0
 20
0.0
 30
0.0
 70
   128
 71
   142
 72
   223
 73
   141
  0
VERTEX
  5
2CA
  8
0
 62
     9
 10
0.0
 20
0.0
 30
0.0
 70
   128
 71
   143
 72
   226
 73
   142
  0
VERTEX
  5
2CB
  8
0
 62
     9
 10
0.0
 20
0.0
 30
0.0
 70
   128
 71
   226
 72
   223
 73
   142
  0
VERTEX
  5
2CC
  8
0
 62
     9
 10
0.0
 20
0.0
 30
0.0
 70
   128
 71
   135
 72
   225
 73
   143
  0
VERTEX
  5
2CD
  8
0
 62
     9
 10
0.0
 20
0.0
 30
0.0
 70
   128
 71
   225
 72
   226
 73
   143
  0
VERTEX
  5
2CE
  8
0
 62
     9
 10
0.0
 20
0.0
 30
0.0
 70
   128
 71
   225
 72
   135
 73
   144
  0
VERTEX
  5
2CF
  8
0
 62
     9
 10
0.0
 20
0.0
 30
0.0
 70
   128
 71
   136
 72
   227
 73
   144
  0
VERTEX
  5
2D0
  8
0
 62
     9
 10
0.0
 20
0.0
 30
0.0
 70
   128
 71
   227
 72
   136
 73
   228
  0
VERTEX
  5
2D1
  8
0
 62
     9
 10
0.0
 20
0.0
 30
0.0
 70
   128
 71
   104
 72
   230
 73
   229
  0
VERTEX
  5
2D2
  8
0
 62
     9
 10
0.0
 20
0.0
 30
0.0
 70
   128
 71
   169
 72
   187
 73
   231
  0
VERTEX
  5
2D3
  8
0
 62
     9
 10
0.0
 20
0.0
 30
0.0
 70
   128
 71
   233
 72
    94
 73
   232
  0
VERTEX
  5
2D4
  8
0
 62
     9
 10
0.0
 20
0.0
 30
0.0
 70
   128
 71
   232
 72
   103
 73
   229
  0
VERTEX
  5
2D5
  8
0
 62
     9
 10
0.0
 20
0.0
 30
0.0
 70
   128
 71
    94
 72
   103
 73
   232
  0
VERTEX
  5
2D6
  8
0
 62
     9
 10
0.0
 20
0.0
 30
0.0
 70
   128
 71
   216
 72
   204
 73
   233
  0
VERTEX
  5
2D7
  8
0
 62
     9
 10
0.0
 20
0.0
 30
0.0
 70
   128
 71
   228
 72
    89
 73
   233
  0
VERTEX
  5
2D8
  8
0
 62
     9
 10
0.0
 20
0.0
 30
0.0
 70
   128
 71
   232
 72
   216
 73
   233
  0
VERTEX
  5
2D9
  8
0
 62
     9
 10
0.0
 20
0.0
 30
0.0
 70
   128
 71
   228
 72
    93
 73
    89
  0
VERTEX
  5
2DA
  8
0
 62
     9
 10
0.0
 20
0.0
 30
0.0
 70
   128
 71
   215
 72
   232
 73
   229
  0
VERTEX
  5
2DB
  8
0
 62
     9
 10
0.0
 20
0.0
 30
0.0
 70
   128
 71
   230
 72
   214
 73
   229
  0
VERTEX
  5
2DC
  8
0
 62
     9
 10
0.0
 20
0.0
 30
0.0
 70
   128
 71
   228
 72
   204
 73
   149
  0
VERTEX
  5
2DD
  8
0
 62
     9
 10
0.0
 20
0.0
 30
0.0
 70
   128
 71
   234
 72
   105
 73
   106
  0
VERTEX
  5
2DE
  8
0
 62
     9
 10
0.0
 20
0.0
 30
0.0
 70
   128
 71
   212
 72
   213
 73
   234
  0
VERTEX
  5
2DF
  8
0
 62
     9
 10
0.0
 20
0.0
 30
0.0
 70
   128
 71
   211
 72
   212
 73
   235
  0
VERTEX
  5
2E0
  8
0
 62
     9
 10
0.0
 20
0.0
 30
0.0
 70
   128
 71
   213
 72
   230
 73
   234
  0
VERTEX
  5
2E1
  8
0
 62
     9
 10
0.0
 20
0.0
 30
0.0
 70
   128
 71
   107
 72
   236
 73
   235
  0
VERTEX
  5
2E2
  8
0
 62
     9
 10
0.0
 20
0.0
 30
0.0
 70
   128
 71
   235
 72
   212
 73
   234
  0
VERTEX
  5
2E3
  8
0
 62
     9
 10
0.0
 20
0.0
 30
0.0
 70
   128
 71
   188
 72
   211
 73
   236
  0
VERTEX
  5
2E4
  8
0
 62
     9
 10
0.0
 20
0.0
 30
0.0
 70
   128
 71
   235
 72
   236
 73
   211
  0
VERTEX
  5
2E5
  8
0
 62
     9
 10
0.0
 20
0.0
 30
0.0
 70
   128
 71
   237
 72
   210
 73
   188
  0
VERTEX
  5
2E6
  8
0
 62
     9
 10
0.0
 20
0.0
 30
0.0
 70
   128
 71
   188
 72
   236
 73
   237
  0
VERTEX
  5
2E7
  8
0
 62
     9
 10
0.0
 20
0.0
 30
0.0
 70
   128
 71
   237
 72
   238
 73
   210
  0
VERTEX
  5
2E8
  8
0
 62
     9
 10
0.0
 20
0.0
 30
0.0
 70
   128
 71
   210
 72
   238
 73
   191
  0
VERTEX
  5
2E9
  8
0
 62
     9
 10
0.0
 20
0.0
 30
0.0
 70
   128
 71
   191
 72
   238
 73
   231
  0
VERTEX
  5
2EA
  8
0
 62
     9
 10
0.0
 20
0.0
 30
0.0
 70
   128
 71
   231
 72
   238
 73
   110
  0
VERTEX
  5
2EB
  8
0
 62
     9
 10
0.0
 20
0.0
 30
0.0
 70
   128
 71
   169
 72
   231
 73
   217
  0
VERTEX
  5
2EC
  8
0
 62
     9
 10
0.0
 20
0.0
 30
0.0
 70
   128
 71
   191
 72
   231
 73
   187
  0
VERTEX
  5
2ED
  8
0
 62
     9
 10
0.0
 20
0.0
 30
0.0
 70
   128
 71
   102
 72
   217
 73
   101
  0
VERTEX
  5
2EE
  8
0
 62
     9
 10
0.0
 20
0.0
 30
0.0
 70
   128
 71
   233
 72
   204
 73
   228
  0
VERTEX
  5
2EF
  8
0
 62
     9
 10
0.0
 20
0.0
 30
0.0
 70
   128
 71
    94
 72
   233
 73
    89
  0
VERTEX
  5
2F0
  8
0
 62
     9
 10
0.0
 20
0.0
 30
0.0
 70
   128
 71
   103
 72
    97
 73
   229
  0
VERTEX
  5
2F1
  8
0
 62
     9
 10
0.0
 20
0.0
 30
0.0
 70
   128
 71
   216
 72
   232
 73
   215
  0
VERTEX
  5
2F2
  8
0
 62
     9
 10
0.0
 20
0.0
 30
0.0
 70
   128
 71
   229
 72
    97
 73
   104
  0
VERTEX
  5
2F3
  8
0
 62
     9
 10
0.0
 20
0.0
 30
0.0
 70
   128
 71
   215
 72
   229
 73
   214
  0
VERTEX
  5
2F4
  8
0
 62
     9
 10
0.0
 20
0.0
 30
0.0
 70
   128
 71
   230
 72
   104
 73
   105
  0
VERTEX
  5
2F5
  8
0
 62
     9
 10
0.0
 20
0.0
 30
0.0
 70
   128
 71
   214
 72
   230
 73
   213
  0
VERTEX
  5
2F6
  8
0
 62
     9
 10
0.0
 20
0.0
 30
0.0
 70
   128
 71
   234
 72
   230
 73
   105
  0
VERTEX
  5
2F7
  8
0
 62
     9
 10
0.0
 20
0.0
 30
0.0
 70
   128
 71
   106
 72
    98
 73
   235
  0
VERTEX
  5
2F8
  8
0
 62
     9
 10
0.0
 20
0.0
 30
0.0
 70
   128
 71
   235
 72
   234
 73
   106
  0
VERTEX
  5
2F9
  8
0
 62
     9
 10
0.0
 20
0.0
 30
0.0
 70
   128
 71
   235
 72
    98
 73
   107
  0
VERTEX
  5
2FA
  8
0
 62
     9
 10
0.0
 20
0.0
 30
0.0
 70
   128
 71
   108
 72
   236
 73
   107
  0
VERTEX
  5
2FB
  8
0
 62
     9
 10
0.0
 20
0.0
 30
0.0
 70
   128
 71
   109
 72
   237
 73
   108
  0
VERTEX
  5
2FC
  8
0
 62
     9
 10
0.0
 20
0.0
 30
0.0
 70
   128
 71
   237
 72
   236
 73
   108
  0
VERTEX
  5
2FD
  8
0
 62
     9
 10
0.0
 20
0.0
 30
0.0
 70
   128
 71
   109
 72
   100
 73
   238
  0
VERTEX
  5
2FE
  8
0
 62
     9
 10
0.0
 20
0.0
 30
0.0
 70
   128
 71
   238
 72
   237
 73
   109
  0
VERTEX
  5
2FF
  8
0
 62
     9
 10
0.0
 20
0.0
 30
0.0
 70
   128
 71
   238
 72
   100
 73
   110
  0
VERTEX
  5
300
  8
0
 62
     9
 10
0.0
 20
0.0
 30
0.0
 70
   128
 71
   101
 72
   231
 73
   110
  0
VERTEX
  5
301
  8
0
 62
     9
 10
0.0
 20
0.0
 30
0.0
 70
   128
 71
   231
 72
   101
 73
   217
  0
VERTEX
  5
302
  8
0
 62
     9
 10
0.0
 20
0.0
 30
0.0
 70
   128
 71
   239
 72
   122
 73
   129
  0
VERTEX
  5
303
  8
0
 62
     9
 10
0.0
 20
0.0
 30
0.0
 70
   128
 71
    78
 72
   240
 73
    76
  0
VERTEX
  5
304
  8
0
 62
     9
 10
0.0
 20
0.0
 30
0.0
 70
   128
 71
   239
 72
   112
 73
   124
  0
VERTEX
  5
305
  8
0
 62
     9
 10
0.0
 20
0.0
 30
0.0
 70
   128
 71
   240
 72
   239
 73
    75
  0
VERTEX
  5
306
  8
0
 62
     9
 10
0.0
 20
0.0
 30
0.0
 70
   128
 71
    95
 72
   241
 73
    92
  0
VERTEX
  5
307
  8
0
 62
     9
 10
0.0
 20
0.0
 30
0.0
 70
   128
 71
   111
 72
   242
 73
   118
  0
VERTEX
  5
308
  8
0
 62
     9
 10
0.0
 20
0.0
 30
0.0
 70
   128
 71
   114
 72
   118
 73
   242
  0
VERTEX
  5
309
  8
0
 62
     9
 10
0.0
 20
0.0
 30
0.0
 70
   128
 71
    79
 72
   240
 73
    78
  0
VERTEX
  5
30A
  8
0
 62
     9
 10
0.0
 20
0.0
 30
0.0
 70
   128
 71
   242
 72
    95
 73
   117
  0
VERTEX
  5
30B
  8
0
 62
     9
 10
0.0
 20
0.0
 30
0.0
 70
   128
 71
   241
 72
    96
 73
    84
  0
VERTEX
  5
30C
  8
0
 62
     9
 10
0.0
 20
0.0
 30
0.0
 70
   128
 71
    92
 72
   241
 73
    84
  0
VERTEX
  5
30D
  8
0
 62
     9
 10
0.0
 20
0.0
 30
0.0
 70
   128
 71
    86
 72
   241
 73
    72
  0
VERTEX
  5
30E
  8
0
 62
     9
 10
0.0
 20
0.0
 30
0.0
 70
   128
 71
   241
 72
    71
 73
    72
  0
VERTEX
  5
30F
  8
0
 62
     9
 10
0.0
 20
0.0
 30
0.0
 70
   128
 71
   240
 72
    71
 73
   241
  0
VERTEX
  5
310
  8
0
 62
     9
 10
0.0
 20
0.0
 30
0.0
 70
   128
 71
    95
 72
   242
 73
   241
  0
VERTEX
  5
311
  8
0
 62
     9
 10
0.0
 20
0.0
 30
0.0
 70
   128
 71
   240
 72
    75
 73
    76
  0
VERTEX
  5
312
  8
0
 62
     9
 10
0.0
 20
0.0
 30
0.0
 70
   128
 71
   240
 72
    79
 73
    80
  0
VERTEX
  5
313
  8
0
 62
     9
 10
0.0
 20
0.0
 30
0.0
 70
   128
 71
   124
 72
   131
 73
   239
  0
VERTEX
  5
314
  8
0
 62
     9
 10
0.0
 20
0.0
 30
0.0
 70
   128
 71
   129
 72
    75
 73
   239
  0
VERTEX
  5
315
  8
0
 62
     9
 10
0.0
 20
0.0
 30
0.0
 70
   128
 71
   122
 72
   239
 73
   131
  0
VERTEX
  5
316
  8
0
 62
     9
 10
0.0
 20
0.0
 30
0.0
 70
   128
 71
   112
 72
   239
 73
   111
  0
VERTEX
  5
317
  8
0
 62
     9
 10
0.0
 20
0.0
 30
0.0
 70
   128
 71
   116
 72
   114
 73
   242
  0
VERTEX
  5
318
  8
0
 62
     9
 10
0.0
 20
0.0
 30
0.0
 70
   128
 71
   239
 72
   240
 73
   242
  0
VERTEX
  5
319
  8
0
 62
     9
 10
0.0
 20
0.0
 30
0.0
 70
   128
 71
   240
 72
    80
 73
    71
  0
VERTEX
  5
31A
  8
0
 62
     9
 10
0.0
 20
0.0
 30
0.0
 70
   128
 71
   242
 72
   111
 73
   239
  0
VERTEX
  5
31B
  8
0
 62
     9
 10
0.0
 20
0.0
 30
0.0
 70
   128
 71
   242
 72
   117
 73
   116
  0
VERTEX
  5
31C
  8
0
 62
     9
 10
0.0
 20
0.0
 30
0.0
 70
   128
 71
    96
 72
   241
 73
    86
  0
VERTEX
  5
31D
  8
0
 62
     9
 10
0.0
 20
0.0
 30
0.0
 70
   128
 71
   241
 72
   242
 73
   240
  0
VERTEX
  5
31E
  8
0
 62
     9
 10
0.0
 20
0.0
 30
0.0
 70
   128
 71
   244
 72
   243
 73
    42
  0
VERTEX
  5
31F
  8
0
 62
     9
 10
0.0
 20
0.0
 30
0.0
 70
   128
 71
   244
 72
   245
 73
   243
  0
VERTEX
  5
320
  8
0
 62
     9
 10
0.0
 20
0.0
 30
0.0
 70
   128
 71
   246
 72
    42
 73
   243
  0
VERTEX
  5
321
  8
0
 62
     9
 10
0.0
 20
0.0
 30
0.0
 70
   128
 71
    16
 72
    15
 73
   247
  0
VERTEX
  5
322
  8
0
 62
     9
 10
0.0
 20
0.0
 30
0.0
 70
   128
 71
   248
 72
   243
 73
   245
  0
VERTEX
  5
323
  8
0
 62
     9
 10
0.0
 20
0.0
 30
0.0
 70
   128
 71
   161
 72
   249
 73
     6
  0
VERTEX
  5
324
  8
0
 62
     9
 10
0.0
 20
0.0
 30
0.0
 70
   128
 71
   251
 72
    37
 73
   250
  0
VERTEX
  5
325
  8
0
 62
     9
 10
0.0
 20
0.0
 30
0.0
 70
   128
 71
    15
 72
    13
 73
   247
  0
VERTEX
  5
326
  8
0
 62
     9
 10
0.0
 20
0.0
 30
0.0
 70
   128
 71
    13
 72
    11
 73
   252
  0
VERTEX
  5
327
  8
0
 62
     9
 10
0.0
 20
0.0
 30
0.0
 70
   128
 71
   167
 72
   161
 73
     6
  0
VERTEX
  5
328
  8
0
 62
     9
 10
0.0
 20
0.0
 30
0.0
 70
   128
 71
     7
 72
   168
 73
   167
  0
VERTEX
  5
329
  8
0
 62
     9
 10
0.0
 20
0.0
 30
0.0
 70
   128
 71
    13
 72
   252
 73
   247
  0
VERTEX
  5
32A
  8
0
 62
     9
 10
0.0
 20
0.0
 30
0.0
 70
   128
 71
   249
 72
   252
 73
    11
  0
VERTEX
  5
32B
  8
0
 62
     9
 10
0.0
 20
0.0
 30
0.0
 70
   128
 71
   250
 72
   161
 73
   159
  0
VERTEX
  5
32C
  8
0
 62
     9
 10
0.0
 20
0.0
 30
0.0
 70
   128
 71
     1
 72
   167
 73
     3
  0
VERTEX
  5
32D
  8
0
 62
     9
 10
0.0
 20
0.0
 30
0.0
 70
   128
 71
     3
 72
   167
 73
     6
  0
VERTEX
  5
32E
  8
0
 62
     9
 10
0.0
 20
0.0
 30
0.0
 70
   128
 71
   168
 72
     7
 73
    10
  0
VERTEX
  5
32F
  8
0
 62
     9
 10
0.0
 20
0.0
 30
0.0
 70
   128
 71
     1
 72
     7
 73
   167
  0
VERTEX
  5
330
  8
0
 62
     9
 10
0.0
 20
0.0
 30
0.0
 70
   128
 71
   253
 72
    39
 73
   251
  0
VERTEX
  5
331
  8
0
 62
     9
 10
0.0
 20
0.0
 30
0.0
 70
   128
 71
    44
 72
   254
 73
    47
  0
VERTEX
  5
332
  8
0
 62
     9
 10
0.0
 20
0.0
 30
0.0
 70
   128
 71
    38
 72
    39
 73
   253
  0
VERTEX
  5
333
  8
0
 62
     9
 10
0.0
 20
0.0
 30
0.0
 70
   128
 71
    45
 72
   255
 73
    34
  0
VERTEX
  5
334
  8
0
 62
     9
 10
0.0
 20
0.0
 30
0.0
 70
   128
 71
   254
 72
   256
 73
    47
  0
VERTEX
  5
335
  8
0
 62
     9
 10
0.0
 20
0.0
 30
0.0
 70
   128
 71
   176
 72
   257
 73
   175
  0
VERTEX
  5
336
  8
0
 62
     9
 10
0.0
 20
0.0
 30
0.0
 70
   128
 71
   258
 72
   255
 73
   173
  0
VERTEX
  5
337
  8
0
 62
     9
 10
0.0
 20
0.0
 30
0.0
 70
   128
 71
    53
 72
    54
 73
   259
  0
VERTEX
  5
338
  8
0
 62
     9
 10
0.0
 20
0.0
 30
0.0
 70
   128
 71
   257
 72
    48
 73
   258
  0
VERTEX
  5
339
  8
0
 62
     9
 10
0.0
 20
0.0
 30
0.0
 70
   128
 71
   259
 72
   257
 73
   176
  0
VERTEX
  5
33A
  8
0
 62
     9
 10
0.0
 20
0.0
 30
0.0
 70
   128
 71
   257
 72
   259
 73
    54
  0
VERTEX
  5
33B
  8
0
 62
     9
 10
0.0
 20
0.0
 30
0.0
 70
   128
 71
    49
 72
    34
 73
   255
  0
VERTEX
  5
33C
  8
0
 62
     9
 10
0.0
 20
0.0
 30
0.0
 70
   128
 71
    49
 72
   255
 73
   258
  0
VERTEX
  5
33D
  8
0
 62
     9
 10
0.0
 20
0.0
 30
0.0
 70
   128
 71
    45
 72
   256
 73
   255
  0
VERTEX
  5
33E
  8
0
 62
     9
 10
0.0
 20
0.0
 30
0.0
 70
   128
 71
   256
 72
    45
 73
    47
  0
VERTEX
  5
33F
  8
0
 62
     9
 10
0.0
 20
0.0
 30
0.0
 70
   128
 71
   254
 72
    44
 73
   260
  0
VERTEX
  5
340
  8
0
 62
     9
 10
0.0
 20
0.0
 30
0.0
 70
   128
 71
   158
 72
   256
 73
   254
  0
VERTEX
  5
341
  8
0
 62
     9
 10
0.0
 20
0.0
 30
0.0
 70
   128
 71
   260
 72
    41
 73
   253
  0
VERTEX
  5
342
  8
0
 62
     9
 10
0.0
 20
0.0
 30
0.0
 70
   128
 71
    38
 72
   253
 73
    41
  0
VERTEX
  5
343
  8
0
 62
     9
 10
0.0
 20
0.0
 30
0.0
 70
   128
 71
   253
 72
   155
 73
   260
  0
VERTEX
  5
344
  8
0
 62
     9
 10
0.0
 20
0.0
 30
0.0
 70
   128
 71
    37
 72
   251
 73
    39
  0
VERTEX
  5
345
  8
0
 62
     9
 10
0.0
 20
0.0
 30
0.0
 70
   128
 71
   161
 72
   250
 73
   249
  0
VERTEX
  5
346
  8
0
 62
     9
 10
0.0
 20
0.0
 30
0.0
 70
   128
 71
    40
 72
   250
 73
    37
  0
VERTEX
  5
347
  8
0
 62
     9
 10
0.0
 20
0.0
 30
0.0
 70
   128
 71
   249
 72
    42
 73
   246
  0
VERTEX
  5
348
  8
0
 62
     9
 10
0.0
 20
0.0
 30
0.0
 70
   128
 71
   249
 72
   246
 73
   252
  0
VERTEX
  5
349
  8
0
 62
     9
 10
0.0
 20
0.0
 30
0.0
 70
   128
 71
    42
 72
    43
 73
   244
  0
VERTEX
  5
34A
  8
0
 62
     9
 10
0.0
 20
0.0
 30
0.0
 70
   128
 71
    40
 72
    42
 73
   249
  0
VERTEX
  5
34B
  8
0
 62
     9
 10
0.0
 20
0.0
 30
0.0
 70
   128
 71
   249
 72
    11
 73
     6
  0
VERTEX
  5
34C
  8
0
 62
     9
 10
0.0
 20
0.0
 30
0.0
 70
   128
 71
   251
 72
   159
 73
   163
  0
VERTEX
  5
34D
  8
0
 62
     9
 10
0.0
 20
0.0
 30
0.0
 70
   128
 71
   249
 72
   250
 73
    40
  0
VERTEX
  5
34E
  8
0
 62
     9
 10
0.0
 20
0.0
 30
0.0
 70
   128
 71
   251
 72
   250
 73
   159
  0
VERTEX
  5
34F
  8
0
 62
     9
 10
0.0
 20
0.0
 30
0.0
 70
   128
 71
   155
 72
   253
 73
   163
  0
VERTEX
  5
350
  8
0
 62
     9
 10
0.0
 20
0.0
 30
0.0
 70
   128
 71
   253
 72
   251
 73
   163
  0
VERTEX
  5
351
  8
0
 62
     9
 10
0.0
 20
0.0
 30
0.0
 70
   128
 71
   156
 72
   260
 73
   155
  0
VERTEX
  5
352
  8
0
 62
     9
 10
0.0
 20
0.0
 30
0.0
 70
   128
 71
   260
 72
   156
 73
   171
  0
VERTEX
  5
353
  8
0
 62
     9
 10
0.0
 20
0.0
 30
0.0
 70
   128
 71
    41
 72
   260
 73
    44
  0
VERTEX
  5
354
  8
0
 62
     9
 10
0.0
 20
0.0
 30
0.0
 70
   128
 71
   171
 72
   254
 73
   260
  0
VERTEX
  5
355
  8
0
 62
     9
 10
0.0
 20
0.0
 30
0.0
 70
   128
 71
   254
 72
   171
 73
   158
  0
VERTEX
  5
356
  8
0
 62
     9
 10
0.0
 20
0.0
 30
0.0
 70
   128
 71
   172
 72
   256
 73
   158
  0
VERTEX
  5
357
  8
0
 62
     9
 10
0.0
 20
0.0
 30
0.0
 70
   128
 71
   173
 72
   255
 73
   172
  0
VERTEX
  5
358
  8
0
 62
     9
 10
0.0
 20
0.0
 30
0.0
 70
   128
 71
   255
 72
   256
 73
   172
  0
VERTEX
  5
359
  8
0
 62
     9
 10
0.0
 20
0.0
 30
0.0
 70
   128
 71
   146
 72
   258
 73
   173
  0
VERTEX
  5
35A
  8
0
 62
     9
 10
0.0
 20
0.0
 30
0.0
 70
   128
 71
   146
 72
   175
 73
   257
  0
VERTEX
  5
35B
  8
0
 62
     9
 10
0.0
 20
0.0
 30
0.0
 70
   128
 71
    49
 72
   258
 73
    48
  0
VERTEX
  5
35C
  8
0
 62
     9
 10
0.0
 20
0.0
 30
0.0
 70
   128
 71
   257
 72
   258
 73
   146
  0
VERTEX
  5
35D
  8
0
 62
     9
 10
0.0
 20
0.0
 30
0.0
 70
   128
 71
   257
 72
    54
 73
    48
  0
VERTEX
  5
35E
  8
0
 62
     9
 10
0.0
 20
0.0
 30
0.0
 70
   128
 71
    46
 72
   244
 73
    43
  0
VERTEX
  5
35F
  8
0
 62
     9
 10
0.0
 20
0.0
 30
0.0
 70
   128
 71
   261
 72
   259
 73
   176
  0
VERTEX
  5
360
  8
0
 62
     9
 10
0.0
 20
0.0
 30
0.0
 70
   128
 71
    70
 72
    68
 73
   262
  0
VERTEX
  5
361
  8
0
 62
     9
 10
0.0
 20
0.0
 30
0.0
 70
   128
 71
   263
 72
    68
 73
    69
  0
VERTEX
  5
362
  8
0
 62
     9
 10
0.0
 20
0.0
 30
0.0
 70
   128
 71
   263
 72
   262
 73
    68
  0
VERTEX
  5
363
  8
0
 62
     9
 10
0.0
 20
0.0
 30
0.0
 70
   128
 71
   265
 72
    46
 73
   264
  0
VERTEX
  5
364
  8
0
 62
     9
 10
0.0
 20
0.0
 30
0.0
 70
   128
 71
   265
 72
    65
 73
    70
  0
VERTEX
  5
365
  8
0
 62
     9
 10
0.0
 20
0.0
 30
0.0
 70
   128
 71
   262
 72
   266
 73
   265
  0
VERTEX
  5
366
  8
0
 62
     9
 10
0.0
 20
0.0
 30
0.0
 70
   128
 71
   209
 72
    64
 73
    67
  0
VERTEX
  5
367
  8
0
 62
     9
 10
0.0
 20
0.0
 30
0.0
 70
   128
 71
    65
 72
   185
 73
   209
  0
VERTEX
  5
368
  8
0
 62
     9
 10
0.0
 20
0.0
 30
0.0
 70
   128
 71
    64
 72
   209
 73
   168
  0
VERTEX
  5
369
  8
0
 62
     9
 10
0.0
 20
0.0
 30
0.0
 70
   128
 71
    10
 72
    64
 73
   168
  0
VERTEX
  5
36A
  8
0
 62
     9
 10
0.0
 20
0.0
 30
0.0
 70
   128
 71
    67
 72
    66
 73
   209
  0
VERTEX
  5
36B
  8
0
 62
     9
 10
0.0
 20
0.0
 30
0.0
 70
   128
 71
    65
 72
   209
 73
    66
  0
VERTEX
  5
36C
  8
0
 62
     9
 10
0.0
 20
0.0
 30
0.0
 70
   128
 71
   266
 72
    46
 73
   265
  0
VERTEX
  5
36D
  8
0
 62
     9
 10
0.0
 20
0.0
 30
0.0
 70
   128
 71
    46
 72
   267
 73
   244
  0
VERTEX
  5
36E
  8
0
 62
     9
 10
0.0
 20
0.0
 30
0.0
 70
   128
 71
    16
 72
   263
 73
    69
  0
VERTEX
  5
36F
  8
0
 62
     9
 10
0.0
 20
0.0
 30
0.0
 70
   128
 71
   267
 72
    46
 73
   266
  0
VERTEX
  5
370
  8
0
 62
     9
 10
0.0
 20
0.0
 30
0.0
 70
   128
 71
   267
 72
   245
 73
   244
  0
VERTEX
  5
371
  8
0
 62
     9
 10
0.0
 20
0.0
 30
0.0
 70
   128
 71
   264
 72
    46
 73
    35
  0
VERTEX
  5
372
  8
0
 62
     9
 10
0.0
 20
0.0
 30
0.0
 70
   128
 71
    35
 72
   268
 73
   264
  0
VERTEX
  5
373
  8
0
 62
     9
 10
0.0
 20
0.0
 30
0.0
 70
   128
 71
    35
 72
    36
 73
   268
  0
VERTEX
  5
374
  8
0
 62
     9
 10
0.0
 20
0.0
 30
0.0
 70
   128
 71
   269
 72
   268
 73
    36
  0
VERTEX
  5
375
  8
0
 62
     9
 10
0.0
 20
0.0
 30
0.0
 70
   128
 71
    50
 72
   269
 73
    36
  0
VERTEX
  5
376
  8
0
 62
     9
 10
0.0
 20
0.0
 30
0.0
 70
   128
 71
   269
 72
   270
 73
   196
  0
VERTEX
  5
377
  8
0
 62
     9
 10
0.0
 20
0.0
 30
0.0
 70
   128
 71
    50
 72
   270
 73
   269
  0
VERTEX
  5
378
  8
0
 62
     9
 10
0.0
 20
0.0
 30
0.0
 70
   128
 71
   245
 72
   267
 73
   248
  0
VERTEX
  5
379
  8
0
 62
     9
 10
0.0
 20
0.0
 30
0.0
 70
   128
 71
   194
 72
   270
 73
   271
  0
VERTEX
  5
37A
  8
0
 62
     9
 10
0.0
 20
0.0
 30
0.0
 70
   128
 71
   270
 72
    55
 73
   271
  0
VERTEX
  5
37B
  8
0
 62
     9
 10
0.0
 20
0.0
 30
0.0
 70
   128
 71
   271
 72
    51
 73
   272
  0
VERTEX
  5
37C
  8
0
 62
     9
 10
0.0
 20
0.0
 30
0.0
 70
   128
 71
    51
 72
   271
 73
    55
  0
VERTEX
  5
37D
  8
0
 62
     9
 10
0.0
 20
0.0
 30
0.0
 70
   128
 71
   273
 72
   272
 73
    58
  0
VERTEX
  5
37E
  8
0
 62
     9
 10
0.0
 20
0.0
 30
0.0
 70
   128
 71
    51
 72
    58
 73
   272
  0
VERTEX
  5
37F
  8
0
 62
     9
 10
0.0
 20
0.0
 30
0.0
 70
   128
 71
    56
 72
   274
 73
   273
  0
VERTEX
  5
380
  8
0
 62
     9
 10
0.0
 20
0.0
 30
0.0
 70
   128
 71
   273
 72
    58
 73
    56
  0
VERTEX
  5
381
  8
0
 62
     9
 10
0.0
 20
0.0
 30
0.0
 70
   128
 71
   274
 72
    57
 73
   261
  0
VERTEX
  5
382
  8
0
 62
     9
 10
0.0
 20
0.0
 30
0.0
 70
   128
 71
    57
 72
   274
 73
    56
  0
VERTEX
  5
383
  8
0
 62
     9
 10
0.0
 20
0.0
 30
0.0
 70
   128
 71
   259
 72
   261
 73
    52
  0
VERTEX
  5
384
  8
0
 62
     9
 10
0.0
 20
0.0
 30
0.0
 70
   128
 71
    57
 72
    52
 73
   261
  0
VERTEX
  5
385
  8
0
 62
     9
 10
0.0
 20
0.0
 30
0.0
 70
   128
 71
   259
 72
    52
 73
    53
  0
VERTEX
  5
386
  8
0
 62
     9
 10
0.0
 20
0.0
 30
0.0
 70
   128
 71
   202
 72
   261
 73
   176
  0
VERTEX
  5
387
  8
0
 62
     9
 10
0.0
 20
0.0
 30
0.0
 70
   128
 71
   199
 72
   261
 73
   202
  0
VERTEX
  5
388
  8
0
 62
     9
 10
0.0
 20
0.0
 30
0.0
 70
   128
 71
   199
 72
   274
 73
   261
  0
VERTEX
  5
389
  8
0
 62
     9
 10
0.0
 20
0.0
 30
0.0
 70
   128
 71
   197
 72
   274
 73
   199
  0
VERTEX
  5
38A
  8
0
 62
     9
 10
0.0
 20
0.0
 30
0.0
 70
   128
 71
   197
 72
   273
 73
   274
  0
VERTEX
  5
38B
  8
0
 62
     9
 10
0.0
 20
0.0
 30
0.0
 70
   128
 71
   201
 72
   273
 73
   197
  0
VERTEX
  5
38C
  8
0
 62
     9
 10
0.0
 20
0.0
 30
0.0
 70
   128
 71
   193
 72
   272
 73
   201
  0
VERTEX
  5
38D
  8
0
 62
     9
 10
0.0
 20
0.0
 30
0.0
 70
   128
 71
   272
 72
   273
 73
   201
  0
VERTEX
  5
38E
  8
0
 62
     9
 10
0.0
 20
0.0
 30
0.0
 70
   128
 71
   194
 72
   271
 73
   193
  0
VERTEX
  5
38F
  8
0
 62
     9
 10
0.0
 20
0.0
 30
0.0
 70
   128
 71
   271
 72
   272
 73
   193
  0
VERTEX
  5
390
  8
0
 62
     9
 10
0.0
 20
0.0
 30
0.0
 70
   128
 71
   206
 72
   270
 73
   194
  0
VERTEX
  5
391
  8
0
 62
     9
 10
0.0
 20
0.0
 30
0.0
 70
   128
 71
   270
 72
   206
 73
   196
  0
VERTEX
  5
392
  8
0
 62
     9
 10
0.0
 20
0.0
 30
0.0
 70
   128
 71
    55
 72
   270
 73
    50
  0
VERTEX
  5
393
  8
0
 62
     9
 10
0.0
 20
0.0
 30
0.0
 70
   128
 71
   207
 72
   269
 73
   196
  0
VERTEX
  5
394
  8
0
 62
     9
 10
0.0
 20
0.0
 30
0.0
 70
   128
 71
   207
 72
   268
 73
   269
  0
VERTEX
  5
395
  8
0
 62
     9
 10
0.0
 20
0.0
 30
0.0
 70
   128
 71
   208
 72
   268
 73
   207
  0
VERTEX
  5
396
  8
0
 62
     9
 10
0.0
 20
0.0
 30
0.0
 70
   128
 71
   208
 72
   264
 73
   268
  0
VERTEX
  5
397
  8
0
 62
     9
 10
0.0
 20
0.0
 30
0.0
 70
   128
 71
   185
 72
   264
 73
   208
  0
VERTEX
  5
398
  8
0
 62
     9
 10
0.0
 20
0.0
 30
0.0
 70
   128
 71
   265
 72
   185
 73
    65
  0
VERTEX
  5
399
  8
0
 62
     9
 10
0.0
 20
0.0
 30
0.0
 70
   128
 71
   264
 72
   185
 73
   265
  0
VERTEX
  5
39A
  8
0
 62
     9
 10
0.0
 20
0.0
 30
0.0
 70
   128
 71
   265
 72
    70
 73
   262
  0
SEQEND
  5
39B
  8
0
 62
     9
  0
ENDBLK
  5
39E
  8
0
  0
BLOCK
  8
0
  2
EXTRUDE_
 70
     0
 10
0.0
 20
0.0
 30
0.0
  3
EXTRUDE_
  1

  0
POLYLINE
  5
3A0
  8
0
 66
     1
 10
0.0
 20
0.0
 30
0.0
 70
    64
 71
   207
 72
   386
  0
VERTEX
  5
3A1
  8
0
 10
93.65040588378906
 20
11.30911540985107
 30
78.72472381591797
 70
   192
  0
VERTEX
  5
3A2
  8
0
 10
90.29499816894531
 20
10.00125789642334
 30
77.41387939453125
 70
   192
  0
VERTEX
  5
3A3
  8
0
 10
37.21969604492188
 20
12.0031566619873
 30
79.69701385498047
 70
   192
  0
VERTEX
  5
3A4
  8
0
 10
114.6849899291992
 20
12.59921264648438
 30
80.65530395507812
 70
   192
  0
VERTEX
  5
3A5
  8
0
 10
114.0014572143555
 20
9.406917572021484
 30
76.77872467041016
 70
   192
  0
VERTEX
  5
3A6
  8
0
 10
101.3830413818359
 20
10.8332462310791
 30
78.12914276123047
 70
   192
  0
VERTEX
  5
3A7
  8
0
 10
97.58039093017578
 20
11.67553901672363
 30
79.19636535644531
 70
   192
  0
VERTEX
  5
3A8
  8
0
 10
107.7926940917969
 20
6.987333297729492
 30
75.03584289550781
 70
   192
  0
VERTEX
  5
3A9
  8
0
 10
113.5469284057617
 20
5.032610416412354
 30
74.2010498046875
 70
   192
  0
VERTEX
  5
3AA
  8
0
 10
104.8000640869141
 20
9.289594650268555
 30
76.61595916748047
 70
   192
  0
VERTEX
  5
3AB
  8
0
 10
109.8881530761719
 20
3.89470648765564
 30
73.85527038574219
 70
   192
  0
VERTEX
  5
3AC
  8
0
 10
113.3871002197266
 20
-0.0001083885144908
 30
73.2945785522461
 70
   192
  0
VERTEX
  5
3AD
  8
0
 10
110.8270721435547
 20
-0.000000000000267
 30
73.2945785522461
 70
   192
  0
VERTEX
  5
3AE
  8
0
 10
36.40880966186523
 20
13.78428936004639
 30
83.3585433959961
 70
   192
  0
VERTEX
  5
3AF
  8
0
 10
38.32148742675781
 20
9.302950859069824
 30
76.70309448242188
 70
   192
  0
VERTEX
  5
3B0
  8
0
 10
87.85872650146484
 20
7.409315586090088
 30
75.39190673828125
 70
   192
  0
VERTEX
  5
3B1
  8
0
 10
39.21862030029297
 20
5.837819576263428
 30
74.53673553466797
 70
   192
  0
VERTEX
  5
3B2
  8
0
 10
86.35514068603516
 20
3.976022481918335
 30
73.86692810058594
 70
   192
  0
VERTEX
  5
3B3
  8
0
 10
115.5087432861328
 20
14.27745628356934
 30
85.32715606689453
 70
   192
  0
VERTEX
  5
3B4
  8
0
 10
85.81889343261719
 20
-0.0001083885144908
 30
73.2945785522461
 70
   192
  0
VERTEX
  5
3B5
  8
0
 10
39.67816925048828
 20
1.810652256011963
 30
73.4437484741211
 70
   192
  0
VERTEX
  5
3B6
  8
0
 10
39.72085189819336
 20
0.0015300387749448
 30
73.34921264648438
 70
   192
  0
VERTEX
  5
3B7
  8
0
 10
36.69090270996094
 20
14.46981143951416
 30
87.3515625
 70
   192
  0
VERTEX
  5
3B8
  8
0
 10
116.3870620727539
 20
14.27990913391113
 30
90.308349609375
 70
   192
  0
VERTEX
  5
3B9
  8
0
 10
117.2225494384766
 20
12.55111312866211
 30
95.04657745361328
 70
   192
  0
VERTEX
  5
3BA
  8
0
 10
38.03887176513672
 20
14.08670043945312
 30
91.20696258544922
 70
   192
  0
VERTEX
  5
3BB
  8
0
 10
41.79788589477539
 20
10.64263820648193
 30
97.65860748291016
 70
   192
  0
VERTEX
  5
3BC
  8
0
 10
39.91153717041016
 20
12.7761926651001
 30
94.66161346435547
 70
   192
  0
VERTEX
  5
3BD
  8
0
 10
43.43711090087891
 20
7.672157287597656
 30
100.1401672363281
 70
   192
  0
VERTEX
  5
3BE
  8
0
 10
117.9025115966797
 20
9.302783966064453
 30
98.90279388427734
 70
   192
  0
VERTEX
  5
3BF
  8
0
 10
118.3395156860352
 20
5.048439979553223
 30
101.3811111450195
 70
   192
  0
VERTEX
  5
3C0
  8
0
 10
44.45291137695312
 20
4.062414646148682
 30
101.6704254150391
 70
   192
  0
VERTEX
  5
3C1
  8
0
 10
118.5005798339844
 20
-0.0001108678479795
 30
102.2945785522461
 70
   192
  0
VERTEX
  5
3C2
  8
0
 10
44.82403564453125
 20
-0.002373387105763
 30
102.2281112670898
 70
   192
  0
VERTEX
  5
3C3
  8
0
 10
34.61043548583984
 20
14.73995971679688
 30
87.12227630615234
 70
   192
  0
VERTEX
  5
3C4
  8
0
 10
34.56332015991211
 20
13.74417304992676
 30
82.36866760253906
 70
   192
  0
VERTEX
  5
3C5
  8
0
 10
35.58128356933594
 20
11.15398502349854
 30
78.027099609375
 70
   192
  0
VERTEX
  5
3C6
  8
0
 10
36.82877731323242
 20
7.041662216186523
 30
74.7112045288086
 70
   192
  0
VERTEX
  5
3C7
  8
0
 10
37.41733551025391
 20
1.746017336845398
 30
72.9595947265625
 70
   192
  0
VERTEX
  5
3C8
  8
0
 10
35.85057067871094
 20
1.809409856796265
 30
71.64663696289062
 70
   192
  0
VERTEX
  5
3C9
  8
0
 10
34.88146209716797
 20
7.374339580535889
 30
73.2129135131836
 70
   192
  0
VERTEX
  5
3CA
  8
0
 10
34.95966720581055
 20
2.000026702880859
 30
69.49620056152344
 70
   192
  0
VERTEX
  5
3CB
  8
0
 10
34.06272506713867
 20
7.495520114898682
 30
71.05249786376953
 70
   192
  0
VERTEX
  5
3CC
  8
0
 10
32.45336151123047
 20
11.9794225692749
 30
74.23673248291016
 70
   192
  0
VERTEX
  5
3CD
  8
0
 10
33.37643432617188
 20
11.80409526824951
 30
76.70133209228516
 70
   192
  0
VERTEX
  5
3CE
  8
0
 10
35.9997673034668
 20
14.24483489990234
 30
91.79570770263672
 70
   192
  0
VERTEX
  5
3CF
  8
0
 10
36.36936950683594
 20
12.95313167572021
 30
97.74494934082031
 70
   192
  0
VERTEX
  5
3D0
  8
0
 10
38.26910400390625
 20
12.3347806930542
 30
96.06829071044922
 70
   192
  0
VERTEX
  5
3D1
  8
0
 10
40.67024230957031
 20
8.973848342895508
 30
99.66410064697266
 70
   192
  0
VERTEX
  5
3D2
  8
0
 10
42.43530654907227
 20
4.084904670715332
 30
102.0960464477539
 70
   192
  0
VERTEX
  5
3D3
  8
0
 10
42.77346038818359
 20
-1.804933190345764
 30
102.5533905029297
 70
   192
  0
VERTEX
  5
3D4
  8
0
 10
41.10752105712891
 20
4.206454277038574
 30
103.6549377441406
 70
   192
  0
VERTEX
  5
3D5
  8
0
 10
41.52135467529297
 20
-0.0021278250496835
 30
106.1994171142578
 70
   192
  0
VERTEX
  5
3D6
  8
0
 10
41.49563217163086
 20
-1.856250286102295
 30
104.0778427124023
 70
   192
  0
VERTEX
  5
3D7
  8
0
 10
41.37901306152344
 20
-2.060737133026123
 30
106.0771713256836
 70
   192
  0
VERTEX
  5
3D8
  8
0
 10
44.71889495849609
 20
-1.923822999000549
 30
102.0762405395508
 70
   192
  0
VERTEX
  5
3D9
  8
0
 10
32.06952667236328
 20
14.73607349395752
 30
81.62715911865234
 70
   192
  0
VERTEX
  5
3DA
  8
0
 10
32.03814315795898
 20
15.88399219512939
 30
87.4835205078125
 70
   192
  0
VERTEX
  5
3DB
  8
0
 10
33.72220230102539
 20
15.18599319458008
 30
93.10150909423828
 70
   192
  0
VERTEX
  5
3DC
  8
0
 10
38.37195587158203
 20
10.34211921691895
 30
103.0774688720703
 70
   192
  0
VERTEX
  5
3DD
  8
0
 10
39.09916305541992
 20
9.309255599975586
 30
101.3472061157227
 70
   192
  0
VERTEX
  5
3DE
  8
0
 10
30.80858993530273
 20
15.17510032653809
 30
78.72532653808594
 70
   192
  0
VERTEX
  5
3DF
  8
0
 10
29.9709529876709
 20
16.93275260925293
 30
84.10272216796875
 70
   192
  0
VERTEX
  5
3E0
  8
0
 10
30.52406883239746
 20
17.26880836486816
 30
89.8209228515625
 70
   192
  0
VERTEX
  5
3E1
  8
0
 10
32.54740142822266
 20
16.22332763671875
 30
95.19013977050781
 70
   192
  0
VERTEX
  5
3E2
  8
0
 10
35.44296646118164
 20
13.89325904846191
 30
99.65629577636719
 70
   192
  0
VERTEX
  5
3E3
  8
0
 10
40.60923004150391
 20
5.620006561279297
 30
105.3538665771484
 70
   192
  0
VERTEX
  5
3E4
  8
0
 10
90.26526641845703
 20
-9.94134521484375
 30
77.17465209960938
 70
   192
  0
VERTEX
  5
3E5
  8
0
 10
87.84197998046875
 20
-7.332772731781006
 30
75.25721740722656
 70
   192
  0
VERTEX
  5
3E6
  8
0
 10
86.57258605957031
 20
-7.477890968322754
 30
79.12596130371094
 70
   192
  0
VERTEX
  5
3E7
  8
0
 10
84.03289031982422
 20
-0.0000000000000058
 30
78.20158386230469
 70
   192
  0
VERTEX
  5
3E8
  8
0
 10
86.35218811035156
 20
-3.966682195663452
 30
73.86377716064453
 70
   192
  0
VERTEX
  5
3E9
  8
0
 10
93.07398986816406
 20
-11.53141784667969
 30
81.49227905273438
 70
   192
  0
VERTEX
  5
3EA
  8
0
 10
96.91219329833984
 20
-11.57556343078613
 30
82.88926696777344
 70
   192
  0
VERTEX
  5
3EB
  8
0
 10
97.5853500366211
 20
-11.67504787445068
 30
79.19540405273438
 70
   192
  0
VERTEX
  5
3EC
  8
0
 10
93.5563735961914
 20
-11.46672821044922
 30
78.8648910522461
 70
   192
  0
VERTEX
  5
3ED
  8
0
 10
89.56053161621094
 20
-10.18007278442383
 30
80.21348571777344
 70
   192
  0
VERTEX
  5
3EE
  8
0
 10
100.5880279541016
 20
-10.18007278442383
 30
84.22716522216797
 70
   192
  0
VERTEX
  5
3EF
  8
0
 10
103.4519958496094
 20
-7.609823703765869
 30
85.26956176757812
 70
   192
  0
VERTEX
  5
3F0
  8
0
 10
104.7771987915039
 20
-9.275064468383789
 30
76.7020263671875
 70
   192
  0
VERTEX
  5
3F1
  8
0
 10
101.3556365966797
 20
-10.87187671661377
 30
78.24040985107422
 70
   192
  0
VERTEX
  5
3F2
  8
0
 10
109.8879241943359
 20
-3.89488959312439
 30
73.8553466796875
 70
   192
  0
VERTEX
  5
3F3
  8
0
 10
105.4185180664062
 20
-4.084533214569092
 30
85.98532104492188
 70
   192
  0
VERTEX
  5
3F4
  8
0
 10
106.1156692504883
 20
-0.0000000000000044
 30
86.23905944824219
 70
   192
  0
VERTEX
  5
3F5
  8
0
 10
107.683723449707
 20
-6.980360984802246
 30
75.12891387939453
 70
   192
  0
VERTEX
  5
3F6
  8
0
 10
84.73004150390625
 20
-4.084533214569092
 30
78.45532989501953
 70
   192
  0
VERTEX
  5
3F7
  8
0
 10
5.322098731994629
 20
15.9100227355957
 30
121.805290222168
 70
   192
  0
VERTEX
  5
3F8
  8
0
 10
-17.53374671936035
 20
14.40117073059082
 30
0.0
 70
   192
  0
VERTEX
  5
3F9
  8
0
 10
0.3878452479839325
 20
8.282193183898926
 30
122.6753311157227
 70
   192
  0
VERTEX
  5
3FA
  8
0
 10
-13.48390483856201
 20
2.647344827651978
 30
52.2022819519043
 70
   192
  0
VERTEX
  5
3FB
  8
0
 10
-13.11765289306641
 20
2.381981134414673
 30
54.44939804077148
 70
   192
  0
VERTEX
  5
3FC
  8
0
 10
-1.167929530143738
 20
-0.0000000000000465
 30
122.9496536254883
 70
   192
  0
VERTEX
  5
3FD
  8
0
 10
-21.46001243591309
 20
7.718441963195801
 30
0.0
 70
   192
  0
VERTEX
  5
3FE
  8
0
 10
-22.84727096557617
 20
-0.0000000000000369
 30
0.0000000000000001
 70
   192
  0
VERTEX
  5
3FF
  8
0
 10
-13.90210151672363
 20
2.464384317398071
 30
49.95258712768555
 70
   192
  0
VERTEX
  5
400
  8
0
 10
-14.3380184173584
 20
1.706813335418701
 30
47.88722610473633
 70
   192
  0
VERTEX
  5
401
  8
0
 10
-14.61082363128662
 20
-0.0000000000000405
 30
46.71121215820312
 70
   192
  0
VERTEX
  5
402
  8
0
 10
-11.48727607727051
 20
19.43074417114258
 30
0.0
 70
   192
  0
VERTEX
  5
403
  8
0
 10
12.83404350280762
 20
20.92039489746094
 30
120.4807281494141
 70
   192
  0
VERTEX
  5
404
  8
0
 10
20.99041175842285
 20
22.50016975402832
 30
119.0425415039062
 70
   192
  0
VERTEX
  5
405
  8
0
 10
-4.050217151641846
 20
22.1296329498291
 30
0.0
 70
   192
  0
VERTEX
  5
406
  8
0
 10
-12.8173885345459
 20
1.624773025512695
 30
56.54177474975586
 70
   192
  0
VERTEX
  5
407
  8
0
 10
-12.65045928955078
 20
-0.0000000000000414
 30
57.82899475097656
 70
   192
  0
VERTEX
  5
408
  8
0
 10
3.885890483856201
 20
22.16184616088867
 30
0.0
 70
   192
  0
VERTEX
  5
409
  8
0
 10
29.14678001403809
 20
20.92039489746094
 30
117.6043548583984
 70
   192
  0
VERTEX
  5
40A
  8
0
 10
36.65872573852539
 20
15.9100227355957
 30
116.2798004150391
 70
   192
  0
VERTEX
  5
40B
  8
0
 10
11.36188316345215
 20
19.51323127746582
 30
0.0
 70
   192
  0
VERTEX
  5
40C
  8
0
 10
41.59297943115234
 20
8.282193183898926
 30
115.4097518920898
 70
   192
  0
VERTEX
  5
40D
  8
0
 10
43.14875411987305
 20
-0.0000000252777657
 30
115.1354293823242
 70
   192
  0
VERTEX
  5
40E
  8
0
 10
17.46859931945801
 20
14.49721717834473
 30
0.0
 70
   192
  0
VERTEX
  5
40F
  8
0
 10
21.46001243591309
 20
7.718441963195801
 30
0.0
 70
   192
  0
VERTEX
  5
410
  8
0
 10
22.84727096557617
 20
-0.0000000000000101
 30
0.0
 70
   192
  0
VERTEX
  5
411
  8
0
 10
35.04689025878906
 20
0.0008058387320489
 30
69.37641143798828
 70
   192
  0
VERTEX
  5
412
  8
0
 10
-10.23770141601562
 20
-2.482638597488403
 30
38.42011642456055
 70
   192
  0
VERTEX
  5
413
  8
0
 10
-11.02705192565918
 20
-1.887877106666565
 30
38.13808059692383
 70
   192
  0
VERTEX
  5
414
  8
0
 10
-14.33358478546143
 20
-1.718802213668823
 30
47.9048957824707
 70
   192
  0
VERTEX
  5
415
  8
0
 10
-11.55434131622314
 20
-0.9927419424057007
 30
37.92863845825195
 70
   192
  0
VERTEX
  5
416
  8
0
 10
-11.72922706604004
 20
0.0000000000000006
 30
37.84257125854492
 70
   192
  0
VERTEX
  5
417
  8
0
 10
-8.478174209594727
 20
-2.388340473175049
 30
39.06120681762695
 70
   192
  0
VERTEX
  5
418
  8
0
 10
-13.1246862411499
 20
-2.392001152038574
 30
54.40522766113281
 70
   192
  0
VERTEX
  5
419
  8
0
 10
-7.489528179168701
 20
-1.87955117225647
 30
39.42541885375977
 70
   192
  0
VERTEX
  5
41A
  8
0
 10
-13.48434829711914
 20
-2.647398710250854
 30
52.19972991943359
 70
   192
  0
VERTEX
  5
41B
  8
0
 10
-9.36027717590332
 20
-2.602759838104248
 30
38.73834609985352
 70
   192
  0
VERTEX
  5
41C
  8
0
 10
-12.82102966308594
 20
-1.639510035514832
 30
56.51719665527344
 70
   192
  0
VERTEX
  5
41D
  8
0
 10
-6.949591636657715
 20
-1.084617972373962
 30
39.62931060791016
 70
   192
  0
VERTEX
  5
41E
  8
0
 10
-6.762479305267334
 20
0.0000000000000009
 30
39.7076530456543
 70
   192
  0
VERTEX
  5
41F
  8
0
 10
-13.89564418792725
 20
-2.470730304718018
 30
49.98362731933594
 70
   192
  0
VERTEX
  5
420
  8
0
 10
21.47308731079102
 20
-7.685548782348633
 30
-0.0000229019733524
 70
   192
  0
VERTEX
  5
421
  8
0
 10
11.53671073913574
 20
-19.42098808288574
 30
-0.0001300130534219
 70
   192
  0
VERTEX
  5
422
  8
0
 10
17.52956962585449
 20
-14.43043041229248
 30
-0.0000595798810537
 70
   192
  0
VERTEX
  5
423
  8
0
 10
3.898049592971802
 20
-22.17026901245117
 30
-0.0001655489759287
 70
   192
  0
VERTEX
  5
424
  8
0
 10
-3.872128009796143
 20
-22.17468070983887
 30
-0.0000414014684793
 70
   192
  0
VERTEX
  5
425
  8
0
 10
-11.53667449951172
 20
-19.4210090637207
 30
0.0001301336305914
 70
   192
  0
VERTEX
  5
426
  8
0
 10
-21.47383117675781
 20
-7.68348503112793
 30
0.0001239562843693
 70
   192
  0
VERTEX
  5
427
  8
0
 10
-17.52953720092773
 20
-14.4304666519165
 30
0.0000595328892814
 70
   192
  0
VERTEX
  5
428
  8
0
 10
20.99041175842285
 20
-22.50016975402832
 30
119.0425415039062
 70
   192
  0
VERTEX
  5
429
  8
0
 10
12.83404350280762
 20
-20.92039489746094
 30
120.4807281494141
 70
   192
  0
VERTEX
  5
42A
  8
0
 10
5.322098255157471
 20
-15.9100227355957
 30
121.805290222168
 70
   192
  0
VERTEX
  5
42B
  8
0
 10
31.40532112121582
 20
-14.18987560272217
 30
76.99730682373047
 70
   192
  0
VERTEX
  5
42C
  8
0
 10
33.10574340820312
 20
-10.51651191711426
 30
72.93617248535156
 70
   192
  0
VERTEX
  5
42D
  8
0
 10
30.12906837463379
 20
-17.3160457611084
 30
87.85503387451172
 70
   192
  0
VERTEX
  5
42E
  8
0
 10
34.476318359375
 20
-5.701688766479492
 30
70.31773376464844
 70
   192
  0
VERTEX
  5
42F
  8
0
 10
30.16037559509277
 20
-16.4715690612793
 30
82.10562896728516
 70
   192
  0
VERTEX
  5
430
  8
0
 10
36.65872573852539
 20
-15.9100227355957
 30
116.2798004150391
 70
   192
  0
VERTEX
  5
431
  8
0
 10
34.37873077392578
 20
-14.85921573638916
 30
98.1771469116211
 70
   192
  0
VERTEX
  5
432
  8
0
 10
37.3524055480957
 20
-11.74388408660889
 30
101.9911651611328
 70
   192
  0
VERTEX
  5
433
  8
0
 10
29.14678001403809
 20
-20.92039489746094
 30
117.6043548583984
 70
   192
  0
VERTEX
  5
434
  8
0
 10
31.70680046081543
 20
-16.73953437805176
 30
93.38741302490234
 70
   192
  0
VERTEX
  5
435
  8
0
 10
39.90165710449219
 20
-7.434196949005127
 30
104.6771392822266
 70
   192
  0
VERTEX
  5
436
  8
0
 10
41.59297943115234
 20
-8.282193183898926
 30
115.4097518920898
 70
   192
  0
VERTEX
  5
437
  8
0
 10
0.3878452479839325
 20
-8.282193183898926
 30
122.6753311157227
 70
   192
  0
VERTEX
  5
438
  8
0
 10
88.00562286376953
 20
-5.468536853790283
 30
79.64754486083984
 70
   192
  0
VERTEX
  5
439
  8
0
 10
92.37490844726562
 20
-8.845222473144531
 30
81.23783111572266
 70
   192
  0
VERTEX
  5
43A
  8
0
 10
102.142936706543
 20
-5.468536853790283
 30
84.79310607910156
 70
   192
  0
VERTEX
  5
43B
  8
0
 10
97.77365112304688
 20
-8.845222473144531
 30
83.20281219482422
 70
   192
  0
VERTEX
  5
43C
  8
0
 10
102.142936706543
 20
5.468536853790283
 30
84.79310607910156
 70
   192
  0
VERTEX
  5
43D
  8
0
 10
103.510139465332
 20
7.616814613342285
 30
85.29072570800781
 70
   192
  0
VERTEX
  5
43E
  8
0
 10
105.4888076782227
 20
4.081530094146729
 30
86.01090240478516
 70
   192
  0
VERTEX
  5
43F
  8
0
 10
100.5415802001953
 20
10.17993927001953
 30
84.21025848388672
 70
   192
  0
VERTEX
  5
440
  8
0
 10
97.77365112304688
 20
8.845222473144531
 30
83.20281219482422
 70
   192
  0
VERTEX
  5
441
  8
0
 10
93.12175750732422
 20
11.54944896697998
 30
81.5096664428711
 70
   192
  0
VERTEX
  5
442
  8
0
 10
96.9576644897461
 20
11.53349876403809
 30
82.90582275390625
 70
   192
  0
VERTEX
  5
443
  8
0
 10
89.51422882080078
 20
10.07142066955566
 30
80.19662475585938
 70
   192
  0
VERTEX
  5
444
  8
0
 10
92.37490844726562
 20
8.845222473144531
 30
81.23783111572266
 70
   192
  0
VERTEX
  5
445
  8
0
 10
88.00562286376953
 20
5.468536853790283
 30
79.64754486083984
 70
   192
  0
VERTEX
  5
446
  8
0
 10
86.33513641357422
 20
-0.0000000000000323
 30
79.03953552246094
 70
   192
  0
VERTEX
  5
447
  8
0
 10
84.74894714355469
 20
4.002474784851074
 30
78.46221160888672
 70
   192
  0
VERTEX
  5
448
  8
0
 10
86.61573028564453
 20
7.415530204772949
 30
79.14166259765625
 70
   192
  0
VERTEX
  5
449
  8
0
 10
36.36798858642578
 20
-8.812488555908203
 30
75.8436050415039
 70
   192
  0
VERTEX
  5
44A
  8
0
 10
37.37614059448242
 20
-3.895167350769043
 30
73.44849395751953
 70
   192
  0
VERTEX
  5
44B
  8
0
 10
38.71032333374023
 20
-7.892856597900391
 30
75.69784545898438
 70
   192
  0
VERTEX
  5
44C
  8
0
 10
37.46504211425781
 20
-11.70470809936523
 30
99.27672576904297
 70
   192
  0
VERTEX
  5
44D
  8
0
 10
41.48123168945312
 20
-7.241401672363281
 30
100.7941055297852
 70
   192
  0
VERTEX
  5
44E
  8
0
 10
40.01956176757812
 20
-7.485395431518555
 30
102.4318084716797
 70
   192
  0
VERTEX
  5
44F
  8
0
 10
39.46975326538086
 20
-4.173984527587891
 30
73.93862915039062
 70
   192
  0
VERTEX
  5
450
  8
0
 10
35.10858917236328
 20
-12.35312747955322
 30
79.63020324707031
 70
   192
  0
VERTEX
  5
451
  8
0
 10
37.6611328125
 20
-10.9196310043335
 30
78.3309326171875
 70
   192
  0
VERTEX
  5
452
  8
0
 10
36.66216659545898
 20
-13.11421012878418
 30
81.66773986816406
 70
   192
  0
VERTEX
  5
453
  8
0
 10
34.42044448852539
 20
-14.31311893463135
 30
84.18324279785156
 70
   192
  0
VERTEX
  5
454
  8
0
 10
37.34518432617188
 20
-14.41618061065674
 30
89.46345520019531
 70
   192
  0
VERTEX
  5
455
  8
0
 10
34.99863052368164
 20
-14.71976280212402
 30
88.94959259033203
 70
   192
  0
VERTEX
  5
456
  8
0
 10
36.44291687011719
 20
-14.30389213562012
 30
85.52169036865234
 70
   192
  0
VERTEX
  5
457
  8
0
 10
39.22967910766602
 20
-11.20456886291504
 30
97.5678482055664
 70
   192
  0
VERTEX
  5
458
  8
0
 10
36.81805419921875
 20
-13.66954517364502
 30
93.51902770996094
 70
   192
  0
VERTEX
  5
459
  8
0
 10
40.96923828125
 20
-11.72810077667236
 30
96.36598205566406
 70
   192
  0
VERTEX
  5
45A
  8
0
 10
43.99639129638672
 20
-5.837759494781494
 30
100.9928588867188
 70
   192
  0
VERTEX
  5
45B
  8
0
 10
42.74302291870117
 20
-9.144326210021973
 30
99.09063720703125
 70
   192
  0
VERTEX
  5
45C
  8
0
 10
39.05221939086914
 20
-13.51567363739014
 30
93.13289642333984
 70
   192
  0
VERTEX
  5
45D
  8
0
 10
32.78696441650391
 20
-13.14015960693359
 30
78.4670639038086
 70
   192
  0
VERTEX
  5
45E
  8
0
 10
35.53202819824219
 20
-4.063604354858398
 30
71.93293762207031
 70
   192
  0
VERTEX
  5
45F
  8
0
 10
34.69037628173828
 20
-14.48612213134766
 30
95.0294418334961
 70
   192
  0
VERTEX
  5
460
  8
0
 10
32.5087776184082
 20
-15.81871128082275
 30
89.73956298828125
 70
   192
  0
VERTEX
  5
461
  8
0
 10
31.85125923156738
 20
-15.40407752990723
 30
83.82329559326172
 70
   192
  0
VERTEX
  5
462
  8
0
 10
34.33085250854492
 20
-9.26130199432373
 30
74.38194274902344
 70
   192
  0
VERTEX
  5
463
  8
0
 10
117.8856353759766
 20
-9.411547660827637
 30
98.80709075927734
 70
   192
  0
VERTEX
  5
464
  8
0
 10
117.2014923095703
 20
-12.60305404663086
 30
94.92716979980469
 70
   192
  0
VERTEX
  5
465
  8
0
 10
118.3403701782227
 20
-5.037695407867432
 30
101.3859939575195
 70
   192
  0
VERTEX
  5
466
  8
0
 10
116.3770141601562
 20
-14.27933502197266
 30
90.2513427734375
 70
   192
  0
VERTEX
  5
467
  8
0
 10
115.4982757568359
 20
-14.27772808074951
 30
85.26779174804688
 70
   192
  0
VERTEX
  5
468
  8
0
 10
114.6632232666016
 20
-12.54539585113525
 30
80.53182220458984
 70
   192
  0
VERTEX
  5
469
  8
0
 10
113.5471878051758
 20
-5.036218166351318
 30
74.2025146484375
 70
   192
  0
VERTEX
  5
46A
  8
0
 10
113.9836120605469
 20
-9.290162086486816
 30
76.67754364013672
 70
   192
  0
VERTEX
  5
46B
  8
0
 10
117.9951934814453
 20
-0.0001090518126148
 30
97.40008544921875
 70
   192
  0
VERTEX
  5
46C
  8
0
 10
117.3002090454102
 20
-0.0001090519290301
 30
92.53901672363281
 70
   192
  0
VERTEX
  5
46D
  8
0
 10
116.4962387084961
 20
-0.0001090519654099
 30
87.69717407226562
 70
   192
  0
VERTEX
  5
46E
  8
0
 10
115.5957183837891
 20
-0.0001090519290301
 30
82.87235260009766
 70
   192
  0
VERTEX
  5
46F
  8
0
 10
114.5862121582031
 20
-0.0001090518126148
 30
78.0667495727539
 70
   192
  0
VERTEX
  5
470
  8
0
 62
    74
 10
0.0
 20
0.0
 30
0.0
 70
   128
 71
     3
 72
     2
 73
     1
  0
VERTEX
  5
471
  8
0
 62
    74
 10
0.0
 20
0.0
 30
0.0
 70
   128
 71
     6
 72
     5
 73
     4
  0
VERTEX
  5
472
  8
0
 62
    74
 10
0.0
 20
0.0
 30
0.0
 70
   128
 71
     4
 72
     3
 73
     7
  0
VERTEX
  5
473
  8
0
 62
    74
 10
0.0
 20
0.0
 30
0.0
 70
   128
 71
     9
 72
     5
 73
     8
  0
VERTEX
  5
474
  8
0
 62
    74
 10
0.0
 20
0.0
 30
0.0
 70
   128
 71
    10
 72
     8
 73
     5
  0
VERTEX
  5
475
  8
0
 62
    74
 10
0.0
 20
0.0
 30
0.0
 70
   128
 71
     6
 72
    10
 73
     5
  0
VERTEX
  5
476
  8
0
 62
    74
 10
0.0
 20
0.0
 30
0.0
 70
   128
 71
    11
 72
     9
 73
     8
  0
VERTEX
  5
477
  8
0
 62
    74
 10
0.0
 20
0.0
 30
0.0
 70
   128
 71
     9
 72
    11
 73
    12
  0
VERTEX
  5
478
  8
0
 62
    74
 10
0.0
 20
0.0
 30
0.0
 70
   128
 71
    11
 72
    13
 73
    12
  0
VERTEX
  5
479
  8
0
 62
    74
 10
0.0
 20
0.0
 30
0.0
 70
   128
 71
     4
 72
     7
 73
     6
  0
VERTEX
  5
47A
  8
0
 62
    74
 10
0.0
 20
0.0
 30
0.0
 70
   128
 71
    14
 72
     3
 73
     4
  0
VERTEX
  5
47B
  8
0
 62
    74
 10
0.0
 20
0.0
 30
0.0
 70
   128
 71
    16
 72
     2
 73
    15
  0
VERTEX
  5
47C
  8
0
 62
    74
 10
0.0
 20
0.0
 30
0.0
 70
   128
 71
    15
 72
     2
 73
     3
  0
VERTEX
  5
47D
  8
0
 62
    74
 10
0.0
 20
0.0
 30
0.0
 70
   128
 71
     3
 72
     1
 73
     7
  0
VERTEX
  5
47E
  8
0
 62
    74
 10
0.0
 20
0.0
 30
0.0
 70
   128
 71
    17
 72
    16
 73
    15
  0
VERTEX
  5
47F
  8
0
 62
    74
 10
0.0
 20
0.0
 30
0.0
 70
   128
 71
    17
 72
    18
 73
    16
  0
VERTEX
  5
480
  8
0
 62
    74
 10
0.0
 20
0.0
 30
0.0
 70
   128
 71
    19
 72
    14
 73
     4
  0
VERTEX
  5
481
  8
0
 62
    74
 10
0.0
 20
0.0
 30
0.0
 70
   128
 71
    21
 72
    20
 73
    18
  0
VERTEX
  5
482
  8
0
 62
    74
 10
0.0
 20
0.0
 30
0.0
 70
   128
 71
    18
 72
    17
 73
    21
  0
VERTEX
  5
483
  8
0
 62
    74
 10
0.0
 20
0.0
 30
0.0
 70
   128
 71
    20
 72
    21
 73
    22
  0
VERTEX
  5
484
  8
0
 62
    74
 10
0.0
 20
0.0
 30
0.0
 70
   128
 71
    24
 72
    23
 73
    19
  0
VERTEX
  5
485
  8
0
 62
    74
 10
0.0
 20
0.0
 30
0.0
 70
   128
 71
    14
 72
    19
 73
    23
  0
VERTEX
  5
486
  8
0
 62
    74
 10
0.0
 20
0.0
 30
0.0
 70
   128
 71
    26
 72
    24
 73
    25
  0
VERTEX
  5
487
  8
0
 62
    74
 10
0.0
 20
0.0
 30
0.0
 70
   128
 71
    24
 72
    26
 73
    23
  0
VERTEX
  5
488
  8
0
 62
    74
 10
0.0
 20
0.0
 30
0.0
 70
   128
 71
    28
 72
    25
 73
    27
  0
VERTEX
  5
489
  8
0
 62
    74
 10
0.0
 20
0.0
 30
0.0
 70
   128
 71
    28
 72
    26
 73
    25
  0
VERTEX
  5
48A
  8
0
 62
    74
 10
0.0
 20
0.0
 30
0.0
 70
   128
 71
    30
 72
    29
 73
    27
  0
VERTEX
  5
48B
  8
0
 62
    74
 10
0.0
 20
0.0
 30
0.0
 70
   128
 71
    27
 72
    25
 73
    30
  0
VERTEX
  5
48C
  8
0
 62
    74
 10
0.0
 20
0.0
 30
0.0
 70
   128
 71
    32
 72
    29
 73
    31
  0
VERTEX
  5
48D
  8
0
 62
    74
 10
0.0
 20
0.0
 30
0.0
 70
   128
 71
    30
 72
    31
 73
    29
  0
VERTEX
  5
48E
  8
0
 62
    74
 10
0.0
 20
0.0
 30
0.0
 70
   128
 71
    33
 72
    32
 73
    31
  0
VERTEX
  5
48F
  8
0
 62
    74
 10
0.0
 20
0.0
 30
0.0
 70
   128
 71
    34
 72
    32
 73
    33
  0
VERTEX
  5
490
  8
0
 62
    74
 10
0.0
 20
0.0
 30
0.0
 70
   128
 71
    36
 72
    14
 73
    35
  0
VERTEX
  5
491
  8
0
 62
    74
 10
0.0
 20
0.0
 30
0.0
 70
   128
 71
     3
 72
    36
 73
    37
  0
VERTEX
  5
492
  8
0
 62
    74
 10
0.0
 20
0.0
 30
0.0
 70
   128
 71
     3
 72
    14
 73
    36
  0
VERTEX
  5
493
  8
0
 62
    74
 10
0.0
 20
0.0
 30
0.0
 70
   128
 71
     3
 72
    37
 73
    15
  0
VERTEX
  5
494
  8
0
 62
    74
 10
0.0
 20
0.0
 30
0.0
 70
   128
 71
    15
 72
    37
 73
    38
  0
VERTEX
  5
495
  8
0
 62
    74
 10
0.0
 20
0.0
 30
0.0
 70
   128
 71
    41
 72
    40
 73
    39
  0
VERTEX
  5
496
  8
0
 62
    74
 10
0.0
 20
0.0
 30
0.0
 70
   128
 71
    43
 72
    42
 73
    40
  0
VERTEX
  5
497
  8
0
 62
    74
 10
0.0
 20
0.0
 30
0.0
 70
   128
 71
    38
 72
    39
 73
    17
  0
VERTEX
  5
498
  8
0
 62
    74
 10
0.0
 20
0.0
 30
0.0
 70
   128
 71
    41
 72
    43
 73
    40
  0
VERTEX
  5
499
  8
0
 62
    74
 10
0.0
 20
0.0
 30
0.0
 70
   128
 71
    35
 72
    14
 73
    23
  0
VERTEX
  5
49A
  8
0
 62
    74
 10
0.0
 20
0.0
 30
0.0
 70
   128
 71
    45
 72
    44
 73
    41
  0
VERTEX
  5
49B
  8
0
 62
    74
 10
0.0
 20
0.0
 30
0.0
 70
   128
 71
    17
 72
    39
 73
    21
  0
VERTEX
  5
49C
  8
0
 62
    74
 10
0.0
 20
0.0
 30
0.0
 70
   128
 71
    35
 72
    23
 73
    46
  0
VERTEX
  5
49D
  8
0
 62
    74
 10
0.0
 20
0.0
 30
0.0
 70
   128
 71
    48
 72
    47
 73
    46
  0
VERTEX
  5
49E
  8
0
 62
    74
 10
0.0
 20
0.0
 30
0.0
 70
   128
 71
    23
 72
    26
 73
    46
  0
VERTEX
  5
49F
  8
0
 62
    74
 10
0.0
 20
0.0
 30
0.0
 70
   128
 71
    27
 72
    48
 73
    28
  0
VERTEX
  5
4A0
  8
0
 62
    74
 10
0.0
 20
0.0
 30
0.0
 70
   128
 71
    26
 72
    48
 73
    46
  0
VERTEX
  5
4A1
  8
0
 62
    74
 10
0.0
 20
0.0
 30
0.0
 70
   128
 71
    27
 72
    49
 73
    48
  0
VERTEX
  5
4A2
  8
0
 62
    74
 10
0.0
 20
0.0
 30
0.0
 70
   128
 71
    28
 72
    48
 73
    26
  0
VERTEX
  5
4A3
  8
0
 62
    74
 10
0.0
 20
0.0
 30
0.0
 70
   128
 71
    32
 72
    51
 73
    50
  0
VERTEX
  5
4A4
  8
0
 62
    74
 10
0.0
 20
0.0
 30
0.0
 70
   128
 71
    27
 72
    29
 73
    49
  0
VERTEX
  5
4A5
  8
0
 62
    74
 10
0.0
 20
0.0
 30
0.0
 70
   128
 71
    32
 72
    50
 73
    29
  0
VERTEX
  5
4A6
  8
0
 62
    74
 10
0.0
 20
0.0
 30
0.0
 70
   128
 71
    54
 72
    53
 73
    52
  0
VERTEX
  5
4A7
  8
0
 62
    74
 10
0.0
 20
0.0
 30
0.0
 70
   128
 71
    53
 72
    54
 73
    55
  0
VERTEX
  5
4A8
  8
0
 62
    74
 10
0.0
 20
0.0
 30
0.0
 70
   128
 71
    34
 72
    51
 73
    32
  0
VERTEX
  5
4A9
  8
0
 62
    74
 10
0.0
 20
0.0
 30
0.0
 70
   128
 71
    29
 72
    50
 73
    49
  0
VERTEX
  5
4AA
  8
0
 62
    74
 10
0.0
 20
0.0
 30
0.0
 70
   128
 71
    51
 72
    34
 73
    56
  0
VERTEX
  5
4AB
  8
0
 62
    74
 10
0.0
 20
0.0
 30
0.0
 70
   128
 71
    38
 72
    37
 73
    45
  0
VERTEX
  5
4AC
  8
0
 62
    74
 10
0.0
 20
0.0
 30
0.0
 70
   128
 71
    15
 72
    38
 73
    17
  0
VERTEX
  5
4AD
  8
0
 62
    74
 10
0.0
 20
0.0
 30
0.0
 70
   128
 71
    45
 72
    41
 73
    38
  0
VERTEX
  5
4AE
  8
0
 62
    74
 10
0.0
 20
0.0
 30
0.0
 70
   128
 71
    57
 72
    37
 73
    36
  0
VERTEX
  5
4AF
  8
0
 62
    74
 10
0.0
 20
0.0
 30
0.0
 70
   128
 71
    57
 72
    45
 73
    37
  0
VERTEX
  5
4B0
  8
0
 62
    74
 10
0.0
 20
0.0
 30
0.0
 70
   128
 71
    36
 72
    35
 73
    58
  0
VERTEX
  5
4B1
  8
0
 62
    74
 10
0.0
 20
0.0
 30
0.0
 70
   128
 71
    58
 72
    57
 73
    36
  0
VERTEX
  5
4B2
  8
0
 62
    74
 10
0.0
 20
0.0
 30
0.0
 70
   128
 71
    35
 72
    46
 73
    59
  0
VERTEX
  5
4B3
  8
0
 62
    74
 10
0.0
 20
0.0
 30
0.0
 70
   128
 71
    35
 72
    59
 73
    58
  0
VERTEX
  5
4B4
  8
0
 62
    74
 10
0.0
 20
0.0
 30
0.0
 70
   128
 71
    61
 72
    60
 73
    47
  0
VERTEX
  5
4B5
  8
0
 62
    74
 10
0.0
 20
0.0
 30
0.0
 70
   128
 71
    47
 72
    59
 73
    46
  0
VERTEX
  5
4B6
  8
0
 62
    74
 10
0.0
 20
0.0
 30
0.0
 70
   128
 71
    61
 72
    48
 73
    49
  0
VERTEX
  5
4B7
  8
0
 62
    74
 10
0.0
 20
0.0
 30
0.0
 70
   128
 71
    61
 72
    47
 73
    48
  0
VERTEX
  5
4B8
  8
0
 62
    74
 10
0.0
 20
0.0
 30
0.0
 70
   128
 71
    52
 72
    49
 73
    50
  0
VERTEX
  5
4B9
  8
0
 62
    74
 10
0.0
 20
0.0
 30
0.0
 70
   128
 71
    52
 72
    61
 73
    49
  0
VERTEX
  5
4BA
  8
0
 62
    74
 10
0.0
 20
0.0
 30
0.0
 70
   128
 71
    50
 72
    51
 73
    54
  0
VERTEX
  5
4BB
  8
0
 62
    74
 10
0.0
 20
0.0
 30
0.0
 70
   128
 71
    39
 72
    38
 73
    41
  0
VERTEX
  5
4BC
  8
0
 62
    74
 10
0.0
 20
0.0
 30
0.0
 70
   128
 71
    41
 72
    44
 73
    43
  0
VERTEX
  5
4BD
  8
0
 62
    74
 10
0.0
 20
0.0
 30
0.0
 70
   128
 71
    45
 72
    62
 73
    44
  0
VERTEX
  5
4BE
  8
0
 62
    74
 10
0.0
 20
0.0
 30
0.0
 70
   128
 71
    57
 72
    63
 73
    62
  0
VERTEX
  5
4BF
  8
0
 62
    74
 10
0.0
 20
0.0
 30
0.0
 70
   128
 71
    45
 72
    57
 73
    62
  0
VERTEX
  5
4C0
  8
0
 62
    74
 10
0.0
 20
0.0
 30
0.0
 70
   128
 71
    58
 72
    64
 73
    63
  0
VERTEX
  5
4C1
  8
0
 62
    74
 10
0.0
 20
0.0
 30
0.0
 70
   128
 71
    57
 72
    58
 73
    63
  0
VERTEX
  5
4C2
  8
0
 62
    74
 10
0.0
 20
0.0
 30
0.0
 70
   128
 71
    59
 72
    65
 73
    64
  0
VERTEX
  5
4C3
  8
0
 62
    74
 10
0.0
 20
0.0
 30
0.0
 70
   128
 71
    58
 72
    59
 73
    64
  0
VERTEX
  5
4C4
  8
0
 62
    74
 10
0.0
 20
0.0
 30
0.0
 70
   128
 71
    66
 72
    65
 73
    47
  0
VERTEX
  5
4C5
  8
0
 62
    74
 10
0.0
 20
0.0
 30
0.0
 70
   128
 71
    59
 72
    47
 73
    65
  0
VERTEX
  5
4C6
  8
0
 62
    74
 10
0.0
 20
0.0
 30
0.0
 70
   128
 71
    66
 72
    47
 73
    60
  0
VERTEX
  5
4C7
  8
0
 62
    74
 10
0.0
 20
0.0
 30
0.0
 70
   128
 71
    61
 72
    67
 73
    60
  0
VERTEX
  5
4C8
  8
0
 62
    74
 10
0.0
 20
0.0
 30
0.0
 70
   128
 71
    50
 72
    54
 73
    52
  0
VERTEX
  5
4C9
  8
0
 62
    74
 10
0.0
 20
0.0
 30
0.0
 70
   128
 71
    52
 72
    67
 73
    61
  0
VERTEX
  5
4CA
  8
0
 62
    74
 10
0.0
 20
0.0
 30
0.0
 70
   128
 71
    67
 72
    52
 73
    53
  0
VERTEX
  5
4CB
  8
0
 62
     9
 10
0.0
 20
0.0
 30
0.0
 70
   128
 71
    70
 72
    69
 73
    68
  0
VERTEX
  5
4CC
  8
0
 62
     9
 10
0.0
 20
0.0
 30
0.0
 70
   128
 71
    20
 72
    72
 73
    71
  0
VERTEX
  5
4CD
  8
0
 62
     9
 10
0.0
 20
0.0
 30
0.0
 70
   128
 71
    75
 72
    74
 73
    73
  0
VERTEX
  5
4CE
  8
0
 62
     9
 10
0.0
 20
0.0
 30
0.0
 70
   128
 71
    77
 72
    68
 73
    76
  0
VERTEX
  5
4CF
  8
0
 62
     9
 10
0.0
 20
0.0
 30
0.0
 70
   128
 71
    80
 72
    79
 73
    78
  0
VERTEX
  5
4D0
  8
0
 62
     9
 10
0.0
 20
0.0
 30
0.0
 70
   128
 71
    78
 72
    74
 73
    81
  0
VERTEX
  5
4D1
  8
0
 62
     9
 10
0.0
 20
0.0
 30
0.0
 70
   128
 71
    84
 72
    83
 73
    82
  0
VERTEX
  5
4D2
  8
0
 62
     9
 10
0.0
 20
0.0
 30
0.0
 70
   128
 71
    82
 72
    13
 73
    84
  0
VERTEX
  5
4D3
  8
0
 62
     9
 10
0.0
 20
0.0
 30
0.0
 70
   128
 71
    79
 72
    85
 73
    83
  0
VERTEX
  5
4D4
  8
0
 62
     9
 10
0.0
 20
0.0
 30
0.0
 70
   128
 71
    85
 72
    82
 73
    83
  0
VERTEX
  5
4D5
  8
0
 62
     9
 10
0.0
 20
0.0
 30
0.0
 70
   128
 71
    80
 72
    85
 73
    79
  0
VERTEX
  5
4D6
  8
0
 62
     9
 10
0.0
 20
0.0
 30
0.0
 70
   128
 71
    80
 72
    78
 73
    81
  0
VERTEX
  5
4D7
  8
0
 62
     9
 10
0.0
 20
0.0
 30
0.0
 70
   128
 71
    76
 72
    75
 73
    73
  0
VERTEX
  5
4D8
  8
0
 62
     9
 10
0.0
 20
0.0
 30
0.0
 70
   128
 71
    75
 72
    81
 73
    74
  0
VERTEX
  5
4D9
  8
0
 62
     9
 10
0.0
 20
0.0
 30
0.0
 70
   128
 71
    70
 72
    68
 73
    77
  0
VERTEX
  5
4DA
  8
0
 62
     9
 10
0.0
 20
0.0
 30
0.0
 70
   128
 71
    77
 72
    76
 73
    73
  0
VERTEX
  5
4DB
  8
0
 62
     9
 10
0.0
 20
0.0
 30
0.0
 70
   128
 71
    70
 72
    86
 73
    72
  0
VERTEX
  5
4DC
  8
0
 62
     9
 10
0.0
 20
0.0
 30
0.0
 70
   128
 71
    70
 72
    72
 73
    69
  0
VERTEX
  5
4DD
  8
0
 62
     9
 10
0.0
 20
0.0
 30
0.0
 70
   128
 71
    72
 72
    86
 73
    71
  0
VERTEX
  5
4DE
  8
0
 62
    74
 10
0.0
 20
0.0
 30
0.0
 70
   128
 71
    89
 72
    88
 73
    87
  0
VERTEX
  5
4DF
  8
0
 62
    74
 10
0.0
 20
0.0
 30
0.0
 70
   128
 71
    92
 72
    91
 73
    90
  0
VERTEX
  5
4E0
  8
0
 62
    74
 10
0.0
 20
0.0
 30
0.0
 70
   128
 71
    89
 72
    93
 73
    88
  0
VERTEX
  5
4E1
  8
0
 62
    74
 10
0.0
 20
0.0
 30
0.0
 70
   128
 71
    95
 72
    94
 73
    93
  0
VERTEX
  5
4E2
  8
0
 62
    74
 10
0.0
 20
0.0
 30
0.0
 70
   128
 71
    94
 72
    95
 73
    96
  0
VERTEX
  5
4E3
  8
0
 62
    74
 10
0.0
 20
0.0
 30
0.0
 70
   128
 71
    90
 72
    95
 73
    93
  0
VERTEX
  5
4E4
  8
0
 62
    74
 10
0.0
 20
0.0
 30
0.0
 70
   128
 71
    96
 72
    97
 73
    94
  0
VERTEX
  5
4E5
  8
0
 62
    74
 10
0.0
 20
0.0
 30
0.0
 70
   128
 71
    89
 72
    92
 73
    90
  0
VERTEX
  5
4E6
  8
0
 62
    74
 10
0.0
 20
0.0
 30
0.0
 70
   128
 71
    93
 72
    89
 73
    90
  0
VERTEX
  5
4E7
  8
0
 62
    74
 10
0.0
 20
0.0
 30
0.0
 70
   128
 71
    87
 72
    88
 73
    98
  0
VERTEX
  5
4E8
  8
0
 62
    74
 10
0.0
 20
0.0
 30
0.0
 70
   128
 71
   101
 72
   100
 73
    99
  0
VERTEX
  5
4E9
  8
0
 62
    74
 10
0.0
 20
0.0
 30
0.0
 70
   128
 71
    99
 72
    87
 73
    98
  0
VERTEX
  5
4EA
  8
0
 62
    74
 10
0.0
 20
0.0
 30
0.0
 70
   128
 71
    92
 72
   102
 73
    91
  0
VERTEX
  5
4EB
  8
0
 62
    74
 10
0.0
 20
0.0
 30
0.0
 70
   128
 71
    99
 72
    98
 73
   101
  0
VERTEX
  5
4EC
  8
0
 62
    74
 10
0.0
 20
0.0
 30
0.0
 70
   128
 71
   102
 72
    92
 73
   103
  0
VERTEX
  5
4ED
  8
0
 62
    74
 10
0.0
 20
0.0
 30
0.0
 70
   128
 71
   101
 72
   104
 73
   100
  0
VERTEX
  5
4EE
  8
0
 62
    74
 10
0.0
 20
0.0
 30
0.0
 70
   128
 71
   104
 72
   105
 73
   100
  0
VERTEX
  5
4EF
  8
0
 62
    74
 10
0.0
 20
0.0
 30
0.0
 70
   128
 71
    65
 72
   106
 73
    64
  0
VERTEX
  5
4F0
  8
0
 62
    74
 10
0.0
 20
0.0
 30
0.0
 70
   128
 71
   107
 72
   105
 73
   104
  0
VERTEX
  5
4F1
  8
0
 62
    74
 10
0.0
 20
0.0
 30
0.0
 70
   128
 71
   108
 72
    60
 73
    67
  0
VERTEX
  5
4F2
  8
0
 62
    74
 10
0.0
 20
0.0
 30
0.0
 70
   128
 71
    66
 72
   106
 73
    65
  0
VERTEX
  5
4F3
  8
0
 62
    74
 10
0.0
 20
0.0
 30
0.0
 70
   128
 71
    53
 72
   109
 73
    67
  0
VERTEX
  5
4F4
  8
0
 62
    74
 10
0.0
 20
0.0
 30
0.0
 70
   128
 71
   111
 72
    44
 73
   110
  0
VERTEX
  5
4F5
  8
0
 62
    74
 10
0.0
 20
0.0
 30
0.0
 70
   128
 71
    43
 72
   111
 73
    42
  0
VERTEX
  5
4F6
  8
0
 62
    74
 10
0.0
 20
0.0
 30
0.0
 70
   128
 71
    44
 72
   111
 73
    43
  0
VERTEX
  5
4F7
  8
0
 62
    74
 10
0.0
 20
0.0
 30
0.0
 70
   128
 71
    67
 72
   109
 73
   108
  0
VERTEX
  5
4F8
  8
0
 62
    74
 10
0.0
 20
0.0
 30
0.0
 70
   128
 71
    60
 72
   106
 73
    66
  0
VERTEX
  5
4F9
  8
0
 62
    74
 10
0.0
 20
0.0
 30
0.0
 70
   128
 71
    60
 72
   108
 73
   106
  0
VERTEX
  5
4FA
  8
0
 62
    74
 10
0.0
 20
0.0
 30
0.0
 70
   128
 71
    44
 72
    62
 73
   110
  0
VERTEX
  5
4FB
  8
0
 62
    74
 10
0.0
 20
0.0
 30
0.0
 70
   128
 71
    63
 72
   110
 73
    62
  0
VERTEX
  5
4FC
  8
0
 62
    74
 10
0.0
 20
0.0
 30
0.0
 70
   128
 71
   107
 72
    63
 73
    64
  0
VERTEX
  5
4FD
  8
0
 62
    74
 10
0.0
 20
0.0
 30
0.0
 70
   128
 71
   105
 72
    64
 73
   106
  0
VERTEX
  5
4FE
  8
0
 62
    74
 10
0.0
 20
0.0
 30
0.0
 70
   128
 71
   110
 72
    63
 73
   107
  0
VERTEX
  5
4FF
  8
0
 62
    74
 10
0.0
 20
0.0
 30
0.0
 70
   128
 71
    64
 72
   105
 73
   107
  0
VERTEX
  5
500
  8
0
 62
    74
 10
0.0
 20
0.0
 30
0.0
 70
   128
 71
   112
 72
    42
 73
   111
  0
VERTEX
  5
501
  8
0
 62
    74
 10
0.0
 20
0.0
 30
0.0
 70
   128
 71
   113
 72
    42
 73
   112
  0
VERTEX
  5
502
  8
0
 62
     9
 10
0.0
 20
0.0
 30
0.0
 70
   128
 71
   116
 72
   115
 73
   114
  0
VERTEX
  5
503
  8
0
 62
     9
 10
0.0
 20
0.0
 30
0.0
 70
   128
 71
   118
 72
   117
 73
    97
  0
VERTEX
  5
504
  8
0
 62
     9
 10
0.0
 20
0.0
 30
0.0
 70
   128
 71
   121
 72
   120
 73
   119
  0
VERTEX
  5
505
  8
0
 62
     9
 10
0.0
 20
0.0
 30
0.0
 70
   128
 71
   123
 72
   119
 73
   122
  0
VERTEX
  5
506
  8
0
 62
     9
 10
0.0
 20
0.0
 30
0.0
 70
   128
 71
   121
 72
   125
 73
   124
  0
VERTEX
  5
507
  8
0
 62
     9
 10
0.0
 20
0.0
 30
0.0
 70
   128
 71
   124
 72
   120
 73
   121
  0
VERTEX
  5
508
  8
0
 62
     9
 10
0.0
 20
0.0
 30
0.0
 70
   128
 71
   103
 72
   125
 73
   126
  0
VERTEX
  5
509
  8
0
 62
     9
 10
0.0
 20
0.0
 30
0.0
 70
   128
 71
   125
 72
   103
 73
   124
  0
VERTEX
  5
50A
  8
0
 62
     9
 10
0.0
 20
0.0
 30
0.0
 70
   128
 71
   120
 72
   122
 73
   119
  0
VERTEX
  5
50B
  8
0
 62
     9
 10
0.0
 20
0.0
 30
0.0
 70
   128
 71
   127
 72
   114
 73
   123
  0
VERTEX
  5
50C
  8
0
 62
     9
 10
0.0
 20
0.0
 30
0.0
 70
   128
 71
   123
 72
   122
 73
   127
  0
VERTEX
  5
50D
  8
0
 62
     9
 10
0.0
 20
0.0
 30
0.0
 70
   128
 71
   116
 72
   117
 73
   115
  0
VERTEX
  5
50E
  8
0
 62
     9
 10
0.0
 20
0.0
 30
0.0
 70
   128
 71
   116
 72
   114
 73
   127
  0
VERTEX
  5
50F
  8
0
 62
     9
 10
0.0
 20
0.0
 30
0.0
 70
   128
 71
   117
 72
   116
 73
    97
  0
VERTEX
  5
510
  8
0
 62
     9
 10
0.0
 20
0.0
 30
0.0
 70
   128
 71
   123
 72
    90
 73
   119
  0
VERTEX
  5
511
  8
0
 62
     9
 10
0.0
 20
0.0
 30
0.0
 70
   128
 71
    96
 72
    95
 73
   114
  0
VERTEX
  5
512
  8
0
 62
     9
 10
0.0
 20
0.0
 30
0.0
 70
   128
 71
    95
 72
    90
 73
   123
  0
VERTEX
  5
513
  8
0
 62
     9
 10
0.0
 20
0.0
 30
0.0
 70
   128
 71
    96
 72
   114
 73
   115
  0
VERTEX
  5
514
  8
0
 62
     9
 10
0.0
 20
0.0
 30
0.0
 70
   128
 71
   117
 72
   115
 73
    96
  0
VERTEX
  5
515
  8
0
 62
     9
 10
0.0
 20
0.0
 30
0.0
 70
   128
 71
    97
 72
    96
 73
   117
  0
VERTEX
  5
516
  8
0
 62
     9
 10
0.0
 20
0.0
 30
0.0
 70
   128
 71
   114
 72
    95
 73
   123
  0
VERTEX
  5
517
  8
0
 62
     9
 10
0.0
 20
0.0
 30
0.0
 70
   128
 71
   119
 72
    90
 73
    91
  0
VERTEX
  5
518
  8
0
 62
     9
 10
0.0
 20
0.0
 30
0.0
 70
   128
 71
   102
 72
   121
 73
    91
  0
VERTEX
  5
519
  8
0
 62
     9
 10
0.0
 20
0.0
 30
0.0
 70
   128
 71
   119
 72
    91
 73
   121
  0
VERTEX
  5
51A
  8
0
 62
     9
 10
0.0
 20
0.0
 30
0.0
 70
   128
 71
   102
 72
   103
 73
   125
  0
VERTEX
  5
51B
  8
0
 62
     9
 10
0.0
 20
0.0
 30
0.0
 70
   128
 71
   121
 72
   125
 73
   102
  0
VERTEX
  5
51C
  8
0
 62
     9
 10
0.0
 20
0.0
 30
0.0
 70
   128
 71
   101
 72
    98
 73
   128
  0
VERTEX
  5
51D
  8
0
 62
     9
 10
0.0
 20
0.0
 30
0.0
 70
   128
 71
    88
 72
    93
 73
   129
  0
VERTEX
  5
51E
  8
0
 62
     9
 10
0.0
 20
0.0
 30
0.0
 70
   128
 71
   110
 72
   107
 73
   111
  0
VERTEX
  5
51F
  8
0
 62
     9
 10
0.0
 20
0.0
 30
0.0
 70
   128
 71
   104
 72
   112
 73
   111
  0
VERTEX
  5
520
  8
0
 62
     9
 10
0.0
 20
0.0
 30
0.0
 70
   128
 71
   111
 72
   107
 73
   104
  0
VERTEX
  5
521
  8
0
 62
     9
 10
0.0
 20
0.0
 30
0.0
 70
   128
 71
   128
 72
   112
 73
   101
  0
VERTEX
  5
522
  8
0
 62
     9
 10
0.0
 20
0.0
 30
0.0
 70
   128
 71
   104
 72
   101
 73
   112
  0
VERTEX
  5
523
  8
0
 62
     9
 10
0.0
 20
0.0
 30
0.0
 70
   128
 71
    98
 72
   130
 73
   128
  0
VERTEX
  5
524
  8
0
 62
     9
 10
0.0
 20
0.0
 30
0.0
 70
   128
 71
    88
 72
   129
 73
   130
  0
VERTEX
  5
525
  8
0
 62
     9
 10
0.0
 20
0.0
 30
0.0
 70
   128
 71
   130
 72
    98
 73
    88
  0
VERTEX
  5
526
  8
0
 62
     9
 10
0.0
 20
0.0
 30
0.0
 70
   128
 71
   129
 72
    93
 73
   131
  0
VERTEX
  5
527
  8
0
 62
     9
 10
0.0
 20
0.0
 30
0.0
 70
   128
 71
   132
 72
   131
 73
    94
  0
VERTEX
  5
528
  8
0
 62
     9
 10
0.0
 20
0.0
 30
0.0
 70
   128
 71
    93
 72
    94
 73
   131
  0
VERTEX
  5
529
  8
0
 62
     9
 10
0.0
 20
0.0
 30
0.0
 70
   128
 71
   134
 72
   133
 73
   132
  0
VERTEX
  5
52A
  8
0
 62
     9
 10
0.0
 20
0.0
 30
0.0
 70
   128
 71
    94
 72
   134
 73
   132
  0
VERTEX
  5
52B
  8
0
 62
     9
 10
0.0
 20
0.0
 30
0.0
 70
   128
 71
   134
 72
   135
 73
   133
  0
VERTEX
  5
52C
  8
0
 62
    74
 10
0.0
 20
0.0
 30
0.0
 70
   128
 71
   134
 72
   127
 73
   122
  0
VERTEX
  5
52D
  8
0
 62
    74
 10
0.0
 20
0.0
 30
0.0
 70
   128
 71
   132
 72
   137
 73
   136
  0
VERTEX
  5
52E
  8
0
 62
    74
 10
0.0
 20
0.0
 30
0.0
 70
   128
 71
   135
 72
   138
 73
   133
  0
VERTEX
  5
52F
  8
0
 62
    74
 10
0.0
 20
0.0
 30
0.0
 70
   128
 71
   140
 72
   130
 73
   139
  0
VERTEX
  5
530
  8
0
 62
    74
 10
0.0
 20
0.0
 30
0.0
 70
   128
 71
   129
 72
   141
 73
   130
  0
VERTEX
  5
531
  8
0
 62
    74
 10
0.0
 20
0.0
 30
0.0
 70
   128
 71
   128
 72
   140
 73
   142
  0
VERTEX
  5
532
  8
0
 62
    74
 10
0.0
 20
0.0
 30
0.0
 70
   128
 71
   140
 72
   128
 73
   130
  0
VERTEX
  5
533
  8
0
 62
    74
 10
0.0
 20
0.0
 30
0.0
 70
   128
 71
   142
 72
   113
 73
   112
  0
VERTEX
  5
534
  8
0
 62
    74
 10
0.0
 20
0.0
 30
0.0
 70
   128
 71
   112
 72
   128
 73
   142
  0
VERTEX
  5
535
  8
0
 62
    74
 10
0.0
 20
0.0
 30
0.0
 70
   128
 71
   143
 72
   139
 73
   130
  0
VERTEX
  5
536
  8
0
 62
    74
 10
0.0
 20
0.0
 30
0.0
 70
   128
 71
   130
 72
   141
 73
   143
  0
VERTEX
  5
537
  8
0
 62
    74
 10
0.0
 20
0.0
 30
0.0
 70
   128
 71
   146
 72
   145
 73
   144
  0
VERTEX
  5
538
  8
0
 62
    74
 10
0.0
 20
0.0
 30
0.0
 70
   128
 71
   144
 72
   141
 73
   147
  0
VERTEX
  5
539
  8
0
 62
    74
 10
0.0
 20
0.0
 30
0.0
 70
   128
 71
   141
 72
   129
 73
   147
  0
VERTEX
  5
53A
  8
0
 62
    74
 10
0.0
 20
0.0
 30
0.0
 70
   128
 71
   144
 72
   148
 73
   141
  0
VERTEX
  5
53B
  8
0
 62
    74
 10
0.0
 20
0.0
 30
0.0
 70
   128
 71
   129
 72
   131
 73
   147
  0
VERTEX
  5
53C
  8
0
 62
    74
 10
0.0
 20
0.0
 30
0.0
 70
   128
 71
   131
 72
   136
 73
   147
  0
VERTEX
  5
53D
  8
0
 62
    74
 10
0.0
 20
0.0
 30
0.0
 70
   128
 71
   146
 72
   150
 73
   149
  0
VERTEX
  5
53E
  8
0
 62
    74
 10
0.0
 20
0.0
 30
0.0
 70
   128
 71
   146
 72
   144
 73
   150
  0
VERTEX
  5
53F
  8
0
 62
    74
 10
0.0
 20
0.0
 30
0.0
 70
   128
 71
   149
 72
   150
 73
    55
  0
VERTEX
  5
540
  8
0
 62
    74
 10
0.0
 20
0.0
 30
0.0
 70
   128
 71
   150
 72
   109
 73
    55
  0
VERTEX
  5
541
  8
0
 62
    74
 10
0.0
 20
0.0
 30
0.0
 70
   128
 71
    55
 72
   109
 73
    53
  0
VERTEX
  5
542
  8
0
 62
    74
 10
0.0
 20
0.0
 30
0.0
 70
   128
 71
   148
 72
   144
 73
   145
  0
VERTEX
  5
543
  8
0
 62
    74
 10
0.0
 20
0.0
 30
0.0
 70
   128
 71
   137
 72
   132
 73
   133
  0
VERTEX
  5
544
  8
0
 62
    74
 10
0.0
 20
0.0
 30
0.0
 70
   128
 71
   132
 72
   136
 73
   131
  0
VERTEX
  5
545
  8
0
 62
    74
 10
0.0
 20
0.0
 30
0.0
 70
   128
 71
   138
 72
   135
 73
   151
  0
VERTEX
  5
546
  8
0
 62
    74
 10
0.0
 20
0.0
 30
0.0
 70
   128
 71
   137
 72
   133
 73
   138
  0
VERTEX
  5
547
  8
0
 62
    74
 10
0.0
 20
0.0
 30
0.0
 70
   128
 71
   120
 72
   124
 73
    92
  0
VERTEX
  5
548
  8
0
 62
    74
 10
0.0
 20
0.0
 30
0.0
 70
   128
 71
   135
 72
   134
 73
   151
  0
VERTEX
  5
549
  8
0
 62
    74
 10
0.0
 20
0.0
 30
0.0
 70
   128
 71
   116
 72
    94
 73
    97
  0
VERTEX
  5
54A
  8
0
 62
    74
 10
0.0
 20
0.0
 30
0.0
 70
   128
 71
    92
 72
   122
 73
   120
  0
VERTEX
  5
54B
  8
0
 62
    74
 10
0.0
 20
0.0
 30
0.0
 70
   128
 71
   124
 72
   103
 73
    92
  0
VERTEX
  5
54C
  8
0
 62
    74
 10
0.0
 20
0.0
 30
0.0
 70
   128
 71
   122
 72
   151
 73
   134
  0
VERTEX
  5
54D
  8
0
 62
    74
 10
0.0
 20
0.0
 30
0.0
 70
   128
 71
   151
 72
   122
 73
    92
  0
VERTEX
  5
54E
  8
0
 62
    74
 10
0.0
 20
0.0
 30
0.0
 70
   128
 71
    94
 72
   127
 73
   134
  0
VERTEX
  5
54F
  8
0
 62
    74
 10
0.0
 20
0.0
 30
0.0
 70
   128
 71
   116
 72
   127
 73
    94
  0
VERTEX
  5
550
  8
0
 62
     9
 10
0.0
 20
0.0
 30
0.0
 70
   128
 71
    70
 72
    77
 73
   152
  0
VERTEX
  5
551
  8
0
 62
     9
 10
0.0
 20
0.0
 30
0.0
 70
   128
 71
    73
 72
    74
 73
   153
  0
VERTEX
  5
552
  8
0
 62
     9
 10
0.0
 20
0.0
 30
0.0
 70
   128
 71
   155
 72
    78
 73
   154
  0
VERTEX
  5
553
  8
0
 62
     9
 10
0.0
 20
0.0
 30
0.0
 70
   128
 71
   158
 72
   157
 73
   156
  0
VERTEX
  5
554
  8
0
 62
     9
 10
0.0
 20
0.0
 30
0.0
 70
   128
 71
   160
 72
   156
 73
   159
  0
VERTEX
  5
555
  8
0
 62
     9
 10
0.0
 20
0.0
 30
0.0
 70
   128
 71
   162
 72
   161
 73
   160
  0
VERTEX
  5
556
  8
0
 62
     9
 10
0.0
 20
0.0
 30
0.0
 70
   128
 71
   165
 72
   164
 73
   163
  0
VERTEX
  5
557
  8
0
 62
     9
 10
0.0
 20
0.0
 30
0.0
 70
   128
 71
    84
 72
   154
 73
    83
  0
VERTEX
  5
558
  8
0
 62
     9
 10
0.0
 20
0.0
 30
0.0
 70
   128
 71
    71
 72
    86
 73
   166
  0
VERTEX
  5
559
  8
0
 62
     9
 10
0.0
 20
0.0
 30
0.0
 70
   128
 71
    79
 72
   154
 73
    78
  0
VERTEX
  5
55A
  8
0
 62
     9
 10
0.0
 20
0.0
 30
0.0
 70
   128
 71
   154
 72
    79
 73
    83
  0
VERTEX
  5
55B
  8
0
 62
     9
 10
0.0
 20
0.0
 30
0.0
 70
   128
 71
   155
 72
   153
 73
    74
  0
VERTEX
  5
55C
  8
0
 62
     9
 10
0.0
 20
0.0
 30
0.0
 70
   128
 71
   155
 72
    74
 73
    78
  0
VERTEX
  5
55D
  8
0
 62
     9
 10
0.0
 20
0.0
 30
0.0
 70
   128
 71
   153
 72
   152
 73
    77
  0
VERTEX
  5
55E
  8
0
 62
     9
 10
0.0
 20
0.0
 30
0.0
 70
   128
 71
   153
 72
    77
 73
    73
  0
VERTEX
  5
55F
  8
0
 62
     9
 10
0.0
 20
0.0
 30
0.0
 70
   128
 71
   152
 72
   166
 73
    86
  0
VERTEX
  5
560
  8
0
 62
     9
 10
0.0
 20
0.0
 30
0.0
 70
   128
 71
   152
 72
    86
 73
    70
  0
VERTEX
  5
561
  8
0
 62
     9
 10
0.0
 20
0.0
 30
0.0
 70
   128
 71
   166
 72
   165
 73
   167
  0
VERTEX
  5
562
  8
0
 62
     9
 10
0.0
 20
0.0
 30
0.0
 70
   128
 71
   166
 72
   167
 73
    71
  0
VERTEX
  5
563
  8
0
 62
     9
 10
0.0
 20
0.0
 30
0.0
 70
   128
 71
   168
 72
   165
 73
   163
  0
VERTEX
  5
564
  8
0
 62
     9
 10
0.0
 20
0.0
 30
0.0
 70
   128
 71
   165
 72
   168
 73
   167
  0
VERTEX
  5
565
  8
0
 62
     9
 10
0.0
 20
0.0
 30
0.0
 70
   128
 71
   164
 72
   160
 73
   161
  0
VERTEX
  5
566
  8
0
 62
     9
 10
0.0
 20
0.0
 30
0.0
 70
   128
 71
   164
 72
   161
 73
   163
  0
VERTEX
  5
567
  8
0
 62
     9
 10
0.0
 20
0.0
 30
0.0
 70
   128
 71
   160
 72
   159
 73
   162
  0
VERTEX
  5
568
  8
0
 62
     9
 10
0.0
 20
0.0
 30
0.0
 70
   128
 71
   156
 72
    84
 73
   158
  0
VERTEX
  5
569
  8
0
 62
     9
 10
0.0
 20
0.0
 30
0.0
 70
   128
 71
   156
 72
   157
 73
   159
  0
VERTEX
  5
56A
  8
0
 62
     9
 10
0.0
 20
0.0
 30
0.0
 70
   128
 71
   159
 72
    10
 73
     6
  0
VERTEX
  5
56B
  8
0
 62
     9
 10
0.0
 20
0.0
 30
0.0
 70
   128
 71
   159
 72
     6
 73
   162
  0
VERTEX
  5
56C
  8
0
 62
     9
 10
0.0
 20
0.0
 30
0.0
 70
   128
 71
    10
 72
   159
 73
   157
  0
VERTEX
  5
56D
  8
0
 62
     9
 10
0.0
 20
0.0
 30
0.0
 70
   128
 71
     7
 72
     1
 73
   161
  0
VERTEX
  5
56E
  8
0
 62
     9
 10
0.0
 20
0.0
 30
0.0
 70
   128
 71
     7
 72
   161
 73
   162
  0
VERTEX
  5
56F
  8
0
 62
     9
 10
0.0
 20
0.0
 30
0.0
 70
   128
 71
     1
 72
     2
 73
   163
  0
VERTEX
  5
570
  8
0
 62
     9
 10
0.0
 20
0.0
 30
0.0
 70
   128
 71
    20
 72
    71
 73
    18
  0
VERTEX
  5
571
  8
0
 62
     9
 10
0.0
 20
0.0
 30
0.0
 70
   128
 71
    16
 72
   167
 73
   168
  0
VERTEX
  5
572
  8
0
 62
     9
 10
0.0
 20
0.0
 30
0.0
 70
   128
 71
    18
 72
   167
 73
    16
  0
VERTEX
  5
573
  8
0
 62
     9
 10
0.0
 20
0.0
 30
0.0
 70
   128
 71
   167
 72
    18
 73
    71
  0
VERTEX
  5
574
  8
0
 62
     9
 10
0.0
 20
0.0
 30
0.0
 70
   128
 71
    16
 72
   168
 73
     2
  0
VERTEX
  5
575
  8
0
 62
     9
 10
0.0
 20
0.0
 30
0.0
 70
   128
 71
   161
 72
     1
 73
   163
  0
VERTEX
  5
576
  8
0
 62
     9
 10
0.0
 20
0.0
 30
0.0
 70
   128
 71
   163
 72
     2
 73
   168
  0
VERTEX
  5
577
  8
0
 62
     9
 10
0.0
 20
0.0
 30
0.0
 70
   128
 71
     7
 72
   162
 73
     6
  0
VERTEX
  5
578
  8
0
 62
     9
 10
0.0
 20
0.0
 30
0.0
 70
   128
 71
   158
 72
     8
 73
   157
  0
VERTEX
  5
579
  8
0
 62
     9
 10
0.0
 20
0.0
 30
0.0
 70
   128
 71
     8
 72
    10
 73
   157
  0
VERTEX
  5
57A
  8
0
 62
     9
 10
0.0
 20
0.0
 30
0.0
 70
   128
 71
   158
 72
    84
 73
    11
  0
VERTEX
  5
57B
  8
0
 62
     9
 10
0.0
 20
0.0
 30
0.0
 70
   128
 71
    11
 72
     8
 73
   158
  0
VERTEX
  5
57C
  8
0
 62
     9
 10
0.0
 20
0.0
 30
0.0
 70
   128
 71
    84
 72
    13
 73
    11
  0
VERTEX
  5
57D
  8
0
 62
    74
 10
0.0
 20
0.0
 30
0.0
 70
   128
 71
   171
 72
   170
 73
   169
  0
VERTEX
  5
57E
  8
0
 62
    74
 10
0.0
 20
0.0
 30
0.0
 70
   128
 71
   174
 72
   173
 73
   172
  0
VERTEX
  5
57F
  8
0
 62
    74
 10
0.0
 20
0.0
 30
0.0
 70
   128
 71
    22
 72
    21
 73
    39
  0
VERTEX
  5
580
  8
0
 62
    74
 10
0.0
 20
0.0
 30
0.0
 70
   128
 71
    22
 72
   170
 73
   175
  0
VERTEX
  5
581
  8
0
 62
    74
 10
0.0
 20
0.0
 30
0.0
 70
   128
 71
   170
 72
   171
 73
   175
  0
VERTEX
  5
582
  8
0
 62
    74
 10
0.0
 20
0.0
 30
0.0
 70
   128
 71
   178
 72
   177
 73
   176
  0
VERTEX
  5
583
  8
0
 62
    74
 10
0.0
 20
0.0
 30
0.0
 70
   128
 71
   178
 72
   176
 73
   179
  0
VERTEX
  5
584
  8
0
 62
    74
 10
0.0
 20
0.0
 30
0.0
 70
   128
 71
   182
 72
   181
 73
   180
  0
VERTEX
  5
585
  8
0
 62
    74
 10
0.0
 20
0.0
 30
0.0
 70
   128
 71
   179
 72
   181
 73
   182
  0
VERTEX
  5
586
  8
0
 62
    74
 10
0.0
 20
0.0
 30
0.0
 70
   128
 71
   173
 72
   183
 73
   172
  0
VERTEX
  5
587
  8
0
 62
    74
 10
0.0
 20
0.0
 30
0.0
 70
   128
 71
   185
 72
   184
 73
   183
  0
VERTEX
  5
588
  8
0
 62
    74
 10
0.0
 20
0.0
 30
0.0
 70
   128
 71
   146
 72
   174
 73
   172
  0
VERTEX
  5
589
  8
0
 62
    74
 10
0.0
 20
0.0
 30
0.0
 70
   128
 71
   174
 72
   149
 73
    54
  0
VERTEX
  5
58A
  8
0
 62
    74
 10
0.0
 20
0.0
 30
0.0
 70
   128
 71
    51
 72
    56
 73
   186
  0
VERTEX
  5
58B
  8
0
 62
    74
 10
0.0
 20
0.0
 30
0.0
 70
   128
 71
   186
 72
   173
 73
    51
  0
VERTEX
  5
58C
  8
0
 62
    74
 10
0.0
 20
0.0
 30
0.0
 70
   128
 71
   173
 72
   187
 73
   183
  0
VERTEX
  5
58D
  8
0
 62
    74
 10
0.0
 20
0.0
 30
0.0
 70
   128
 71
    55
 72
    54
 73
   149
  0
VERTEX
  5
58E
  8
0
 62
    74
 10
0.0
 20
0.0
 30
0.0
 70
   128
 71
   184
 72
   188
 73
   180
  0
VERTEX
  5
58F
  8
0
 62
    74
 10
0.0
 20
0.0
 30
0.0
 70
   128
 71
   185
 72
   188
 73
   184
  0
VERTEX
  5
590
  8
0
 62
    74
 10
0.0
 20
0.0
 30
0.0
 70
   128
 71
    39
 72
    40
 73
   170
  0
VERTEX
  5
591
  8
0
 62
    74
 10
0.0
 20
0.0
 30
0.0
 70
   128
 71
   189
 72
   179
 73
   176
  0
VERTEX
  5
592
  8
0
 62
    74
 10
0.0
 20
0.0
 30
0.0
 70
   128
 71
   181
 72
   184
 73
   180
  0
VERTEX
  5
593
  8
0
 62
    74
 10
0.0
 20
0.0
 30
0.0
 70
   128
 71
   178
 72
   179
 73
   182
  0
VERTEX
  5
594
  8
0
 62
    74
 10
0.0
 20
0.0
 30
0.0
 70
   128
 71
   169
 72
   177
 73
   171
  0
VERTEX
  5
595
  8
0
 62
    74
 10
0.0
 20
0.0
 30
0.0
 70
   128
 71
   177
 72
   169
 73
   176
  0
VERTEX
  5
596
  8
0
 62
    74
 10
0.0
 20
0.0
 30
0.0
 70
   128
 71
   113
 72
    40
 73
    42
  0
VERTEX
  5
597
  8
0
 62
    74
 10
0.0
 20
0.0
 30
0.0
 70
   128
 71
    40
 72
   113
 73
   190
  0
VERTEX
  5
598
  8
0
 62
    74
 10
0.0
 20
0.0
 30
0.0
 70
   128
 71
   187
 72
   173
 73
   186
  0
VERTEX
  5
599
  8
0
 62
    74
 10
0.0
 20
0.0
 30
0.0
 70
   128
 71
    54
 72
    51
 73
   174
  0
VERTEX
  5
59A
  8
0
 62
    74
 10
0.0
 20
0.0
 30
0.0
 70
   128
 71
   191
 72
   183
 73
   184
  0
VERTEX
  5
59B
  8
0
 62
    74
 10
0.0
 20
0.0
 30
0.0
 70
   128
 71
   185
 72
   183
 73
   187
  0
VERTEX
  5
59C
  8
0
 62
    74
 10
0.0
 20
0.0
 30
0.0
 70
   128
 71
   191
 72
   172
 73
   183
  0
VERTEX
  5
59D
  8
0
 62
    74
 10
0.0
 20
0.0
 30
0.0
 70
   128
 71
   192
 72
   184
 73
   181
  0
VERTEX
  5
59E
  8
0
 62
    74
 10
0.0
 20
0.0
 30
0.0
 70
   128
 71
   192
 72
   191
 73
   184
  0
VERTEX
  5
59F
  8
0
 62
    74
 10
0.0
 20
0.0
 30
0.0
 70
   128
 71
   181
 72
   179
 73
   193
  0
VERTEX
  5
5A0
  8
0
 62
    74
 10
0.0
 20
0.0
 30
0.0
 70
   128
 71
   181
 72
   193
 73
   192
  0
VERTEX
  5
5A1
  8
0
 62
    74
 10
0.0
 20
0.0
 30
0.0
 70
   128
 71
   140
 72
   189
 73
   194
  0
VERTEX
  5
5A2
  8
0
 62
    74
 10
0.0
 20
0.0
 30
0.0
 70
   128
 71
   189
 72
   193
 73
   179
  0
VERTEX
  5
5A3
  8
0
 62
    74
 10
0.0
 20
0.0
 30
0.0
 70
   128
 71
   194
 72
   176
 73
   169
  0
VERTEX
  5
5A4
  8
0
 62
    74
 10
0.0
 20
0.0
 30
0.0
 70
   128
 71
   194
 72
   189
 73
   176
  0
VERTEX
  5
5A5
  8
0
 62
    74
 10
0.0
 20
0.0
 30
0.0
 70
   128
 71
   169
 72
   170
 73
   190
  0
VERTEX
  5
5A6
  8
0
 62
    74
 10
0.0
 20
0.0
 30
0.0
 70
   128
 71
   169
 72
   190
 73
   194
  0
VERTEX
  5
5A7
  8
0
 62
    74
 10
0.0
 20
0.0
 30
0.0
 70
   128
 71
    39
 72
   170
 73
    22
  0
VERTEX
  5
5A8
  8
0
 62
    74
 10
0.0
 20
0.0
 30
0.0
 70
   128
 71
    51
 72
   173
 73
   174
  0
VERTEX
  5
5A9
  8
0
 62
    74
 10
0.0
 20
0.0
 30
0.0
 70
   128
 71
   174
 72
   146
 73
   149
  0
VERTEX
  5
5AA
  8
0
 62
    74
 10
0.0
 20
0.0
 30
0.0
 70
   128
 71
   172
 72
   145
 73
   146
  0
VERTEX
  5
5AB
  8
0
 62
    74
 10
0.0
 20
0.0
 30
0.0
 70
   128
 71
   191
 72
   148
 73
   145
  0
VERTEX
  5
5AC
  8
0
 62
    74
 10
0.0
 20
0.0
 30
0.0
 70
   128
 71
   172
 72
   191
 73
   145
  0
VERTEX
  5
5AD
  8
0
 62
    74
 10
0.0
 20
0.0
 30
0.0
 70
   128
 71
   192
 72
   141
 73
   148
  0
VERTEX
  5
5AE
  8
0
 62
    74
 10
0.0
 20
0.0
 30
0.0
 70
   128
 71
   191
 72
   192
 73
   148
  0
VERTEX
  5
5AF
  8
0
 62
    74
 10
0.0
 20
0.0
 30
0.0
 70
   128
 71
   193
 72
   143
 73
   141
  0
VERTEX
  5
5B0
  8
0
 62
    74
 10
0.0
 20
0.0
 30
0.0
 70
   128
 71
   192
 72
   193
 73
   141
  0
VERTEX
  5
5B1
  8
0
 62
    74
 10
0.0
 20
0.0
 30
0.0
 70
   128
 71
   143
 72
   193
 73
   139
  0
VERTEX
  5
5B2
  8
0
 62
    74
 10
0.0
 20
0.0
 30
0.0
 70
   128
 71
   189
 72
   139
 73
   193
  0
VERTEX
  5
5B3
  8
0
 62
    74
 10
0.0
 20
0.0
 30
0.0
 70
   128
 71
   139
 72
   189
 73
   140
  0
VERTEX
  5
5B4
  8
0
 62
    74
 10
0.0
 20
0.0
 30
0.0
 70
   128
 71
   194
 72
   142
 73
   140
  0
VERTEX
  5
5B5
  8
0
 62
    74
 10
0.0
 20
0.0
 30
0.0
 70
   128
 71
   142
 72
   190
 73
   113
  0
VERTEX
  5
5B6
  8
0
 62
    74
 10
0.0
 20
0.0
 30
0.0
 70
   128
 71
   194
 72
   190
 73
   142
  0
VERTEX
  5
5B7
  8
0
 62
    74
 10
0.0
 20
0.0
 30
0.0
 70
   128
 71
   190
 72
   170
 73
    40
  0
VERTEX
  5
5B8
  8
0
 62
    74
 10
0.0
 20
0.0
 30
0.0
 70
   128
 71
    72
 72
    22
 73
   175
  0
VERTEX
  5
5B9
  8
0
 62
    74
 10
0.0
 20
0.0
 30
0.0
 70
   128
 71
   196
 72
   185
 73
   195
  0
VERTEX
  5
5BA
  8
0
 62
    74
 10
0.0
 20
0.0
 30
0.0
 70
   128
 71
   196
 72
   188
 73
   185
  0
VERTEX
  5
5BB
  8
0
 62
    74
 10
0.0
 20
0.0
 30
0.0
 70
   128
 71
   186
 72
   195
 73
   187
  0
VERTEX
  5
5BC
  8
0
 62
    74
 10
0.0
 20
0.0
 30
0.0
 70
   128
 71
   195
 72
   185
 73
   187
  0
VERTEX
  5
5BD
  8
0
 62
    74
 10
0.0
 20
0.0
 30
0.0
 70
   128
 71
    33
 72
   197
 73
    56
  0
VERTEX
  5
5BE
  8
0
 62
    74
 10
0.0
 20
0.0
 30
0.0
 70
   128
 71
    33
 72
    56
 73
    34
  0
VERTEX
  5
5BF
  8
0
 62
    74
 10
0.0
 20
0.0
 30
0.0
 70
   128
 71
   195
 72
   186
 73
   197
  0
VERTEX
  5
5C0
  8
0
 62
    74
 10
0.0
 20
0.0
 30
0.0
 70
   128
 71
    56
 72
   197
 73
   186
  0
VERTEX
  5
5C1
  8
0
 62
    74
 10
0.0
 20
0.0
 30
0.0
 70
   128
 71
   196
 72
   198
 73
   188
  0
VERTEX
  5
5C2
  8
0
 62
    74
 10
0.0
 20
0.0
 30
0.0
 70
   128
 71
   199
 72
   180
 73
   198
  0
VERTEX
  5
5C3
  8
0
 62
    74
 10
0.0
 20
0.0
 30
0.0
 70
   128
 71
   188
 72
   198
 73
   180
  0
VERTEX
  5
5C4
  8
0
 62
    74
 10
0.0
 20
0.0
 30
0.0
 70
   128
 71
   178
 72
   182
 73
   199
  0
VERTEX
  5
5C5
  8
0
 62
    74
 10
0.0
 20
0.0
 30
0.0
 70
   128
 71
   199
 72
   182
 73
   180
  0
VERTEX
  5
5C6
  8
0
 62
    74
 10
0.0
 20
0.0
 30
0.0
 70
   128
 71
    76
 72
   177
 73
    75
  0
VERTEX
  5
5C7
  8
0
 62
    74
 10
0.0
 20
0.0
 30
0.0
 70
   128
 71
   200
 72
   178
 73
   199
  0
VERTEX
  5
5C8
  8
0
 62
    74
 10
0.0
 20
0.0
 30
0.0
 70
   128
 71
   171
 72
    68
 73
    69
  0
VERTEX
  5
5C9
  8
0
 62
    74
 10
0.0
 20
0.0
 30
0.0
 70
   128
 71
   171
 72
   177
 73
    68
  0
VERTEX
  5
5CA
  8
0
 62
    74
 10
0.0
 20
0.0
 30
0.0
 70
   128
 71
    69
 72
    72
 73
   175
  0
VERTEX
  5
5CB
  8
0
 62
    74
 10
0.0
 20
0.0
 30
0.0
 70
   128
 71
   171
 72
    69
 73
   175
  0
VERTEX
  5
5CC
  8
0
 62
    74
 10
0.0
 20
0.0
 30
0.0
 70
   128
 71
    13
 72
    82
 73
    12
  0
VERTEX
  5
5CD
  8
0
 62
    74
 10
0.0
 20
0.0
 30
0.0
 70
   128
 71
    20
 72
    22
 73
    72
  0
VERTEX
  5
5CE
  8
0
 62
    74
 10
0.0
 20
0.0
 30
0.0
 70
   128
 71
    82
 72
    85
 73
   201
  0
VERTEX
  5
5CF
  8
0
 62
    74
 10
0.0
 20
0.0
 30
0.0
 70
   128
 71
    85
 72
    80
 73
   202
  0
VERTEX
  5
5D0
  8
0
 62
    74
 10
0.0
 20
0.0
 30
0.0
 70
   128
 71
    81
 72
   202
 73
    80
  0
VERTEX
  5
5D1
  8
0
 62
    74
 10
0.0
 20
0.0
 30
0.0
 70
   128
 71
    75
 72
   200
 73
    81
  0
VERTEX
  5
5D2
  8
0
 62
    74
 10
0.0
 20
0.0
 30
0.0
 70
   128
 71
   178
 72
    75
 73
   177
  0
VERTEX
  5
5D3
  8
0
 62
    74
 10
0.0
 20
0.0
 30
0.0
 70
   128
 71
    76
 72
    68
 73
   177
  0
VERTEX
  5
5D4
  8
0
 62
    74
 10
0.0
 20
0.0
 30
0.0
 70
   128
 71
    75
 72
   178
 73
   200
  0
VERTEX
  5
5D5
  8
0
 62
    74
 10
0.0
 20
0.0
 30
0.0
 70
   128
 71
   202
 72
    81
 73
   200
  0
VERTEX
  5
5D6
  8
0
 62
    74
 10
0.0
 20
0.0
 30
0.0
 70
   128
 71
    85
 72
   202
 73
   201
  0
VERTEX
  5
5D7
  8
0
 62
    74
 10
0.0
 20
0.0
 30
0.0
 70
   128
 71
    82
 72
   201
 73
    12
  0
VERTEX
  5
5D8
  8
0
 62
    74
 10
0.0
 20
0.0
 30
0.0
 70
   128
 71
    25
 72
   204
 73
   203
  0
VERTEX
  5
5D9
  8
0
 62
    74
 10
0.0
 20
0.0
 30
0.0
 70
   128
 71
    19
 72
   206
 73
   205
  0
VERTEX
  5
5DA
  8
0
 62
    74
 10
0.0
 20
0.0
 30
0.0
 70
   128
 71
   205
 72
   204
 73
    24
  0
VERTEX
  5
5DB
  8
0
 62
    74
 10
0.0
 20
0.0
 30
0.0
 70
   128
 71
   207
 72
   202
 73
   200
  0
VERTEX
  5
5DC
  8
0
 62
    74
 10
0.0
 20
0.0
 30
0.0
 70
   128
 71
     4
 72
   206
 73
    19
  0
VERTEX
  5
5DD
  8
0
 62
    74
 10
0.0
 20
0.0
 30
0.0
 70
   128
 71
    12
 72
   201
 73
     9
  0
VERTEX
  5
5DE
  8
0
 62
    74
 10
0.0
 20
0.0
 30
0.0
 70
   128
 71
   201
 72
   207
 73
     9
  0
VERTEX
  5
5DF
  8
0
 62
    74
 10
0.0
 20
0.0
 30
0.0
 70
   128
 71
   201
 72
   202
 73
   207
  0
VERTEX
  5
5E0
  8
0
 62
    74
 10
0.0
 20
0.0
 30
0.0
 70
   128
 71
   207
 72
   206
 73
     4
  0
VERTEX
  5
5E1
  8
0
 62
    74
 10
0.0
 20
0.0
 30
0.0
 70
   128
 71
     5
 72
   207
 73
     4
  0
VERTEX
  5
5E2
  8
0
 62
    74
 10
0.0
 20
0.0
 30
0.0
 70
   128
 71
    24
 72
    19
 73
   205
  0
VERTEX
  5
5E3
  8
0
 62
    74
 10
0.0
 20
0.0
 30
0.0
 70
   128
 71
    30
 72
    25
 73
   203
  0
VERTEX
  5
5E4
  8
0
 62
    74
 10
0.0
 20
0.0
 30
0.0
 70
   128
 71
    24
 72
   204
 73
    25
  0
VERTEX
  5
5E5
  8
0
 62
    74
 10
0.0
 20
0.0
 30
0.0
 70
   128
 71
   203
 72
    31
 73
    30
  0
VERTEX
  5
5E6
  8
0
 62
    74
 10
0.0
 20
0.0
 30
0.0
 70
   128
 71
    31
 72
   197
 73
    33
  0
VERTEX
  5
5E7
  8
0
 62
    74
 10
0.0
 20
0.0
 30
0.0
 70
   128
 71
    31
 72
   203
 73
   197
  0
VERTEX
  5
5E8
  8
0
 62
    74
 10
0.0
 20
0.0
 30
0.0
 70
   128
 71
   200
 72
   206
 73
   207
  0
VERTEX
  5
5E9
  8
0
 62
    74
 10
0.0
 20
0.0
 30
0.0
 70
   128
 71
     5
 72
     9
 73
   207
  0
VERTEX
  5
5EA
  8
0
 62
    74
 10
0.0
 20
0.0
 30
0.0
 70
   128
 71
   199
 72
   206
 73
   200
  0
VERTEX
  5
5EB
  8
0
 62
    74
 10
0.0
 20
0.0
 30
0.0
 70
   128
 71
   198
 72
   205
 73
   199
  0
VERTEX
  5
5EC
  8
0
 62
    74
 10
0.0
 20
0.0
 30
0.0
 70
   128
 71
   205
 72
   206
 73
   199
  0
VERTEX
  5
5ED
  8
0
 62
    74
 10
0.0
 20
0.0
 30
0.0
 70
   128
 71
   196
 72
   204
 73
   198
  0
VERTEX
  5
5EE
  8
0
 62
    74
 10
0.0
 20
0.0
 30
0.0
 70
   128
 71
   204
 72
   205
 73
   198
  0
VERTEX
  5
5EF
  8
0
 62
    74
 10
0.0
 20
0.0
 30
0.0
 70
   128
 71
   196
 72
   195
 73
   203
  0
VERTEX
  5
5F0
  8
0
 62
    74
 10
0.0
 20
0.0
 30
0.0
 70
   128
 71
   203
 72
   204
 73
   196
  0
VERTEX
  5
5F1
  8
0
 62
    74
 10
0.0
 20
0.0
 30
0.0
 70
   128
 71
   195
 72
   197
 73
   203
  0
SEQEND
  5
5F2
  8
0
  0
ENDBLK
  5
5F5
  8
0
  0
BLOCK
  8
0
  2
41
 70
     0
 10
0.0
 20
0.0
 30
0.0
  3
41
  1

  0
POLYLINE
  5
5F7
  8
0
 62
     9
 66
     1
 10
0.0
 20
0.0
 30
0.0
 70
    64
 71
    41
 72
    59
  0
VERTEX
  5
5F8
  8
0
 10
86.52487182617188
 20
-6.861394882202148
 30
78.31046295166016
 70
   192
  0
VERTEX
  5
5F9
  8
0
 10
92.40471649169922
 20
-6.846001625061035
 30
62.35952377319336
 70
   192
  0
VERTEX
  5
5FA
  8
0
 10
88.96719360351562
 20
-9.375127792358398
 30
79.19938659667969
 70
   192
  0
VERTEX
  5
5FB
  8
0
 10
101.1451416015625
 20
-11.57499980926514
 30
65.54077911376953
 70
   192
  0
VERTEX
  5
5FC
  8
0
 10
104.5768661499023
 20
-10.97127628326416
 30
66.78982543945312
 70
   192
  0
VERTEX
  5
5FD
  8
0
 10
98.72435760498047
 20
-10.96900272369385
 30
82.7507095336914
 70
   192
  0
VERTEX
  5
5FE
  8
0
 10
84.951416015625
 20
-3.613463163375854
 30
77.7377700805664
 70
   192
  0
VERTEX
  5
5FF
  8
0
 10
90.83551025390625
 20
-3.651969432830811
 30
61.78837966918945
 70
   192
  0
VERTEX
  5
600
  8
0
 10
90.26819610595703
 20
-0.0000000000000074
 30
61.58189392089844
 70
   192
  0
VERTEX
  5
601
  8
0
 10
84.453857421875
 20
-0.0000000000000071
 30
77.55667114257812
 70
   192
  0
VERTEX
  5
602
  8
0
 10
94.79993438720703
 20
-9.394943237304688
 30
63.2313117980957
 70
   192
  0
VERTEX
  5
603
  8
0
 10
91.95529174804688
 20
-10.96813488006592
 30
80.28697204589844
 70
   192
  0
VERTEX
  5
604
  8
0
 10
97.88616180419922
 20
-11.01824378967285
 30
64.35460662841797
 70
   192
  0
VERTEX
  5
605
  8
0
 10
95.33079528808594
 20
-11.57499980926514
 30
81.51555633544922
 70
   192
  0
VERTEX
  5
606
  8
0
 10
107.5782775878906
 20
-9.301366806030273
 30
67.88224792480469
 70
   192
  0
VERTEX
  5
607
  8
0
 10
101.7434616088867
 20
-9.278581619262695
 30
83.84957122802734
 70
   192
  0
VERTEX
  5
608
  8
0
 10
111.4547653198242
 20
-3.651969432830811
 30
69.29317474365234
 70
   192
  0
VERTEX
  5
609
  8
0
 10
106.2077407836914
 20
-0.0000000000000057
 30
85.47443389892578
 70
   192
  0
VERTEX
  5
60A
  8
0
 10
105.6419830322266
 20
-3.56560230255127
 30
85.26851654052734
 70
   192
  0
VERTEX
  5
60B
  8
0
 10
104.1224212646484
 20
-6.708389759063721
 30
84.71543884277344
 70
   192
  0
VERTEX
  5
60C
  8
0
 10
109.9734954833984
 20
-6.752425193786621
 30
68.75403594970703
 70
   192
  0
VERTEX
  5
60D
  8
0
 10
112.0220794677734
 20
-0.000000000000006
 30
69.49966430664062
 70
   192
  0
VERTEX
  5
60E
  8
0
 10
84.92876434326172
 20
3.258928298950195
 30
77.72952270507812
 70
   192
  0
VERTEX
  5
60F
  8
0
 10
97.71340942382812
 20
10.97127628326416
 30
64.29173278808594
 70
   192
  0
VERTEX
  5
610
  8
0
 10
94.71199798583984
 20
9.301366806030273
 30
63.19930648803711
 70
   192
  0
VERTEX
  5
611
  8
0
 10
90.79051971435547
 20
10.47491455078125
 30
79.86302947998047
 70
   192
  0
VERTEX
  5
612
  8
0
 10
88.20716857910156
 20
8.671011924743652
 30
78.92276763916016
 70
   192
  0
VERTEX
  5
613
  8
0
 10
92.31678009033203
 20
6.752425193786621
 30
62.32751846313477
 70
   192
  0
VERTEX
  5
614
  8
0
 10
86.19194793701172
 20
6.168422698974609
 30
78.18928527832031
 70
   192
  0
VERTEX
  5
615
  8
0
 10
104.4041137695312
 20
11.01824378967285
 30
66.7269515991211
 70
   192
  0
VERTEX
  5
616
  8
0
 10
96.8445053100586
 20
11.45862483978271
 30
82.06649780273438
 70
   192
  0
VERTEX
  5
617
  8
0
 10
99.8360824584961
 20
10.51723003387451
 30
83.15534210205078
 70
   192
  0
VERTEX
  5
618
  8
0
 10
93.73473358154297
 20
11.42773056030273
 30
80.93463134765625
 70
   192
  0
VERTEX
  5
619
  8
0
 10
101.1451416015625
 20
11.57499980926514
 30
65.54077911376953
 70
   192
  0
VERTEX
  5
61A
  8
0
 10
109.8855667114258
 20
6.846001625061035
 30
68.72203063964844
 70
   192
  0
VERTEX
  5
61B
  8
0
 10
102.4415588378906
 20
8.77427864074707
 30
84.1036605834961
 70
   192
  0
VERTEX
  5
61C
  8
0
 10
104.4881210327148
 20
6.317781448364258
 30
84.84854888916016
 70
   192
  0
VERTEX
  5
61D
  8
0
 10
107.4903411865234
 20
9.394943237304688
 30
67.8502426147461
 70
   192
  0
VERTEX
  5
61E
  8
0
 10
105.797737121582
 20
3.303144693374634
 30
85.32521057128906
 70
   192
  0
VERTEX
  5
61F
  8
0
 10
111.4547653198242
 20
3.651969432830811
 30
69.29317474365234
 70
   192
  0
VERTEX
  5
620
  8
0
 10
90.83551025390625
 20
3.651969432830811
 30
61.78837966918945
 70
   192
  0
VERTEX
  5
621
  8
0
 62
     9
 10
0.0
 20
0.0
 30
0.0
 70
   128
 71
     3
 72
     2
 73
     1
  0
VERTEX
  5
622
  8
0
 62
     9
 10
0.0
 20
0.0
 30
0.0
 70
   128
 71
     6
 72
     5
 73
     4
  0
VERTEX
  5
623
  8
0
 62
     9
 10
0.0
 20
0.0
 30
0.0
 70
   128
 71
     8
 72
     7
 73
     1
  0
VERTEX
  5
624
  8
0
 62
     9
 10
0.0
 20
0.0
 30
0.0
 70
   128
 71
     1
 72
     2
 73
     8
  0
VERTEX
  5
625
  8
0
 62
     9
 10
0.0
 20
0.0
 30
0.0
 70
   128
 71
     8
 72
     9
 73
     7
  0
VERTEX
  5
626
  8
0
 62
     9
 10
0.0
 20
0.0
 30
0.0
 70
   128
 71
     9
 72
    10
 73
     7
  0
VERTEX
  5
627
  8
0
 62
     9
 10
0.0
 20
0.0
 30
0.0
 70
   128
 71
    11
 72
     2
 73
     3
  0
VERTEX
  5
628
  8
0
 62
     9
 10
0.0
 20
0.0
 30
0.0
 70
   128
 71
    13
 72
    11
 73
    12
  0
VERTEX
  5
629
  8
0
 62
     9
 10
0.0
 20
0.0
 30
0.0
 70
   128
 71
     3
 72
    12
 73
    11
  0
VERTEX
  5
62A
  8
0
 62
     9
 10
0.0
 20
0.0
 30
0.0
 70
   128
 71
     4
 72
    12
 73
    14
  0
VERTEX
  5
62B
  8
0
 62
     9
 10
0.0
 20
0.0
 30
0.0
 70
   128
 71
    12
 72
     4
 73
    13
  0
VERTEX
  5
62C
  8
0
 62
     9
 10
0.0
 20
0.0
 30
0.0
 70
   128
 71
     5
 72
    16
 73
    15
  0
VERTEX
  5
62D
  8
0
 62
     9
 10
0.0
 20
0.0
 30
0.0
 70
   128
 71
    19
 72
    18
 73
    17
  0
VERTEX
  5
62E
  8
0
 62
     9
 10
0.0
 20
0.0
 30
0.0
 70
   128
 71
    21
 72
    20
 73
    19
  0
VERTEX
  5
62F
  8
0
 62
     9
 10
0.0
 20
0.0
 30
0.0
 70
   128
 71
    17
 72
    18
 73
    22
  0
VERTEX
  5
630
  8
0
 62
     9
 10
0.0
 20
0.0
 30
0.0
 70
   128
 71
    20
 72
    21
 73
    15
  0
VERTEX
  5
631
  8
0
 62
     9
 10
0.0
 20
0.0
 30
0.0
 70
   128
 71
    21
 72
    19
 73
    17
  0
VERTEX
  5
632
  8
0
 62
     9
 10
0.0
 20
0.0
 30
0.0
 70
   128
 71
     6
 72
    16
 73
     5
  0
VERTEX
  5
633
  8
0
 62
     9
 10
0.0
 20
0.0
 30
0.0
 70
   128
 71
    16
 72
    20
 73
    15
  0
VERTEX
  5
634
  8
0
 62
     9
 10
0.0
 20
0.0
 30
0.0
 70
   128
 71
    14
 72
     6
 73
     4
  0
VERTEX
  5
635
  8
0
 62
     9
 10
0.0
 20
0.0
 30
0.0
 70
   128
 71
    10
 72
     9
 73
    23
  0
VERTEX
  5
636
  8
0
 62
     9
 10
0.0
 20
0.0
 30
0.0
 70
   128
 71
    26
 72
    25
 73
    24
  0
VERTEX
  5
637
  8
0
 62
     9
 10
0.0
 20
0.0
 30
0.0
 70
   128
 71
    29
 72
    28
 73
    27
  0
VERTEX
  5
638
  8
0
 62
     9
 10
0.0
 20
0.0
 30
0.0
 70
   128
 71
    32
 72
    31
 73
    30
  0
VERTEX
  5
639
  8
0
 62
     9
 10
0.0
 20
0.0
 30
0.0
 70
   128
 71
    34
 72
    31
 73
    33
  0
VERTEX
  5
63A
  8
0
 62
     9
 10
0.0
 20
0.0
 30
0.0
 70
   128
 71
    37
 72
    36
 73
    35
  0
VERTEX
  5
63B
  8
0
 62
     9
 10
0.0
 20
0.0
 30
0.0
 70
   128
 71
    38
 72
    35
 73
    36
  0
VERTEX
  5
63C
  8
0
 62
     9
 10
0.0
 20
0.0
 30
0.0
 70
   128
 71
    37
 72
    40
 73
    39
  0
VERTEX
  5
63D
  8
0
 62
     9
 10
0.0
 20
0.0
 30
0.0
 70
   128
 71
    40
 72
    37
 73
    35
  0
VERTEX
  5
63E
  8
0
 62
     9
 10
0.0
 20
0.0
 30
0.0
 70
   128
 71
    22
 72
    18
 73
    39
  0
VERTEX
  5
63F
  8
0
 62
     9
 10
0.0
 20
0.0
 30
0.0
 70
   128
 71
    39
 72
    40
 73
    22
  0
VERTEX
  5
640
  8
0
 62
     9
 10
0.0
 20
0.0
 30
0.0
 70
   128
 71
    38
 72
    32
 73
    30
  0
VERTEX
  5
641
  8
0
 62
     9
 10
0.0
 20
0.0
 30
0.0
 70
   128
 71
    38
 72
    36
 73
    32
  0
VERTEX
  5
642
  8
0
 62
     9
 10
0.0
 20
0.0
 30
0.0
 70
   128
 71
    24
 72
    34
 73
    33
  0
VERTEX
  5
643
  8
0
 62
     9
 10
0.0
 20
0.0
 30
0.0
 70
   128
 71
    30
 72
    31
 73
    34
  0
VERTEX
  5
644
  8
0
 62
     9
 10
0.0
 20
0.0
 30
0.0
 70
   128
 71
    26
 72
    27
 73
    25
  0
VERTEX
  5
645
  8
0
 62
     9
 10
0.0
 20
0.0
 30
0.0
 70
   128
 71
    33
 72
    26
 73
    24
  0
VERTEX
  5
646
  8
0
 62
     9
 10
0.0
 20
0.0
 30
0.0
 70
   128
 71
    29
 72
    41
 73
    28
  0
VERTEX
  5
647
  8
0
 62
     9
 10
0.0
 20
0.0
 30
0.0
 70
   128
 71
    27
 72
    28
 73
    25
  0
VERTEX
  5
648
  8
0
 62
     9
 10
0.0
 20
0.0
 30
0.0
 70
   128
 71
    41
 72
    23
 73
     9
  0
VERTEX
  5
649
  8
0
 62
     9
 10
0.0
 20
0.0
 30
0.0
 70
   128
 71
    23
 72
    41
 73
    29
  0
VERTEX
  5
64A
  8
0
 62
     9
 10
0.0
 20
0.0
 30
0.0
 70
   128
 71
     2
 72
    11
 73
    13
  0
VERTEX
  5
64B
  8
0
 62
     9
 10
0.0
 20
0.0
 30
0.0
 70
   128
 71
    13
 72
    40
 73
    35
  0
VERTEX
  5
64C
  8
0
 62
     9
 10
0.0
 20
0.0
 30
0.0
 70
   128
 71
    15
 72
    21
 73
    17
  0
VERTEX
  5
64D
  8
0
 62
     9
 10
0.0
 20
0.0
 30
0.0
 70
   128
 71
     5
 72
    15
 73
    13
  0
VERTEX
  5
64E
  8
0
 62
     9
 10
0.0
 20
0.0
 30
0.0
 70
   128
 71
     5
 72
    13
 73
     4
  0
VERTEX
  5
64F
  8
0
 62
     9
 10
0.0
 20
0.0
 30
0.0
 70
   128
 71
    35
 72
    38
 73
    30
  0
VERTEX
  5
650
  8
0
 62
     9
 10
0.0
 20
0.0
 30
0.0
 70
   128
 71
    13
 72
    15
 73
    40
  0
VERTEX
  5
651
  8
0
 62
     9
 10
0.0
 20
0.0
 30
0.0
 70
   128
 71
     8
 72
    25
 73
    41
  0
VERTEX
  5
652
  8
0
 62
     9
 10
0.0
 20
0.0
 30
0.0
 70
   128
 71
     8
 72
    41
 73
     9
  0
VERTEX
  5
653
  8
0
 62
     9
 10
0.0
 20
0.0
 30
0.0
 70
   128
 71
    30
 72
    34
 73
    24
  0
VERTEX
  5
654
  8
0
 62
     9
 10
0.0
 20
0.0
 30
0.0
 70
   128
 71
    25
 72
    28
 73
    41
  0
VERTEX
  5
655
  8
0
 62
     9
 10
0.0
 20
0.0
 30
0.0
 70
   128
 71
    24
 72
    25
 73
    30
  0
VERTEX
  5
656
  8
0
 62
     9
 10
0.0
 20
0.0
 30
0.0
 70
   128
 71
     2
 72
    30
 73
     8
  0
VERTEX
  5
657
  8
0
 62
     9
 10
0.0
 20
0.0
 30
0.0
 70
   128
 71
    30
 72
    25
 73
     8
  0
VERTEX
  5
658
  8
0
 62
     9
 10
0.0
 20
0.0
 30
0.0
 70
   128
 71
    13
 72
    35
 73
     2
  0
VERTEX
  5
659
  8
0
 62
     9
 10
0.0
 20
0.0
 30
0.0
 70
   128
 71
     2
 72
    35
 73
    30
  0
VERTEX
  5
65A
  8
0
 62
     9
 10
0.0
 20
0.0
 30
0.0
 70
   128
 71
    40
 72
    17
 73
    22
  0
VERTEX
  5
65B
  8
0
 62
     9
 10
0.0
 20
0.0
 30
0.0
 70
   128
 71
    40
 72
    15
 73
    17
  0
SEQEND
  5
65C
  8
0
 62
     9
  0
ENDBLK
  5
65F
  8
0
  0
BLOCK
  8
0
  2
42
 70
     0
 10
0.0
 20
0.0
 30
0.0
  3
42
  1

  0
POLYLINE
  5
661
  8
0
 62
     9
 66
     1
 10
0.0
 20
0.0
 30
0.0
 70
    64
 71
   124
 72
   228
  0
VERTEX
  5
662
  8
0
 10
-35.70734024047852
 20
1.970308661460876
 30
72.69013214111328
 70
   192
  0
VERTEX
  5
663
  8
0
 10
-22.33696746826172
 20
1.897366642951965
 30
72.97016906738281
 70
   192
  0
VERTEX
  5
664
  8
0
 10
-22.33696746826172
 20
1.994814038276672
 30
72.34368896484375
 70
   192
  0
VERTEX
  5
665
  8
0
 10
-35.70734024047852
 20
1.732778429985046
 30
73.35596466064453
 70
   192
  0
VERTEX
  5
666
  8
0
 10
-22.33696746826172
 20
1.619890928268433
 30
73.5288314819336
 70
   192
  0
VERTEX
  5
667
  8
0
 10
-22.33696746826172
 20
1.187721610069275
 30
73.97223663330078
 70
   192
  0
VERTEX
  5
668
  8
0
 10
-35.70734024047852
 20
1.295289158821106
 30
73.8747329711914
 70
   192
  0
VERTEX
  5
669
  8
0
 10
-35.70734024047852
 20
0.6952397227287292
 30
74.23094177246094
 70
   192
  0
VERTEX
  5
66A
  8
0
 10
-22.33696746826172
 20
0.6301815509796143
 30
74.2652816772461
 70
   192
  0
VERTEX
  5
66B
  8
0
 10
-35.70734024047852
 20
-0.000000000000001
 30
74.35722351074219
 70
   192
  0
VERTEX
  5
66C
  8
0
 10
-22.33696746826172
 20
-0.000000000000001
 30
74.35722351074219
 70
   192
  0
VERTEX
  5
66D
  8
0
 10
-35.70734024047852
 20
1.962794423103333
 30
71.9948959350586
 70
   192
  0
VERTEX
  5
66E
  8
0
 10
-35.70734024047852
 20
1.732778429985046
 30
71.35848236083984
 70
   192
  0
VERTEX
  5
66F
  8
0
 10
-22.33696746826172
 20
1.890541791915894
 30
71.72980499267578
 70
   192
  0
VERTEX
  5
670
  8
0
 10
-22.33696746826172
 20
1.602118730545044
 30
71.18045043945312
 70
   192
  0
VERTEX
  5
671
  8
0
 10
-35.70734024047852
 20
1.27283251285553
 30
70.81725311279297
 70
   192
  0
VERTEX
  5
672
  8
0
 10
-22.33696746826172
 20
1.154054880142212
 30
70.74076843261719
 70
   192
  0
VERTEX
  5
673
  8
0
 10
-35.70734024047852
 20
0.6952397227287292
 30
70.4834976196289
 70
   192
  0
VERTEX
  5
674
  8
0
 10
-35.70734024047852
 20
-0.0000000000000012
 30
70.35722351074219
 70
   192
  0
VERTEX
  5
675
  8
0
 10
-22.33696746826172
 20
0.6176597476005554
 30
70.4645767211914
 70
   192
  0
VERTEX
  5
676
  8
0
 10
-22.33696746826172
 20
-0.0000000000000012
 30
70.35722351074219
 70
   192
  0
VERTEX
  5
677
  8
0
 10
-19.49666976928711
 20
1.994814038276672
 30
70.28009033203125
 70
   192
  0
VERTEX
  5
678
  8
0
 10
-19.45686721801758
 20
1.919999957084656
 30
71.44973754882812
 70
   192
  0
VERTEX
  5
679
  8
0
 10
-18.90085411071777
 20
1.897366642951965
 30
70.47368621826172
 70
   192
  0
VERTEX
  5
67A
  8
0
 10
-21.28381156921387
 20
0.6176597476005554
 30
69.69940948486328
 70
   192
  0
VERTEX
  5
67B
  8
0
 10
-21.52795028686523
 20
-0.000000000000001
 30
69.94500732421875
 70
   192
  0
VERTEX
  5
67C
  8
0
 10
-21.44048881530762
 20
0.6486486196517944
 30
70.00855255126953
 70
   192
  0
VERTEX
  5
67D
  8
0
 10
-19.88192558288574
 20
1.602118730545044
 30
72.73629760742188
 70
   192
  0
VERTEX
  5
67E
  8
0
 10
-18.73823738098145
 20
1.379310369491577
 30
71.97185516357422
 70
   192
  0
VERTEX
  5
67F
  8
0
 10
-18.36952781677246
 20
1.619890928268433
 30
70.64632415771484
 70
   192
  0
VERTEX
  5
680
  8
0
 10
-17.94783020019531
 20
1.187721610069275
 30
70.78334045410156
 70
   192
  0
VERTEX
  5
681
  8
0
 10
-19.46114349365234
 20
0.6176597476005554
 30
73.3154525756836
 70
   192
  0
VERTEX
  5
682
  8
0
 10
-18.29188346862793
 20
-0.0000000000000012
 30
72.29615020751953
 70
   192
  0
VERTEX
  5
683
  8
0
 10
-18.37934494018555
 20
0.6486486196517944
 30
72.23260498046875
 70
   192
  0
VERTEX
  5
684
  8
0
 10
-17.58168601989746
 20
-0.0000000000000012
 30
70.90230560302734
 70
   192
  0
VERTEX
  5
685
  8
0
 10
-17.66912651062012
 20
0.6301815509796143
 30
70.87389373779297
 70
   192
  0
VERTEX
  5
686
  8
0
 10
-19.39804077148438
 20
-0.0000000000000012
 30
73.40230560302734
 70
   192
  0
VERTEX
  5
687
  8
0
 10
-20.20482444763184
 20
1.890541791915894
 30
72.29186248779297
 70
   192
  0
VERTEX
  5
688
  8
0
 10
-20.5656566619873
 20
1.994814038276672
 30
71.79521942138672
 70
   192
  0
VERTEX
  5
689
  8
0
 10
-20.36296653747559
 20
1.919999957084656
 30
70.79141998291016
 70
   192
  0
VERTEX
  5
68A
  8
0
 10
-21.08159637451172
 20
1.379310369491577
 30
70.26930236816406
 70
   192
  0
VERTEX
  5
68B
  8
0
 10
-21.26226806640625
 20
1.619890928268433
 30
70.83641815185547
 70
   192
  0
VERTEX
  5
68C
  8
0
 10
-20.60297012329102
 20
1.602118730545044
 30
69.9206314086914
 70
   192
  0
VERTEX
  5
68D
  8
0
 10
-20.08050918579102
 20
1.890541791915894
 30
70.09039306640625
 70
   192
  0
VERTEX
  5
68E
  8
0
 10
-20.93389129638672
 20
1.897366642951965
 30
71.28839111328125
 70
   192
  0
VERTEX
  5
68F
  8
0
 10
-21.02113914489746
 20
1.154054880142212
 30
69.78475952148438
 70
   192
  0
VERTEX
  5
690
  8
0
 10
-21.74918174743652
 20
-0.000000000000001
 30
70.1662368774414
 70
   192
  0
VERTEX
  5
691
  8
0
 10
-21.69514083862305
 20
0.6301815509796143
 30
70.2406234741211
 70
   192
  0
VERTEX
  5
692
  8
0
 10
-21.38591194152832
 20
-0.000000000000001
 30
69.6662368774414
 70
   192
  0
VERTEX
  5
693
  8
0
 10
-21.52289199829102
 20
1.187721610069275
 30
70.47769927978516
 70
   192
  0
VERTEX
  5
694
  8
0
 10
-19.62348365783691
 20
1.154054880142212
 30
73.09201049804688
 70
   192
  0
VERTEX
  5
695
  8
0
 10
-21.23686790466309
 20
1.919999957084656
 30
72.74298095703125
 70
   192
  0
VERTEX
  5
696
  8
0
 10
-22.02795028686523
 20
-0.000000000000001
 30
70.30828094482422
 70
   192
  0
VERTEX
  5
697
  8
0
 10
-21.99454307556152
 20
0.6486486196517944
 30
70.41109466552734
 70
   192
  0
VERTEX
  5
698
  8
0
 10
-20.96237564086914
 20
1.379310369491577
 30
73.58778381347656
 70
   192
  0
VERTEX
  5
699
  8
0
 10
-20.79188346862793
 20
-0.0000000000000012
 30
74.11250305175781
 70
   192
  0
VERTEX
  5
69A
  8
0
 10
-20.82529067993164
 20
0.6486486196517944
 30
74.00968933105469
 70
   192
  0
VERTEX
  5
69B
  8
0
 10
-21.58296585083008
 20
1.919999957084656
 30
71.67780303955078
 70
   192
  0
VERTEX
  5
69C
  8
0
 10
-21.85745811462402
 20
1.379310369491577
 30
70.83300018310547
 70
   192
  0
VERTEX
  5
69D
  8
0
 10
-22.33696746826172
 20
-1.187721610069275
 30
73.97223663330078
 70
   192
  0
VERTEX
  5
69E
  8
0
 10
-20.96237564086914
 20
-1.379310369491577
 30
73.58778381347656
 70
   192
  0
VERTEX
  5
69F
  8
0
 10
-20.82529067993164
 20
-0.6486486196517944
 30
74.00968933105469
 70
   192
  0
VERTEX
  5
6A0
  8
0
 10
-19.62348365783691
 20
-1.154054880142212
 30
73.09201049804688
 70
   192
  0
VERTEX
  5
6A1
  8
0
 10
-19.46114349365234
 20
-0.6176597476005554
 30
73.3154525756836
 70
   192
  0
VERTEX
  5
6A2
  8
0
 10
-19.88192558288574
 20
-1.602118730545044
 30
72.73629760742188
 70
   192
  0
VERTEX
  5
6A3
  8
0
 10
-21.23686790466309
 20
-1.919999957084656
 30
72.74298095703125
 70
   192
  0
VERTEX
  5
6A4
  8
0
 10
-22.33696746826172
 20
-0.6301815509796143
 30
74.2652816772461
 70
   192
  0
VERTEX
  5
6A5
  8
0
 10
-21.85745811462402
 20
-1.379310369491577
 30
70.83300018310547
 70
   192
  0
VERTEX
  5
6A6
  8
0
 10
-22.33696746826172
 20
-1.602118730545044
 30
71.18045043945312
 70
   192
  0
VERTEX
  5
6A7
  8
0
 10
-22.33696746826172
 20
-1.154054880142212
 30
70.74076843261719
 70
   192
  0
VERTEX
  5
6A8
  8
0
 10
-20.5656566619873
 20
-1.994814038276672
 30
71.79521942138672
 70
   192
  0
VERTEX
  5
6A9
  8
0
 10
-21.58296585083008
 20
-1.919999957084656
 30
71.67780303955078
 70
   192
  0
VERTEX
  5
6AA
  8
0
 10
-20.93389129638672
 20
-1.897366642951965
 30
71.28839111328125
 70
   192
  0
VERTEX
  5
6AB
  8
0
 10
-21.52289199829102
 20
-1.187721610069275
 30
70.47769927978516
 70
   192
  0
VERTEX
  5
6AC
  8
0
 10
-21.99454307556152
 20
-0.6486486196517944
 30
70.41109466552734
 70
   192
  0
VERTEX
  5
6AD
  8
0
 10
-21.26226806640625
 20
-1.619890928268433
 30
70.83641815185547
 70
   192
  0
VERTEX
  5
6AE
  8
0
 10
-21.69514083862305
 20
-0.6301815509796143
 30
70.2406234741211
 70
   192
  0
VERTEX
  5
6AF
  8
0
 10
-22.33696746826172
 20
-0.6176597476005554
 30
70.4645767211914
 70
   192
  0
VERTEX
  5
6B0
  8
0
 10
-20.20482444763184
 20
-1.890541791915894
 30
72.29186248779297
 70
   192
  0
VERTEX
  5
6B1
  8
0
 10
-22.33696746826172
 20
-1.619890928268433
 30
73.5288314819336
 70
   192
  0
VERTEX
  5
6B2
  8
0
 10
-22.33696746826172
 20
-1.897366642951965
 30
72.97016906738281
 70
   192
  0
VERTEX
  5
6B3
  8
0
 10
-22.33696746826172
 20
-1.994814038276672
 30
72.34368896484375
 70
   192
  0
VERTEX
  5
6B4
  8
0
 10
-22.33696746826172
 20
-1.890541791915894
 30
71.72980499267578
 70
   192
  0
VERTEX
  5
6B5
  8
0
 10
-8.78651237487793
 20
1.953331470489502
 30
38.68141555786133
 70
   192
  0
VERTEX
  5
6B6
  8
0
 10
-9.616799354553223
 20
1.953337430953979
 30
38.68072891235352
 70
   192
  0
VERTEX
  5
6B7
  8
0
 10
-8.129021644592285
 20
1.714043021202087
 30
38.68119812011719
 70
   192
  0
VERTEX
  5
6B8
  8
0
 10
-7.590134620666504
 20
1.266771912574768
 30
38.68107604980469
 70
   192
  0
VERTEX
  5
6B9
  8
0
 10
-7.240418434143066
 20
0.6852930784225464
 30
38.6810302734375
 70
   192
  0
VERTEX
  5
6BA
  8
0
 10
-7.112351894378662
 20
-0.000000000000001
 30
38.68101119995117
 70
   192
  0
VERTEX
  5
6BB
  8
0
 10
-10.30763912200928
 20
1.722243070602417
 30
38.68066024780273
 70
   192
  0
VERTEX
  5
6BC
  8
0
 10
-10.82235145568848
 20
1.283680319786072
 30
38.68097305297852
 70
   192
  0
VERTEX
  5
6BD
  8
0
 10
-11.1901273727417
 20
0.6853089928627014
 30
38.68098831176758
 70
   192
  0
VERTEX
  5
6BE
  8
0
 10
-11.31820106506348
 20
-0.0000000000000012
 30
38.68101119995117
 70
   192
  0
VERTEX
  5
6BF
  8
0
 10
-35.70734024047852
 20
-0.6812723278999329
 30
74.2275161743164
 70
   192
  0
VERTEX
  5
6C0
  8
0
 10
-35.70734024047852
 20
-1.965863585472107
 30
72.71089172363281
 70
   192
  0
VERTEX
  5
6C1
  8
0
 10
-35.70734024047852
 20
-1.262217879295349
 30
73.88937377929688
 70
   192
  0
VERTEX
  5
6C2
  8
0
 10
-35.70734024047852
 20
-1.714284420013428
 30
73.36434936523438
 70
   192
  0
VERTEX
  5
6C3
  8
0
 10
-35.70734024047852
 20
-1.963148713111877
 30
72.01606750488281
 70
   192
  0
VERTEX
  5
6C4
  8
0
 10
-35.70734024047852
 20
-1.296479105949402
 30
70.82917785644531
 70
   192
  0
VERTEX
  5
6C5
  8
0
 10
-35.70734024047852
 20
-1.732755541801453
 30
71.36688995361328
 70
   192
  0
VERTEX
  5
6C6
  8
0
 10
-35.70734024047852
 20
-0.6947285532951355
 30
70.47077178955078
 70
   192
  0
VERTEX
  5
6C7
  8
0
 10
-17.66912651062012
 20
-0.6301815509796143
 30
70.87389373779297
 70
   192
  0
VERTEX
  5
6C8
  8
0
 10
-8.813753128051758
 20
-1.953337430953979
 30
38.68129348754883
 70
   192
  0
VERTEX
  5
6C9
  8
0
 10
-8.122913360595703
 20
-1.722243070602417
 30
38.68136215209961
 70
   192
  0
VERTEX
  5
6CA
  8
0
 10
-18.90085411071777
 20
-1.897366642951965
 30
70.47368621826172
 70
   192
  0
VERTEX
  5
6CB
  8
0
 10
-18.36952781677246
 20
-1.619890928268433
 30
70.64632415771484
 70
   192
  0
VERTEX
  5
6CC
  8
0
 10
-7.608201026916504
 20
-1.283680319786072
 30
38.68104934692383
 70
   192
  0
VERTEX
  5
6CD
  8
0
 10
-17.94783020019531
 20
-1.187721610069275
 30
70.78334045410156
 70
   192
  0
VERTEX
  5
6CE
  8
0
 10
-10.3015308380127
 20
-1.714043021202087
 30
38.68082427978516
 70
   192
  0
VERTEX
  5
6CF
  8
0
 10
-20.08050918579102
 20
-1.890541791915894
 30
70.09039306640625
 70
   192
  0
VERTEX
  5
6D0
  8
0
 10
-20.60297012329102
 20
-1.602118730545044
 30
69.9206314086914
 70
   192
  0
VERTEX
  5
6D1
  8
0
 10
-19.49666976928711
 20
-1.994814038276672
 30
70.28009033203125
 70
   192
  0
VERTEX
  5
6D2
  8
0
 10
-9.64404010772705
 20
-1.953331470489502
 30
38.68060684204102
 70
   192
  0
VERTEX
  5
6D3
  8
0
 10
-11.19013404846191
 20
-0.6852930784225464
 30
38.68099212646484
 70
   192
  0
VERTEX
  5
6D4
  8
0
 10
-10.84041786193848
 20
-1.266771912574768
 30
38.68094635009766
 70
   192
  0
VERTEX
  5
6D5
  8
0
 10
-21.02113914489746
 20
-1.154054880142212
 30
69.78475952148438
 70
   192
  0
VERTEX
  5
6D6
  8
0
 10
-21.28381156921387
 20
-0.6176597476005554
 30
69.69940948486328
 70
   192
  0
VERTEX
  5
6D7
  8
0
 10
-7.240425109863281
 20
-0.6853089928627014
 30
38.68103408813477
 70
   192
  0
VERTEX
  5
6D8
  8
0
 10
-18.73823738098145
 20
-1.379310369491577
 30
71.97185516357422
 70
   192
  0
VERTEX
  5
6D9
  8
0
 10
-18.37934494018555
 20
-0.6486486196517944
 30
72.23260498046875
 70
   192
  0
VERTEX
  5
6DA
  8
0
 10
-19.45686721801758
 20
-1.919999957084656
 30
71.44973754882812
 70
   192
  0
VERTEX
  5
6DB
  8
0
 10
-21.08159637451172
 20
-1.379310369491577
 30
70.26930236816406
 70
   192
  0
VERTEX
  5
6DC
  8
0
 10
-20.36296653747559
 20
-1.919999957084656
 30
70.79141998291016
 70
   192
  0
VERTEX
  5
6DD
  8
0
 10
-21.44048881530762
 20
-0.6486486196517944
 30
70.00855255126953
 70
   192
  0
VERTEX
  5
6DE
  8
0
 62
     9
 10
0.0
 20
0.0
 30
0.0
 70
   128
 71
     3
 72
     2
 73
     1
  0
VERTEX
  5
6DF
  8
0
 62
     9
 10
0.0
 20
0.0
 30
0.0
 70
   128
 71
     5
 72
     4
 73
     2
  0
VERTEX
  5
6E0
  8
0
 62
     9
 10
0.0
 20
0.0
 30
0.0
 70
   128
 71
     1
 72
     2
 73
     4
  0
VERTEX
  5
6E1
  8
0
 62
     9
 10
0.0
 20
0.0
 30
0.0
 70
   128
 71
     7
 72
     5
 73
     6
  0
VERTEX
  5
6E2
  8
0
 62
     9
 10
0.0
 20
0.0
 30
0.0
 70
   128
 71
     5
 72
     7
 73
     4
  0
VERTEX
  5
6E3
  8
0
 62
     9
 10
0.0
 20
0.0
 30
0.0
 70
   128
 71
     6
 72
     9
 73
     8
  0
VERTEX
  5
6E4
  8
0
 62
     9
 10
0.0
 20
0.0
 30
0.0
 70
   128
 71
     8
 72
     7
 73
     6
  0
VERTEX
  5
6E5
  8
0
 62
     9
 10
0.0
 20
0.0
 30
0.0
 70
   128
 71
     8
 72
     9
 73
    10
  0
VERTEX
  5
6E6
  8
0
 62
     9
 10
0.0
 20
0.0
 30
0.0
 70
   128
 71
     9
 72
    11
 73
    10
  0
VERTEX
  5
6E7
  8
0
 62
     9
 10
0.0
 20
0.0
 30
0.0
 70
   128
 71
    12
 72
     3
 73
     1
  0
VERTEX
  5
6E8
  8
0
 62
     9
 10
0.0
 20
0.0
 30
0.0
 70
   128
 71
    14
 72
    12
 73
    13
  0
VERTEX
  5
6E9
  8
0
 62
     9
 10
0.0
 20
0.0
 30
0.0
 70
   128
 71
    12
 72
    14
 73
     3
  0
VERTEX
  5
6EA
  8
0
 62
     9
 10
0.0
 20
0.0
 30
0.0
 70
   128
 71
    13
 72
    16
 73
    15
  0
VERTEX
  5
6EB
  8
0
 62
     9
 10
0.0
 20
0.0
 30
0.0
 70
   128
 71
    15
 72
    14
 73
    13
  0
VERTEX
  5
6EC
  8
0
 62
     9
 10
0.0
 20
0.0
 30
0.0
 70
   128
 71
    18
 72
    17
 73
    16
  0
VERTEX
  5
6ED
  8
0
 62
     9
 10
0.0
 20
0.0
 30
0.0
 70
   128
 71
    15
 72
    16
 73
    17
  0
VERTEX
  5
6EE
  8
0
 62
     9
 10
0.0
 20
0.0
 30
0.0
 70
   128
 71
    20
 72
    18
 73
    19
  0
VERTEX
  5
6EF
  8
0
 62
     9
 10
0.0
 20
0.0
 30
0.0
 70
   128
 71
    18
 72
    20
 73
    17
  0
VERTEX
  5
6F0
  8
0
 62
     9
 10
0.0
 20
0.0
 30
0.0
 70
   128
 71
    21
 72
    20
 73
    19
  0
VERTEX
  5
6F1
  8
0
 62
     9
 10
0.0
 20
0.0
 30
0.0
 70
   128
 71
    24
 72
    23
 73
    22
  0
VERTEX
  5
6F2
  8
0
 62
     9
 10
0.0
 20
0.0
 30
0.0
 70
   128
 71
    27
 72
    26
 73
    25
  0
VERTEX
  5
6F3
  8
0
 62
     9
 10
0.0
 20
0.0
 30
0.0
 70
   128
 71
    29
 72
    28
 73
    23
  0
VERTEX
  5
6F4
  8
0
 62
     9
 10
0.0
 20
0.0
 30
0.0
 70
   128
 71
    30
 72
    23
 73
    24
  0
VERTEX
  5
6F5
  8
0
 62
     9
 10
0.0
 20
0.0
 30
0.0
 70
   128
 71
    30
 72
    31
 73
    29
  0
VERTEX
  5
6F6
  8
0
 62
     9
 10
0.0
 20
0.0
 30
0.0
 70
   128
 71
    29
 72
    23
 73
    30
  0
VERTEX
  5
6F7
  8
0
 62
     9
 10
0.0
 20
0.0
 30
0.0
 70
   128
 71
    34
 72
    33
 73
    32
  0
VERTEX
  5
6F8
  8
0
 62
     9
 10
0.0
 20
0.0
 30
0.0
 70
   128
 71
    29
 72
    31
 73
    34
  0
VERTEX
  5
6F9
  8
0
 62
     9
 10
0.0
 20
0.0
 30
0.0
 70
   128
 71
    34
 72
    35
 73
    33
  0
VERTEX
  5
6FA
  8
0
 62
     9
 10
0.0
 20
0.0
 30
0.0
 70
   128
 71
    34
 72
    36
 73
    35
  0
VERTEX
  5
6FB
  8
0
 62
     9
 10
0.0
 20
0.0
 30
0.0
 70
   128
 71
    33
 72
    37
 73
    32
  0
VERTEX
  5
6FC
  8
0
 62
     9
 10
0.0
 20
0.0
 30
0.0
 70
   128
 71
    39
 72
    23
 73
    38
  0
VERTEX
  5
6FD
  8
0
 62
     9
 10
0.0
 20
0.0
 30
0.0
 70
   128
 71
    40
 72
    22
 73
    23
  0
VERTEX
  5
6FE
  8
0
 62
     9
 10
0.0
 20
0.0
 30
0.0
 70
   128
 71
    40
 72
    42
 73
    41
  0
VERTEX
  5
6FF
  8
0
 62
     9
 10
0.0
 20
0.0
 30
0.0
 70
   128
 71
    44
 72
    40
 73
    43
  0
VERTEX
  5
700
  8
0
 62
     9
 10
0.0
 20
0.0
 30
0.0
 70
   128
 71
    45
 72
    42
 73
    40
  0
VERTEX
  5
701
  8
0
 62
     9
 10
0.0
 20
0.0
 30
0.0
 70
   128
 71
    40
 72
    41
 73
    43
  0
VERTEX
  5
702
  8
0
 62
     9
 10
0.0
 20
0.0
 30
0.0
 70
   128
 71
    46
 72
    43
 73
    41
  0
VERTEX
  5
703
  8
0
 62
     9
 10
0.0
 20
0.0
 30
0.0
 70
   128
 71
    27
 72
    46
 73
    41
  0
VERTEX
  5
704
  8
0
 62
     9
 10
0.0
 20
0.0
 30
0.0
 70
   128
 71
    47
 72
    26
 73
    27
  0
VERTEX
  5
705
  8
0
 62
     9
 10
0.0
 20
0.0
 30
0.0
 70
   128
 71
    27
 72
    48
 73
    47
  0
VERTEX
  5
706
  8
0
 62
     9
 10
0.0
 20
0.0
 30
0.0
 70
   128
 71
    26
 72
    49
 73
    25
  0
VERTEX
  5
707
  8
0
 62
     9
 10
0.0
 20
0.0
 30
0.0
 70
   128
 71
    48
 72
    27
 73
    50
  0
VERTEX
  5
708
  8
0
 62
     9
 10
0.0
 20
0.0
 30
0.0
 70
   128
 71
    27
 72
    25
 73
    46
  0
VERTEX
  5
709
  8
0
 62
     9
 10
0.0
 20
0.0
 30
0.0
 70
   128
 71
    41
 72
    50
 73
    27
  0
VERTEX
  5
70A
  8
0
 62
     9
 10
0.0
 20
0.0
 30
0.0
 70
   128
 71
    50
 72
    41
 73
    42
  0
VERTEX
  5
70B
  8
0
 62
     9
 10
0.0
 20
0.0
 30
0.0
 70
   128
 71
    45
 72
    40
 73
    39
  0
VERTEX
  5
70C
  8
0
 62
     9
 10
0.0
 20
0.0
 30
0.0
 70
   128
 71
    40
 72
    44
 73
    22
  0
VERTEX
  5
70D
  8
0
 62
     9
 10
0.0
 20
0.0
 30
0.0
 70
   128
 71
    40
 72
    23
 73
    39
  0
VERTEX
  5
70E
  8
0
 62
     9
 10
0.0
 20
0.0
 30
0.0
 70
   128
 71
    28
 72
    38
 73
    23
  0
VERTEX
  5
70F
  8
0
 62
     9
 10
0.0
 20
0.0
 30
0.0
 70
   128
 71
    29
 72
    51
 73
    28
  0
VERTEX
  5
710
  8
0
 62
     9
 10
0.0
 20
0.0
 30
0.0
 70
   128
 71
    34
 72
    32
 73
    51
  0
VERTEX
  5
711
  8
0
 62
     9
 10
0.0
 20
0.0
 30
0.0
 70
   128
 71
    29
 72
    34
 73
    51
  0
VERTEX
  5
712
  8
0
 62
     9
 10
0.0
 20
0.0
 30
0.0
 70
   128
 71
    36
 72
    34
 73
    31
  0
VERTEX
  5
713
  8
0
 62
     9
 10
0.0
 20
0.0
 30
0.0
 70
   128
 71
    38
 72
    52
 73
    39
  0
VERTEX
  5
714
  8
0
 62
     9
 10
0.0
 20
0.0
 30
0.0
 70
   128
 71
    54
 72
    53
 73
    48
  0
VERTEX
  5
715
  8
0
 62
     9
 10
0.0
 20
0.0
 30
0.0
 70
   128
 71
    55
 72
     5
 73
    52
  0
VERTEX
  5
716
  8
0
 62
     9
 10
0.0
 20
0.0
 30
0.0
 70
   128
 71
    28
 72
    52
 73
    38
  0
VERTEX
  5
717
  8
0
 62
     9
 10
0.0
 20
0.0
 30
0.0
 70
   128
 71
    28
 72
    51
 73
    55
  0
VERTEX
  5
718
  8
0
 62
     9
 10
0.0
 20
0.0
 30
0.0
 70
   128
 71
    55
 72
    52
 73
    28
  0
VERTEX
  5
719
  8
0
 62
     9
 10
0.0
 20
0.0
 30
0.0
 70
   128
 71
    57
 72
    56
 73
     9
  0
VERTEX
  5
71A
  8
0
 62
     9
 10
0.0
 20
0.0
 30
0.0
 70
   128
 71
    55
 72
    51
 73
    57
  0
VERTEX
  5
71B
  8
0
 62
     9
 10
0.0
 20
0.0
 30
0.0
 70
   128
 71
    57
 72
    37
 73
    56
  0
VERTEX
  5
71C
  8
0
 62
     9
 10
0.0
 20
0.0
 30
0.0
 70
   128
 71
    57
 72
    32
 73
    37
  0
VERTEX
  5
71D
  8
0
 62
     9
 10
0.0
 20
0.0
 30
0.0
 70
   128
 71
    56
 72
    11
 73
     9
  0
VERTEX
  5
71E
  8
0
 62
     9
 10
0.0
 20
0.0
 30
0.0
 70
   128
 71
     3
 72
    52
 73
     2
  0
VERTEX
  5
71F
  8
0
 62
     9
 10
0.0
 20
0.0
 30
0.0
 70
   128
 71
    58
 72
    39
 73
    52
  0
VERTEX
  5
720
  8
0
 62
     9
 10
0.0
 20
0.0
 30
0.0
 70
   128
 71
    58
 72
    15
 73
    59
  0
VERTEX
  5
721
  8
0
 62
     9
 10
0.0
 20
0.0
 30
0.0
 70
   128
 71
    45
 72
    58
 73
    42
  0
VERTEX
  5
722
  8
0
 62
     9
 10
0.0
 20
0.0
 30
0.0
 70
   128
 71
    14
 72
    15
 73
    58
  0
VERTEX
  5
723
  8
0
 62
     9
 10
0.0
 20
0.0
 30
0.0
 70
   128
 71
    58
 72
    59
 73
    42
  0
VERTEX
  5
724
  8
0
 62
     9
 10
0.0
 20
0.0
 30
0.0
 70
   128
 71
    50
 72
    42
 73
    59
  0
VERTEX
  5
725
  8
0
 62
     9
 10
0.0
 20
0.0
 30
0.0
 70
   128
 71
    54
 72
    50
 73
    59
  0
VERTEX
  5
726
  8
0
 62
     9
 10
0.0
 20
0.0
 30
0.0
 70
   128
 71
    21
 72
    53
 73
    54
  0
VERTEX
  5
727
  8
0
 62
     9
 10
0.0
 20
0.0
 30
0.0
 70
   128
 71
    54
 72
    20
 73
    21
  0
VERTEX
  5
728
  8
0
 62
     9
 10
0.0
 20
0.0
 30
0.0
 70
   128
 71
    53
 72
    47
 73
    48
  0
VERTEX
  5
729
  8
0
 62
     9
 10
0.0
 20
0.0
 30
0.0
 70
   128
 71
    20
 72
    54
 73
    17
  0
VERTEX
  5
72A
  8
0
 62
     9
 10
0.0
 20
0.0
 30
0.0
 70
   128
 71
    54
 72
    48
 73
    50
  0
VERTEX
  5
72B
  8
0
 62
     9
 10
0.0
 20
0.0
 30
0.0
 70
   128
 71
    59
 72
    17
 73
    54
  0
VERTEX
  5
72C
  8
0
 62
     9
 10
0.0
 20
0.0
 30
0.0
 70
   128
 71
    17
 72
    59
 73
    15
  0
VERTEX
  5
72D
  8
0
 62
     9
 10
0.0
 20
0.0
 30
0.0
 70
   128
 71
    14
 72
    58
 73
     3
  0
VERTEX
  5
72E
  8
0
 62
     9
 10
0.0
 20
0.0
 30
0.0
 70
   128
 71
    58
 72
    45
 73
    39
  0
VERTEX
  5
72F
  8
0
 62
     9
 10
0.0
 20
0.0
 30
0.0
 70
   128
 71
    58
 72
    52
 73
     3
  0
VERTEX
  5
730
  8
0
 62
     9
 10
0.0
 20
0.0
 30
0.0
 70
   128
 71
     5
 72
     2
 73
    52
  0
VERTEX
  5
731
  8
0
 62
     9
 10
0.0
 20
0.0
 30
0.0
 70
   128
 71
    55
 72
     6
 73
     5
  0
VERTEX
  5
732
  8
0
 62
     9
 10
0.0
 20
0.0
 30
0.0
 70
   128
 71
    57
 72
     9
 73
     6
  0
VERTEX
  5
733
  8
0
 62
     9
 10
0.0
 20
0.0
 30
0.0
 70
   128
 71
    55
 72
    57
 73
     6
  0
VERTEX
  5
734
  8
0
 62
     9
 10
0.0
 20
0.0
 30
0.0
 70
   128
 71
    32
 72
    57
 73
    51
  0
VERTEX
  5
735
  8
0
 62
     9
 10
0.0
 20
0.0
 30
0.0
 70
   128
 71
    62
 72
    61
 73
    60
  0
VERTEX
  5
736
  8
0
 62
     9
 10
0.0
 20
0.0
 30
0.0
 70
   128
 71
    62
 72
    64
 73
    63
  0
VERTEX
  5
737
  8
0
 62
     9
 10
0.0
 20
0.0
 30
0.0
 70
   128
 71
    66
 72
    61
 73
    65
  0
VERTEX
  5
738
  8
0
 62
     9
 10
0.0
 20
0.0
 30
0.0
 70
   128
 71
    67
 72
    11
 73
    56
  0
VERTEX
  5
739
  8
0
 62
     9
 10
0.0
 20
0.0
 30
0.0
 70
   128
 71
    70
 72
    69
 73
    68
  0
VERTEX
  5
73A
  8
0
 62
     9
 10
0.0
 20
0.0
 30
0.0
 70
   128
 71
    73
 72
    72
 73
    71
  0
VERTEX
  5
73B
  8
0
 62
     9
 10
0.0
 20
0.0
 30
0.0
 70
   128
 71
    75
 72
    68
 73
    74
  0
VERTEX
  5
73C
  8
0
 62
     9
 10
0.0
 20
0.0
 30
0.0
 70
   128
 71
    72
 72
    76
 73
    68
  0
VERTEX
  5
73D
  8
0
 62
     9
 10
0.0
 20
0.0
 30
0.0
 70
   128
 71
    75
 72
    77
 73
    53
  0
VERTEX
  5
73E
  8
0
 62
     9
 10
0.0
 20
0.0
 30
0.0
 70
   128
 71
    53
 72
    77
 73
    47
  0
VERTEX
  5
73F
  8
0
 62
     9
 10
0.0
 20
0.0
 30
0.0
 70
   128
 71
    21
 72
    75
 73
    53
  0
VERTEX
  5
740
  8
0
 62
     9
 10
0.0
 20
0.0
 30
0.0
 70
   128
 71
    72
 72
    73
 73
    76
  0
VERTEX
  5
741
  8
0
 62
     9
 10
0.0
 20
0.0
 30
0.0
 70
   128
 71
    21
 72
    78
 73
    75
  0
VERTEX
  5
742
  8
0
 62
     9
 10
0.0
 20
0.0
 30
0.0
 70
   128
 71
    68
 72
    69
 73
    72
  0
VERTEX
  5
743
  8
0
 62
     9
 10
0.0
 20
0.0
 30
0.0
 70
   128
 71
    66
 72
    79
 73
    71
  0
VERTEX
  5
744
  8
0
 62
     9
 10
0.0
 20
0.0
 30
0.0
 70
   128
 71
    66
 72
    71
 73
    72
  0
VERTEX
  5
745
  8
0
 62
     9
 10
0.0
 20
0.0
 30
0.0
 70
   128
 71
    66
 72
    80
 73
    61
  0
VERTEX
  5
746
  8
0
 62
     9
 10
0.0
 20
0.0
 30
0.0
 70
   128
 71
    65
 72
    79
 73
    66
  0
VERTEX
  5
747
  8
0
 62
     9
 10
0.0
 20
0.0
 30
0.0
 70
   128
 71
    80
 72
    60
 73
    61
  0
VERTEX
  5
748
  8
0
 62
     9
 10
0.0
 20
0.0
 30
0.0
 70
   128
 71
    65
 72
    61
 73
    63
  0
VERTEX
  5
749
  8
0
 62
     9
 10
0.0
 20
0.0
 30
0.0
 70
   128
 71
    37
 72
    62
 73
    56
  0
VERTEX
  5
74A
  8
0
 62
     9
 10
0.0
 20
0.0
 30
0.0
 70
   128
 71
    67
 72
    56
 73
    62
  0
VERTEX
  5
74B
  8
0
 62
     9
 10
0.0
 20
0.0
 30
0.0
 70
   128
 71
    37
 72
    64
 73
    62
  0
VERTEX
  5
74C
  8
0
 62
     9
 10
0.0
 20
0.0
 30
0.0
 70
   128
 71
    62
 72
    60
 73
    67
  0
VERTEX
  5
74D
  8
0
 62
     9
 10
0.0
 20
0.0
 30
0.0
 70
   128
 71
    66
 72
    81
 73
    80
  0
VERTEX
  5
74E
  8
0
 62
     9
 10
0.0
 20
0.0
 30
0.0
 70
   128
 71
    61
 72
    62
 73
    63
  0
VERTEX
  5
74F
  8
0
 62
     9
 10
0.0
 20
0.0
 30
0.0
 70
   128
 71
    66
 72
    82
 73
    81
  0
VERTEX
  5
750
  8
0
 62
     9
 10
0.0
 20
0.0
 30
0.0
 70
   128
 71
    72
 72
    83
 73
    82
  0
VERTEX
  5
751
  8
0
 62
     9
 10
0.0
 20
0.0
 30
0.0
 70
   128
 71
    66
 72
    72
 73
    82
  0
VERTEX
  5
752
  8
0
 62
     9
 10
0.0
 20
0.0
 30
0.0
 70
   128
 71
    83
 72
    72
 73
    69
  0
VERTEX
  5
753
  8
0
 62
     9
 10
0.0
 20
0.0
 30
0.0
 70
   128
 71
    78
 72
    70
 73
    75
  0
VERTEX
  5
754
  8
0
 62
     9
 10
0.0
 20
0.0
 30
0.0
 70
   128
 71
    68
 72
    76
 73
    74
  0
VERTEX
  5
755
  8
0
 62
     9
 10
0.0
 20
0.0
 30
0.0
 70
   128
 71
    68
 72
    75
 73
    70
  0
VERTEX
  5
756
  8
0
 62
     9
 10
0.0
 20
0.0
 30
0.0
 70
   128
 71
    77
 72
    75
 73
    74
  0
VERTEX
  5
757
  8
0
 62
     9
 10
0.0
 20
0.0
 30
0.0
 70
   128
 71
    85
 72
    84
 73
    22
  0
VERTEX
  5
758
  8
0
 62
     9
 10
0.0
 20
0.0
 30
0.0
 70
   128
 71
    86
 72
    24
 73
    84
  0
VERTEX
  5
759
  8
0
 62
     9
 10
0.0
 20
0.0
 30
0.0
 70
   128
 71
    22
 72
    84
 73
    24
  0
VERTEX
  5
75A
  8
0
 62
     9
 10
0.0
 20
0.0
 30
0.0
 70
   128
 71
    30
 72
    86
 73
    87
  0
VERTEX
  5
75B
  8
0
 62
     9
 10
0.0
 20
0.0
 30
0.0
 70
   128
 71
    86
 72
    30
 73
    24
  0
VERTEX
  5
75C
  8
0
 62
     9
 10
0.0
 20
0.0
 30
0.0
 70
   128
 71
    87
 72
    88
 73
    31
  0
VERTEX
  5
75D
  8
0
 62
     9
 10
0.0
 20
0.0
 30
0.0
 70
   128
 71
    31
 72
    30
 73
    87
  0
VERTEX
  5
75E
  8
0
 62
     9
 10
0.0
 20
0.0
 30
0.0
 70
   128
 71
    89
 72
    36
 73
    88
  0
VERTEX
  5
75F
  8
0
 62
     9
 10
0.0
 20
0.0
 30
0.0
 70
   128
 71
    31
 72
    88
 73
    36
  0
VERTEX
  5
760
  8
0
 62
     9
 10
0.0
 20
0.0
 30
0.0
 70
   128
 71
    89
 72
    35
 73
    36
  0
VERTEX
  5
761
  8
0
 62
     9
 10
0.0
 20
0.0
 30
0.0
 70
   128
 71
    22
 72
    44
 73
    85
  0
VERTEX
  5
762
  8
0
 62
     9
 10
0.0
 20
0.0
 30
0.0
 70
   128
 71
    90
 72
    44
 73
    43
  0
VERTEX
  5
763
  8
0
 62
     9
 10
0.0
 20
0.0
 30
0.0
 70
   128
 71
    44
 72
    90
 73
    85
  0
VERTEX
  5
764
  8
0
 62
     9
 10
0.0
 20
0.0
 30
0.0
 70
   128
 71
    43
 72
    46
 73
    91
  0
VERTEX
  5
765
  8
0
 62
     9
 10
0.0
 20
0.0
 30
0.0
 70
   128
 71
    91
 72
    90
 73
    43
  0
VERTEX
  5
766
  8
0
 62
     9
 10
0.0
 20
0.0
 30
0.0
 70
   128
 71
    25
 72
    92
 73
    46
  0
VERTEX
  5
767
  8
0
 62
     9
 10
0.0
 20
0.0
 30
0.0
 70
   128
 71
    91
 72
    46
 73
    92
  0
VERTEX
  5
768
  8
0
 62
     9
 10
0.0
 20
0.0
 30
0.0
 70
   128
 71
    25
 72
    93
 73
    92
  0
VERTEX
  5
769
  8
0
 62
     9
 10
0.0
 20
0.0
 30
0.0
 70
   128
 71
    49
 72
    93
 73
    25
  0
VERTEX
  5
76A
  8
0
 62
     9
 10
0.0
 20
0.0
 30
0.0
 70
   128
 71
    96
 72
    95
 73
    94
  0
VERTEX
  5
76B
  8
0
 62
     9
 10
0.0
 20
0.0
 30
0.0
 70
   128
 71
     7
 72
     1
 73
     4
  0
VERTEX
  5
76C
  8
0
 62
     9
 10
0.0
 20
0.0
 30
0.0
 70
   128
 71
    94
 72
    95
 73
    10
  0
VERTEX
  5
76D
  8
0
 62
     9
 10
0.0
 20
0.0
 30
0.0
 70
   128
 71
    96
 72
    97
 73
    95
  0
VERTEX
  5
76E
  8
0
 62
     9
 10
0.0
 20
0.0
 30
0.0
 70
   128
 71
     7
 72
    95
 73
    98
  0
VERTEX
  5
76F
  8
0
 62
     9
 10
0.0
 20
0.0
 30
0.0
 70
   128
 71
     7
 72
    98
 73
    99
  0
VERTEX
  5
770
  8
0
 62
     9
 10
0.0
 20
0.0
 30
0.0
 70
   128
 71
    99
 72
    98
 73
   100
  0
VERTEX
  5
771
  8
0
 62
     9
 10
0.0
 20
0.0
 30
0.0
 70
   128
 71
    18
 72
    12
 73
    19
  0
VERTEX
  5
772
  8
0
 62
     9
 10
0.0
 20
0.0
 30
0.0
 70
   128
 71
    12
 72
    18
 73
    16
  0
VERTEX
  5
773
  8
0
 62
     9
 10
0.0
 20
0.0
 30
0.0
 70
   128
 71
    12
 72
   101
 73
    19
  0
VERTEX
  5
774
  8
0
 62
     9
 10
0.0
 20
0.0
 30
0.0
 70
   128
 71
    13
 72
    12
 73
    16
  0
VERTEX
  5
775
  8
0
 62
     9
 10
0.0
 20
0.0
 30
0.0
 70
   128
 71
    12
 72
     1
 73
    99
  0
VERTEX
  5
776
  8
0
 62
     9
 10
0.0
 20
0.0
 30
0.0
 70
   128
 71
    99
 72
   101
 73
    12
  0
VERTEX
  5
777
  8
0
 62
     9
 10
0.0
 20
0.0
 30
0.0
 70
   128
 71
     1
 72
     7
 73
    99
  0
VERTEX
  5
778
  8
0
 62
     9
 10
0.0
 20
0.0
 30
0.0
 70
   128
 71
     7
 72
     8
 73
    95
  0
VERTEX
  5
779
  8
0
 62
     9
 10
0.0
 20
0.0
 30
0.0
 70
   128
 71
     8
 72
    10
 73
    95
  0
VERTEX
  5
77A
  8
0
 62
     9
 10
0.0
 20
0.0
 30
0.0
 70
   128
 71
    35
 72
    89
 73
   102
  0
VERTEX
  5
77B
  8
0
 62
     9
 10
0.0
 20
0.0
 30
0.0
 70
   128
 71
   105
 72
   104
 73
   103
  0
VERTEX
  5
77C
  8
0
 62
     9
 10
0.0
 20
0.0
 30
0.0
 70
   128
 71
   108
 72
   107
 73
   106
  0
VERTEX
  5
77D
  8
0
 62
     9
 10
0.0
 20
0.0
 30
0.0
 70
   128
 71
   111
 72
   110
 73
   109
  0
VERTEX
  5
77E
  8
0
 62
     9
 10
0.0
 20
0.0
 30
0.0
 70
   128
 71
   113
 72
   110
 73
   112
  0
VERTEX
  5
77F
  8
0
 62
     9
 10
0.0
 20
0.0
 30
0.0
 70
   128
 71
   116
 72
   115
 73
   114
  0
VERTEX
  5
780
  8
0
 62
     9
 10
0.0
 20
0.0
 30
0.0
 70
   128
 71
   115
 72
   116
 73
   111
  0
VERTEX
  5
781
  8
0
 62
     9
 10
0.0
 20
0.0
 30
0.0
 70
   128
 71
   114
 72
    93
 73
   117
  0
VERTEX
  5
782
  8
0
 62
     9
 10
0.0
 20
0.0
 30
0.0
 70
   128
 71
   117
 72
   116
 73
   114
  0
VERTEX
  5
783
  8
0
 62
     9
 10
0.0
 20
0.0
 30
0.0
 70
   128
 71
   117
 72
    93
 73
    49
  0
VERTEX
  5
784
  8
0
 62
     9
 10
0.0
 20
0.0
 30
0.0
 70
   128
 71
   111
 72
   109
 73
   115
  0
VERTEX
  5
785
  8
0
 62
     9
 10
0.0
 20
0.0
 30
0.0
 70
   128
 71
   107
 72
   104
 73
   106
  0
VERTEX
  5
786
  8
0
 62
     9
 10
0.0
 20
0.0
 30
0.0
 70
   128
 71
   103
 72
   112
 73
   105
  0
VERTEX
  5
787
  8
0
 62
     9
 10
0.0
 20
0.0
 30
0.0
 70
   128
 71
   109
 72
   110
 73
   113
  0
VERTEX
  5
788
  8
0
 62
     9
 10
0.0
 20
0.0
 30
0.0
 70
   128
 71
   103
 72
   113
 73
   112
  0
VERTEX
  5
789
  8
0
 62
     9
 10
0.0
 20
0.0
 30
0.0
 70
   128
 71
   106
 72
   104
 73
   105
  0
VERTEX
  5
78A
  8
0
 62
     9
 10
0.0
 20
0.0
 30
0.0
 70
   128
 71
   102
 72
   118
 73
   108
  0
VERTEX
  5
78B
  8
0
 62
     9
 10
0.0
 20
0.0
 30
0.0
 70
   128
 71
   118
 72
   107
 73
   108
  0
VERTEX
  5
78C
  8
0
 62
     9
 10
0.0
 20
0.0
 30
0.0
 70
   128
 71
    89
 72
   118
 73
   102
  0
VERTEX
  5
78D
  8
0
 62
     9
 10
0.0
 20
0.0
 30
0.0
 70
   128
 71
   120
 72
   119
 73
    63
  0
VERTEX
  5
78E
  8
0
 62
     9
 10
0.0
 20
0.0
 30
0.0
 70
   128
 71
   120
 72
   102
 73
   108
  0
VERTEX
  5
78F
  8
0
 62
     9
 10
0.0
 20
0.0
 30
0.0
 70
   128
 71
   121
 72
   119
 73
   106
  0
VERTEX
  5
790
  8
0
 62
     9
 10
0.0
 20
0.0
 30
0.0
 70
   128
 71
    64
 72
    37
 73
    33
  0
VERTEX
  5
791
  8
0
 62
     9
 10
0.0
 20
0.0
 30
0.0
 70
   128
 71
    74
 72
    76
 73
   122
  0
VERTEX
  5
792
  8
0
 62
     9
 10
0.0
 20
0.0
 30
0.0
 70
   128
 71
   110
 72
   123
 73
   112
  0
VERTEX
  5
793
  8
0
 62
     9
 10
0.0
 20
0.0
 30
0.0
 70
   128
 71
   124
 72
   122
 73
   116
  0
VERTEX
  5
794
  8
0
 62
     9
 10
0.0
 20
0.0
 30
0.0
 70
   128
 71
   123
 72
   111
 73
   122
  0
VERTEX
  5
795
  8
0
 62
     9
 10
0.0
 20
0.0
 30
0.0
 70
   128
 71
   124
 72
   117
 73
    26
  0
VERTEX
  5
796
  8
0
 62
     9
 10
0.0
 20
0.0
 30
0.0
 70
   128
 71
    26
 72
   117
 73
    49
  0
VERTEX
  5
797
  8
0
 62
     9
 10
0.0
 20
0.0
 30
0.0
 70
   128
 71
    47
 72
   124
 73
    26
  0
VERTEX
  5
798
  8
0
 62
     9
 10
0.0
 20
0.0
 30
0.0
 70
   128
 71
   123
 72
   110
 73
   111
  0
VERTEX
  5
799
  8
0
 62
     9
 10
0.0
 20
0.0
 30
0.0
 70
   128
 71
    47
 72
    77
 73
   124
  0
VERTEX
  5
79A
  8
0
 62
     9
 10
0.0
 20
0.0
 30
0.0
 70
   128
 71
   122
 72
    76
 73
   123
  0
VERTEX
  5
79B
  8
0
 62
     9
 10
0.0
 20
0.0
 30
0.0
 70
   128
 71
   121
 72
   105
 73
   112
  0
VERTEX
  5
79C
  8
0
 62
     9
 10
0.0
 20
0.0
 30
0.0
 70
   128
 71
   121
 72
   112
 73
   123
  0
VERTEX
  5
79D
  8
0
 62
     9
 10
0.0
 20
0.0
 30
0.0
 70
   128
 71
   121
 72
    65
 73
   119
  0
VERTEX
  5
79E
  8
0
 62
     9
 10
0.0
 20
0.0
 30
0.0
 70
   128
 71
   106
 72
   105
 73
   121
  0
VERTEX
  5
79F
  8
0
 62
     9
 10
0.0
 20
0.0
 30
0.0
 70
   128
 71
    65
 72
    63
 73
   119
  0
VERTEX
  5
7A0
  8
0
 62
     9
 10
0.0
 20
0.0
 30
0.0
 70
   128
 71
   106
 72
   119
 73
   108
  0
VERTEX
  5
7A1
  8
0
 62
     9
 10
0.0
 20
0.0
 30
0.0
 70
   128
 71
    35
 72
   120
 73
    33
  0
VERTEX
  5
7A2
  8
0
 62
     9
 10
0.0
 20
0.0
 30
0.0
 70
   128
 71
    64
 72
    33
 73
   120
  0
VERTEX
  5
7A3
  8
0
 62
     9
 10
0.0
 20
0.0
 30
0.0
 70
   128
 71
    35
 72
   102
 73
   120
  0
VERTEX
  5
7A4
  8
0
 62
     9
 10
0.0
 20
0.0
 30
0.0
 70
   128
 71
   120
 72
    63
 73
    64
  0
VERTEX
  5
7A5
  8
0
 62
     9
 10
0.0
 20
0.0
 30
0.0
 70
   128
 71
   121
 72
    79
 73
    65
  0
VERTEX
  5
7A6
  8
0
 62
     9
 10
0.0
 20
0.0
 30
0.0
 70
   128
 71
   119
 72
   120
 73
   108
  0
VERTEX
  5
7A7
  8
0
 62
     9
 10
0.0
 20
0.0
 30
0.0
 70
   128
 71
   121
 72
    71
 73
    79
  0
VERTEX
  5
7A8
  8
0
 62
     9
 10
0.0
 20
0.0
 30
0.0
 70
   128
 71
   123
 72
    73
 73
    71
  0
VERTEX
  5
7A9
  8
0
 62
     9
 10
0.0
 20
0.0
 30
0.0
 70
   128
 71
   121
 72
   123
 73
    71
  0
VERTEX
  5
7AA
  8
0
 62
     9
 10
0.0
 20
0.0
 30
0.0
 70
   128
 71
    73
 72
   123
 73
    76
  0
VERTEX
  5
7AB
  8
0
 62
     9
 10
0.0
 20
0.0
 30
0.0
 70
   128
 71
    77
 72
    74
 73
   124
  0
VERTEX
  5
7AC
  8
0
 62
     9
 10
0.0
 20
0.0
 30
0.0
 70
   128
 71
   122
 72
   111
 73
   116
  0
VERTEX
  5
7AD
  8
0
 62
     9
 10
0.0
 20
0.0
 30
0.0
 70
   128
 71
   122
 72
   124
 73
    74
  0
VERTEX
  5
7AE
  8
0
 62
     9
 10
0.0
 20
0.0
 30
0.0
 70
   128
 71
   117
 72
   124
 73
   116
  0
VERTEX
  5
7AF
  8
0
 62
     9
 10
0.0
 20
0.0
 30
0.0
 70
   128
 71
    94
 72
    10
 73
    67
  0
VERTEX
  5
7B0
  8
0
 62
     9
 10
0.0
 20
0.0
 30
0.0
 70
   128
 71
    95
 72
    81
 73
    82
  0
VERTEX
  5
7B1
  8
0
 62
     9
 10
0.0
 20
0.0
 30
0.0
 70
   128
 71
    60
 72
    80
 73
    96
  0
VERTEX
  5
7B2
  8
0
 62
     9
 10
0.0
 20
0.0
 30
0.0
 70
   128
 71
    70
 72
    99
 73
    69
  0
VERTEX
  5
7B3
  8
0
 62
     9
 10
0.0
 20
0.0
 30
0.0
 70
   128
 71
    83
 72
   100
 73
    98
  0
VERTEX
  5
7B4
  8
0
 62
     9
 10
0.0
 20
0.0
 30
0.0
 70
   128
 71
   101
 72
    70
 73
    78
  0
VERTEX
  5
7B5
  8
0
 62
     9
 10
0.0
 20
0.0
 30
0.0
 70
   128
 71
    70
 72
   101
 73
    99
  0
VERTEX
  5
7B6
  8
0
 62
     9
 10
0.0
 20
0.0
 30
0.0
 70
   128
 71
    78
 72
    21
 73
    19
  0
VERTEX
  5
7B7
  8
0
 62
     9
 10
0.0
 20
0.0
 30
0.0
 70
   128
 71
    19
 72
   101
 73
    78
  0
VERTEX
  5
7B8
  8
0
 62
     9
 10
0.0
 20
0.0
 30
0.0
 70
   128
 71
   100
 72
    83
 73
    69
  0
VERTEX
  5
7B9
  8
0
 62
     9
 10
0.0
 20
0.0
 30
0.0
 70
   128
 71
    69
 72
    99
 73
   100
  0
VERTEX
  5
7BA
  8
0
 62
     9
 10
0.0
 20
0.0
 30
0.0
 70
   128
 71
    98
 72
    95
 73
    82
  0
VERTEX
  5
7BB
  8
0
 62
     9
 10
0.0
 20
0.0
 30
0.0
 70
   128
 71
    83
 72
    98
 73
    82
  0
VERTEX
  5
7BC
  8
0
 62
     9
 10
0.0
 20
0.0
 30
0.0
 70
   128
 71
    97
 72
    80
 73
    81
  0
VERTEX
  5
7BD
  8
0
 62
     9
 10
0.0
 20
0.0
 30
0.0
 70
   128
 71
    95
 72
    97
 73
    81
  0
VERTEX
  5
7BE
  8
0
 62
     9
 10
0.0
 20
0.0
 30
0.0
 70
   128
 71
    94
 72
    60
 73
    96
  0
VERTEX
  5
7BF
  8
0
 62
     9
 10
0.0
 20
0.0
 30
0.0
 70
   128
 71
    96
 72
    80
 73
    97
  0
VERTEX
  5
7C0
  8
0
 62
     9
 10
0.0
 20
0.0
 30
0.0
 70
   128
 71
    11
 72
    67
 73
    10
  0
VERTEX
  5
7C1
  8
0
 62
     9
 10
0.0
 20
0.0
 30
0.0
 70
   128
 71
    67
 72
    60
 73
    94
  0
SEQEND
  5
7C2
  8
0
 62
     9
  0
ENDBLK
  5
7C5
  8
0
  0
ENDSEC
  0
SECTION
  2
ENTITIES
  0
INSERT
  5
6B
  8
LAYER_1
  2
38
 10
0.0
 20
0.0
 30
0.0
  0
INSERT
  5
39C
  8
LAYER_1
  2
07844138_HEBEL_EHM-_OHM_LE
 10
0.0
 20
0.0
 30
0.0
  0
INSERT
  5
5F3
  8
LAYER_1
  2
EXTRUDE_
 10
0.0
 20
0.0
 30
0.0
  0
INSERT
  5
65D
  8
LAYER_1
  2
41
 10
0.0
 20
0.0
 30
0.0
  0
INSERT
  5
7C3
  8
LAYER_1
  2
42
 10
0.0
 20
0.0
 30
0.0
  0
ENDSEC
  0
EOF
