  0
SECTION
  2
HEADER
  9
$ACADVER
  1
AC1009
  9
$DWGCODEPAGE
  3
ansi_1252
  9
$INSBASE
 10
0.0
 20
0.0
 30
0.0
  9
$EXTMIN
 10
1.000000000000000E+20
 20
1.000000000000000E+20
 30
1.000000000000000E+20
  9
$EXTMAX
 10
-1.000000000000000E+20
 20
-1.000000000000000E+20
 30
-1.000000000000000E+20
  9
$LIMMIN
 10
0.0
 20
0.0
  9
$LIMMAX
 10
12.0
 20
9.0
  9
$ORTHOMODE
 70
     0
  9
$REGENMODE
 70
     1
  9
$FILLMODE
 70
     1
  9
$QTEXTMODE
 70
     0
  9
$MIRRTEXT
 70
     1
  9
$DRAGMODE
 70
     2
  9
$LTSCALE
 40
1.0
  9
$OSMODE
 70
    37
  9
$ATTMODE
 70
     1
  9
$TEXTSIZE
 40
0.2
  9
$TRACEWID
 40
0.05
  9
$TEXTSTYLE
  7
STANDARD
  9
$CLAYER
  8
0
  9
$CELTYPE
  6
BYLAYER
  9
$CECOLOR
 62
   256
  9
$DIMSCALE
 40
1.0
  9
$DIMASZ
 40
0.18
  9
$DIMEXO
 40
0.0625
  9
$DIMDLI
 40
0.38
  9
$DIMRND
 40
0.0
  9
$DIMDLE
 40
0.0
  9
$DIMEXE
 40
0.18
  9
$DIMTP
 40
0.0
  9
$DIMTM
 40
0.0
  9
$DIMTXT
 40
0.18
  9
$DIMCEN
 40
0.09
  9
$DIMTSZ
 40
0.0
  9
$DIMTOL
 70
     0
  9
$DIMLIM
 70
     0
  9
$DIMTIH
 70
     1
  9
$DIMTOH
 70
     1
  9
$DIMSE1
 70
     0
  9
$DIMSE2
 70
     0
  9
$DIMTAD
 70
     0
  9
$DIMZIN
 70
     0
  9
$DIMBLK
  1

  9
$DIMASO
 70
     1
  9
$DIMSHO
 70
     1
  9
$DIMPOST
  1

  9
$DIMAPOST
  1

  9
$DIMALT
 70
     0
  9
$DIMALTD
 70
     2
  9
$DIMALTF
 40
25.4
  9
$DIMLFAC
 40
1.0
  9
$DIMTOFL
 70
     0
  9
$DIMTVP
 40
0.0
  9
$DIMTIX
 70
     0
  9
$DIMSOXD
 70
     0
  9
$DIMSAH
 70
     0
  9
$DIMBLK1
  1

  9
$DIMBLK2
  1

  9
$DIMSTYLE
  2
STANDARD
  9
$DIMCLRD
 70
     0
  9
$DIMCLRE
 70
     0
  9
$DIMCLRT
 70
     0
  9
$DIMTFAC
 40
1.0
  9
$DIMGAP
 40
0.09
  9
$LUNITS
 70
     2
  9
$LUPREC
 70
     4
  9
$SKETCHINC
 40
0.1
  9
$FILLETRAD
 40
0.5
  9
$AUNITS
 70
     0
  9
$AUPREC
 70
     0
  9
$MENU
  1
.
  9
$ELEVATION
 40
0.0
  9
$PELEVATION
 40
0.0
  9
$THICKNESS
 40
0.0
  9
$LIMCHECK
 70
     0
  9
$CHAMFERA
 40
0.5
  9
$CHAMFERB
 40
0.5
  9
$SKPOLY
 70
     0
  9
$TDCREATE
 40
2455360.610532222
  9
$TDUPDATE
 40
2455360.610532222
  9
$TDINDWG
 40
0.0000000116
  9
$TDUSRTIMER
 40
0.0000000116
  9
$USRTIMER
 70
     1
  9
$ANGBASE
 50
0.0
  9
$ANGDIR
 70
     0
  9
$PDMODE
 70
     0
  9
$PDSIZE
 40
0.0
  9
$PLINEWID
 40
0.0
  9
$COORDS
 70
     1
  9
$SPLFRAME
 70
     0
  9
$SPLINETYPE
 70
     6
  9
$SPLINESEGS
 70
     8
  9
$ATTDIA
 70
     0
  9
$ATTREQ
 70
     1
  9
$HANDLING
 70
     1
  9
$HANDSEED
  5
EA9
  9
$SURFTAB1
 70
     6
  9
$SURFTAB2
 70
     6
  9
$SURFTYPE
 70
     6
  9
$SURFU
 70
     6
  9
$SURFV
 70
     6
  9
$UCSNAME
  2

  9
$UCSORG
 10
0.0
 20
0.0
 30
0.0
  9
$UCSXDIR
 10
1.0
 20
0.0
 30
0.0
  9
$UCSYDIR
 10
0.0
 20
1.0
 30
0.0
  9
$PUCSNAME
  2

  9
$PUCSORG
 10
0.0
 20
0.0
 30
0.0
  9
$PUCSXDIR
 10
1.0
 20
0.0
 30
0.0
  9
$PUCSYDIR
 10
0.0
 20
1.0
 30
0.0
  9
$USERI1
 70
     0
  9
$USERI2
 70
     0
  9
$USERI3
 70
     0
  9
$USERI4
 70
     0
  9
$USERI5
 70
     0
  9
$USERR1
 40
0.0
  9
$USERR2
 40
0.0
  9
$USERR3
 40
0.0
  9
$USERR4
 40
0.0
  9
$USERR5
 40
0.0
  9
$WORLDVIEW
 70
     1
  9
$SHADEDGE
 70
     3
  9
$SHADEDIF
 70
    70
  9
$TILEMODE
 70
     1
  9
$MAXACTVP
 70
    64
  9
$PLIMCHECK
 70
     0
  9
$PEXTMIN
 10
1.000000000000000E+20
 20
1.000000000000000E+20
 30
1.000000000000000E+20
  9
$PEXTMAX
 10
-1.000000000000000E+20
 20
-1.000000000000000E+20
 30
-1.000000000000000E+20
  9
$PLIMMIN
 10
0.0
 20
0.0
  9
$PLIMMAX
 10
12.0
 20
9.0
  9
$UNITMODE
 70
     0
  9
$VISRETAIN
 70
     1
  9
$PLINEGEN
 70
     0
  9
$PSLTSCALE
 70
     1
  0
ENDSEC
  0
SECTION
  2
TABLES
  0
TABLE
  2
VPORT
 70
     1
  0
VPORT
  2
*ACTIVE
 70
     0
 10
0.0
 20
0.0
 11
1.0
 21
1.0
 12
0.0
 22
0.0
 13
0.0
 23
0.0
 14
0.5
 24
0.5
 15
0.5
 25
0.5
 16
296.1749267578125
 26
169.2282409667969
 36
296.1749267578125
 17
61.75
 27
0.0
 37
-25.156494140625
 40
170.0696310906768
 41
1.972972972850329
 42
50.0
 43
0.0
 44
0.0
 50
0.0
 51
0.0
 71
     0
 72
   100
 73
     1
 74
     3
 75
     0
 76
     0
 77
     0
 78
     0
  0
ENDTAB
  0
TABLE
  2
LTYPE
 70
     1
  0
LTYPE
  2
CONTINUOUS
 70
     0
  3
Solid line
 72
    65
 73
     0
 40
0.0
  0
ENDTAB
  0
TABLE
  2
LAYER
 70
     2
  0
LAYER
  2
0
 70
     0
 62
     7
  6
CONTINUOUS
  0
LAYER
  2
LAYER_1
 70
     0
 62
     7
  6
CONTINUOUS
  0
ENDTAB
  0
TABLE
  2
STYLE
 70
     1
  0
STYLE
  2
STANDARD
 70
     0
 40
0.0
 41
1.0
 50
0.0
 71
     0
 42
0.2
  3
txt
  4

  0
ENDTAB
  0
TABLE
  2
VIEW
 70
     0
  0
ENDTAB
  0
TABLE
  2
UCS
 70
     0
  0
ENDTAB
  0
TABLE
  2
APPID
 70
     1
  0
APPID
  2
ACAD
 70
     0
  0
ENDTAB
  0
TABLE
  2
DIMSTYLE
 70
     1
  0
DIMSTYLE
  2
STANDARD
 70
     0
  3

  4

  5

  6

  7

 40
1.0
 41
0.18
 42
0.0625
 43
0.38
 44
0.18
 45
0.0
 46
0.0
 47
0.0
 48
0.0
140
0.18
141
0.09
142
0.0
143
25.4
144
1.0
145
0.0
146
1.0
147
0.09
 71
     0
 72
     0
 73
     1
 74
     1
 75
     0
 76
     0
 77
     0
 78
     0
170
     0
171
     2
172
     0
173
     0
174
     0
175
     0
176
     0
177
     0
178
     0
  0
ENDTAB
  0
ENDSEC
  0
SECTION
  2
BLOCKS
  0
BLOCK
  8
0
  2
$MODEL_SPACE
 70
     0
 10
0.0
 20
0.0
 30
0.0
  3
$MODEL_SPACE
  1

  0
ENDBLK
  5
21
  8
0
  0
BLOCK
 67
     1
  8
0
  2
$PAPER_SPACE
 70
     0
 10
0.0
 20
0.0
 30
0.0
  3
$PAPER_SPACE
  1

  0
ENDBLK
  5
1D
 67
     1
  8
0
  0
BLOCK
  8
0
  2
E3_NODE
 70
     0
 10
0.0
 20
0.0
 30
0.0
  3
E3_NODE
  1

  0
POLYLINE
  5
3C
  8
0
 62
     9
 66
     1
 10
0.0
 20
0.0
 30
0.0
 70
    64
 71
    16
 72
    16
  0
VERTEX
  5
3D
  8
0
 10
-7.425000190734863
 20
-7.425000190734863
 30
-63.5
 70
   192
  0
VERTEX
  5
3E
  8
0
 10
0.0
 20
-10.5
 30
-63.5
 70
   192
  0
VERTEX
  5
3F
  8
0
 10
0.0
 20
-9.899999618530273
 30
-49.5
 70
   192
  0
VERTEX
  5
40
  8
0
 10
-10.5
 20
0.0
 30
-63.5
 70
   192
  0
VERTEX
  5
41
  8
0
 10
-7.0
 20
-7.0
 30
-49.5
 70
   192
  0
VERTEX
  5
42
  8
0
 10
-7.425000190734863
 20
7.425000190734863
 30
-63.5
 70
   192
  0
VERTEX
  5
43
  8
0
 10
-9.899999618530273
 20
0.0
 30
-49.5
 70
   192
  0
VERTEX
  5
44
  8
0
 10
0.0
 20
10.5
 30
-63.5
 70
   192
  0
VERTEX
  5
45
  8
0
 10
-7.0
 20
7.0
 30
-49.5
 70
   192
  0
VERTEX
  5
46
  8
0
 10
0.0
 20
9.899999618530273
 30
-49.5
 70
   192
  0
VERTEX
  5
47
  8
0
 10
7.0
 20
7.0
 30
-49.5
 70
   192
  0
VERTEX
  5
48
  8
0
 10
7.425000190734863
 20
7.425000190734863
 30
-63.5
 70
   192
  0
VERTEX
  5
49
  8
0
 10
9.899999618530273
 20
0.0
 30
-49.5
 70
   192
  0
VERTEX
  5
4A
  8
0
 10
7.425000190734863
 20
-7.425000190734863
 30
-63.5
 70
   192
  0
VERTEX
  5
4B
  8
0
 10
10.5
 20
0.0
 30
-63.5
 70
   192
  0
VERTEX
  5
4C
  8
0
 10
7.0
 20
-7.0
 30
-49.5
 70
   192
  0
VERTEX
  5
4D
  8
0
 62
     9
 10
0.0
 20
0.0
 30
0.0
 70
   128
 71
     3
 72
     2
 73
     1
  0
VERTEX
  5
4E
  8
0
 62
     9
 10
0.0
 20
0.0
 30
0.0
 70
   128
 71
     5
 72
     1
 73
     4
  0
VERTEX
  5
4F
  8
0
 62
     9
 10
0.0
 20
0.0
 30
0.0
 70
   128
 71
     7
 72
     4
 73
     6
  0
VERTEX
  5
50
  8
0
 62
     9
 10
0.0
 20
0.0
 30
0.0
 70
   128
 71
     9
 72
     6
 73
     8
  0
VERTEX
  5
51
  8
0
 62
     9
 10
0.0
 20
0.0
 30
0.0
 70
   128
 71
    11
 72
    10
 73
     8
  0
VERTEX
  5
52
  8
0
 62
     9
 10
0.0
 20
0.0
 30
0.0
 70
   128
 71
    13
 72
    11
 73
    12
  0
VERTEX
  5
53
  8
0
 62
     9
 10
0.0
 20
0.0
 30
0.0
 70
   128
 71
    13
 72
    15
 73
    14
  0
VERTEX
  5
54
  8
0
 62
     9
 10
0.0
 20
0.0
 30
0.0
 70
   128
 71
    16
 72
    14
 73
     2
  0
VERTEX
  5
55
  8
0
 62
     9
 10
0.0
 20
0.0
 30
0.0
 70
   128
 71
     2
 72
     3
 73
    16
  0
VERTEX
  5
56
  8
0
 62
     9
 10
0.0
 20
0.0
 30
0.0
 70
   128
 71
    14
 72
    16
 73
    13
  0
VERTEX
  5
57
  8
0
 62
     9
 10
0.0
 20
0.0
 30
0.0
 70
   128
 71
    12
 72
    15
 73
    13
  0
VERTEX
  5
58
  8
0
 62
     9
 10
0.0
 20
0.0
 30
0.0
 70
   128
 71
     8
 72
    12
 73
    11
  0
VERTEX
  5
59
  8
0
 62
     9
 10
0.0
 20
0.0
 30
0.0
 70
   128
 71
     8
 72
    10
 73
     9
  0
VERTEX
  5
5A
  8
0
 62
     9
 10
0.0
 20
0.0
 30
0.0
 70
   128
 71
     6
 72
     9
 73
     7
  0
VERTEX
  5
5B
  8
0
 62
     9
 10
0.0
 20
0.0
 30
0.0
 70
   128
 71
     4
 72
     7
 73
     5
  0
VERTEX
  5
5C
  8
0
 62
     9
 10
0.0
 20
0.0
 30
0.0
 70
   128
 71
     1
 72
     5
 73
     3
  0
SEQEND
  5
5D
  8
0
 62
     9
  0
ENDBLK
  5
61
  8
0
  0
BLOCK
  8
0
  2
E3_NODE_1_
 70
     0
 10
0.0
 20
0.0
 30
0.0
  3
E3_NODE_1_
  1

  0
POLYLINE
  5
63
  8
0
 62
     9
 66
     1
 10
0.0
 20
0.0
 30
0.0
 70
    64
 71
    12
 72
    12
  0
VERTEX
  5
64
  8
0
 10
0.0
 20
10.5
 30
-63.5
 70
   192
  0
VERTEX
  5
65
  8
0
 10
7.425000190734863
 20
7.425000190734863
 30
-63.5
 70
   192
  0
VERTEX
  5
66
  8
0
 10
6.0
 20
6.0
 30
-63.5
 70
   192
  0
VERTEX
  5
67
  8
0
 10
10.5
 20
0.0
 30
-63.5
 70
   192
  0
VERTEX
  5
68
  8
0
 10
7.425000190734863
 20
-7.425000190734863
 30
-63.5
 70
   192
  0
VERTEX
  5
69
  8
0
 10
6.0
 20
-6.0
 30
-63.5
 70
   192
  0
VERTEX
  5
6A
  8
0
 10
0.0
 20
-10.5
 30
-63.5
 70
   192
  0
VERTEX
  5
6B
  8
0
 10
-6.0
 20
-6.0
 30
-63.5
 70
   192
  0
VERTEX
  5
6C
  8
0
 10
-10.5
 20
0.0
 30
-63.5
 70
   192
  0
VERTEX
  5
6D
  8
0
 10
-6.0
 20
6.0
 30
-63.5
 70
   192
  0
VERTEX
  5
6E
  8
0
 10
-7.425000190734863
 20
-7.425000190734863
 30
-63.5
 70
   192
  0
VERTEX
  5
6F
  8
0
 10
-7.425000190734863
 20
7.425000190734863
 30
-63.5
 70
   192
  0
VERTEX
  5
70
  8
0
 62
     9
 10
0.0
 20
0.0
 30
0.0
 70
   128
 71
     3
 72
     2
 73
     1
  0
VERTEX
  5
71
  8
0
 62
     9
 10
0.0
 20
0.0
 30
0.0
 70
   128
 71
     6
 72
     5
 73
     4
  0
VERTEX
  5
72
  8
0
 62
     9
 10
0.0
 20
0.0
 30
0.0
 70
   128
 71
     6
 72
     8
 73
     7
  0
VERTEX
  5
73
  8
0
 62
     9
 10
0.0
 20
0.0
 30
0.0
 70
   128
 71
     8
 72
    10
 73
     9
  0
VERTEX
  5
74
  8
0
 62
     9
 10
0.0
 20
0.0
 30
0.0
 70
   128
 71
     1
 72
    10
 73
     3
  0
VERTEX
  5
75
  8
0
 62
     9
 10
0.0
 20
0.0
 30
0.0
 70
   128
 71
     4
 72
     3
 73
     6
  0
VERTEX
  5
76
  8
0
 62
     9
 10
0.0
 20
0.0
 30
0.0
 70
   128
 71
     8
 72
    11
 73
     7
  0
VERTEX
  5
77
  8
0
 62
     9
 10
0.0
 20
0.0
 30
0.0
 70
   128
 71
     9
 72
    11
 73
     8
  0
VERTEX
  5
78
  8
0
 62
     9
 10
0.0
 20
0.0
 30
0.0
 70
   128
 71
     4
 72
     2
 73
     3
  0
VERTEX
  5
79
  8
0
 62
     9
 10
0.0
 20
0.0
 30
0.0
 70
   128
 71
    10
 72
    12
 73
     9
  0
VERTEX
  5
7A
  8
0
 62
     9
 10
0.0
 20
0.0
 30
0.0
 70
   128
 71
     7
 72
     5
 73
     6
  0
VERTEX
  5
7B
  8
0
 62
     9
 10
0.0
 20
0.0
 30
0.0
 70
   128
 71
     1
 72
    12
 73
    10
  0
SEQEND
  5
7C
  8
0
 62
     9
  0
ENDBLK
  5
7F
  8
0
  0
BLOCK
  8
0
  2
E3_NODE_2_
 70
     0
 10
0.0
 20
0.0
 30
0.0
  3
E3_NODE_2_
  1

  0
POLYLINE
  5
81
  8
0
 62
     9
 66
     1
 10
0.0
 20
0.0
 30
0.0
 70
    64
 71
     4
 72
     2
  0
VERTEX
  5
82
  8
0
 10
-6.0
 20
6.0
 30
-63.5
 70
   192
  0
VERTEX
  5
83
  8
0
 10
-6.0
 20
6.0
 30
-71.5
 70
   192
  0
VERTEX
  5
84
  8
0
 10
-6.0
 20
-6.0
 30
-71.5
 70
   192
  0
VERTEX
  5
85
  8
0
 10
-6.0
 20
-6.0
 30
-63.5
 70
   192
  0
VERTEX
  5
86
  8
0
 62
     9
 10
0.0
 20
0.0
 30
0.0
 70
   128
 71
     3
 72
     2
 73
     1
  0
VERTEX
  5
87
  8
0
 62
     9
 10
0.0
 20
0.0
 30
0.0
 70
   128
 71
     1
 72
     4
 73
     3
  0
SEQEND
  5
88
  8
0
 62
     9
  0
ENDBLK
  5
8B
  8
0
  0
BLOCK
  8
0
  2
E3_NODE_3_
 70
     0
 10
0.0
 20
0.0
 30
0.0
  3
E3_NODE_3_
  1

  0
POLYLINE
  5
8D
  8
0
 62
     9
 66
     1
 10
0.0
 20
0.0
 30
0.0
 70
    64
 71
     4
 72
     2
  0
VERTEX
  5
8E
  8
0
 10
6.0
 20
-6.0
 30
-71.5
 70
   192
  0
VERTEX
  5
8F
  8
0
 10
-6.0
 20
-6.0
 30
-71.5
 70
   192
  0
VERTEX
  5
90
  8
0
 10
-6.0
 20
6.0
 30
-71.5
 70
   192
  0
VERTEX
  5
91
  8
0
 10
6.0
 20
6.0
 30
-71.5
 70
   192
  0
VERTEX
  5
92
  8
0
 62
     9
 10
0.0
 20
0.0
 30
0.0
 70
   128
 71
     3
 72
     2
 73
     1
  0
VERTEX
  5
93
  8
0
 62
     9
 10
0.0
 20
0.0
 30
0.0
 70
   128
 71
     1
 72
     4
 73
     3
  0
SEQEND
  5
94
  8
0
 62
     9
  0
ENDBLK
  5
97
  8
0
  0
BLOCK
  8
0
  2
E3_NODE_4_
 70
     0
 10
0.0
 20
0.0
 30
0.0
  3
E3_NODE_4_
  1

  0
POLYLINE
  5
99
  8
0
 62
     9
 66
     1
 10
0.0
 20
0.0
 30
0.0
 70
    64
 71
     4
 72
     2
  0
VERTEX
  5
9A
  8
0
 10
6.0
 20
6.0
 30
-63.5
 70
   192
  0
VERTEX
  5
9B
  8
0
 10
6.0
 20
6.0
 30
-71.5
 70
   192
  0
VERTEX
  5
9C
  8
0
 10
-6.0
 20
6.0
 30
-71.5
 70
   192
  0
VERTEX
  5
9D
  8
0
 10
-6.0
 20
6.0
 30
-63.5
 70
   192
  0
VERTEX
  5
9E
  8
0
 62
     9
 10
0.0
 20
0.0
 30
0.0
 70
   128
 71
     3
 72
     2
 73
     1
  0
VERTEX
  5
9F
  8
0
 62
     9
 10
0.0
 20
0.0
 30
0.0
 70
   128
 71
     1
 72
     4
 73
     3
  0
SEQEND
  5
A0
  8
0
 62
     9
  0
ENDBLK
  5
A3
  8
0
  0
BLOCK
  8
0
  2
E3_NODE_5_
 70
     0
 10
0.0
 20
0.0
 30
0.0
  3
E3_NODE_5_
  1

  0
POLYLINE
  5
A5
  8
0
 62
     9
 66
     1
 10
0.0
 20
0.0
 30
0.0
 70
    64
 71
     4
 72
     2
  0
VERTEX
  5
A6
  8
0
 10
6.0
 20
6.0
 30
-63.5
 70
   192
  0
VERTEX
  5
A7
  8
0
 10
6.0
 20
-6.0
 30
-63.5
 70
   192
  0
VERTEX
  5
A8
  8
0
 10
6.0
 20
-6.0
 30
-71.5
 70
   192
  0
VERTEX
  5
A9
  8
0
 10
6.0
 20
6.0
 30
-71.5
 70
   192
  0
VERTEX
  5
AA
  8
0
 62
     9
 10
0.0
 20
0.0
 30
0.0
 70
   128
 71
     3
 72
     2
 73
     1
  0
VERTEX
  5
AB
  8
0
 62
     9
 10
0.0
 20
0.0
 30
0.0
 70
   128
 71
     1
 72
     4
 73
     3
  0
SEQEND
  5
AC
  8
0
 62
     9
  0
ENDBLK
  5
AF
  8
0
  0
BLOCK
  8
0
  2
E3_NODE_6_
 70
     0
 10
0.0
 20
0.0
 30
0.0
  3
E3_NODE_6_
  1

  0
POLYLINE
  5
B1
  8
0
 62
     9
 66
     1
 10
0.0
 20
0.0
 30
0.0
 70
    64
 71
     4
 72
     2
  0
VERTEX
  5
B2
  8
0
 10
6.0
 20
-6.0
 30
-63.5
 70
   192
  0
VERTEX
  5
B3
  8
0
 10
-6.0
 20
-6.0
 30
-63.5
 70
   192
  0
VERTEX
  5
B4
  8
0
 10
-6.0
 20
-6.0
 30
-71.5
 70
   192
  0
VERTEX
  5
B5
  8
0
 10
6.0
 20
-6.0
 30
-71.5
 70
   192
  0
VERTEX
  5
B6
  8
0
 62
     9
 10
0.0
 20
0.0
 30
0.0
 70
   128
 71
     3
 72
     2
 73
     1
  0
VERTEX
  5
B7
  8
0
 62
     9
 10
0.0
 20
0.0
 30
0.0
 70
   128
 71
     1
 72
     4
 73
     3
  0
SEQEND
  5
B8
  8
0
 62
     9
  0
ENDBLK
  5
BB
  8
0
  0
BLOCK
  8
0
  2
E3_NODE_7_
 70
     0
 10
0.0
 20
0.0
 30
0.0
  3
E3_NODE_7_
  1

  0
POLYLINE
  5
BD
  8
0
 62
     9
 66
     1
 10
0.0
 20
0.0
 30
0.0
 70
    64
 71
    11
 72
     9
  0
VERTEX
  5
BE
  8
0
 10
12.94400024414062
 20
-75.0
 30
9.404999732971191
 70
   192
  0
VERTEX
  5
BF
  8
0
 10
4.943999767303467
 20
-75.0
 30
-15.21700000762939
 70
   192
  0
VERTEX
  5
C0
  8
0
 10
12.94400024414062
 20
-75.0
 30
-9.404999732971191
 70
   192
  0
VERTEX
  5
C1
  8
0
 10
-4.943999767303467
 20
-75.0
 30
15.21700000762939
 70
   192
  0
VERTEX
  5
C2
  8
0
 10
-16.0
 20
-75.0
 30
0.0
 70
   192
  0
VERTEX
  5
C3
  8
0
 10
-12.94400024414062
 20
-75.0
 30
-9.404999732971191
 70
   192
  0
VERTEX
  5
C4
  8
0
 10
-4.943999767303467
 20
-75.0
 30
-15.21700000762939
 70
   192
  0
VERTEX
  5
C5
  8
0
 10
-12.94400024414062
 20
-75.0
 30
9.404999732971191
 70
   192
  0
VERTEX
  5
C6
  8
0
 10
16.0
 20
-75.0
 30
0.0
 70
   192
  0
VERTEX
  5
C7
  8
0
 10
0.0
 20
-75.0
 30
16.0
 70
   192
  0
VERTEX
  5
C8
  8
0
 10
4.943999767303467
 20
-75.0
 30
15.21700000762939
 70
   192
  0
VERTEX
  5
C9
  8
0
 62
     9
 10
0.0
 20
0.0
 30
0.0
 70
   128
 71
     3
 72
     2
 73
     1
  0
VERTEX
  5
CA
  8
0
 62
     9
 10
0.0
 20
0.0
 30
0.0
 70
   128
 71
     6
 72
     5
 73
     4
  0
VERTEX
  5
CB
  8
0
 62
     9
 10
0.0
 20
0.0
 30
0.0
 70
   128
 71
     2
 72
     7
 73
     1
  0
VERTEX
  5
CC
  8
0
 62
     9
 10
0.0
 20
0.0
 30
0.0
 70
   128
 71
     5
 72
     8
 73
     4
  0
VERTEX
  5
CD
  8
0
 62
     9
 10
0.0
 20
0.0
 30
0.0
 70
   128
 71
     1
 72
     9
 73
     3
  0
VERTEX
  5
CE
  8
0
 62
     9
 10
0.0
 20
0.0
 30
0.0
 70
   128
 71
     4
 72
    10
 73
     7
  0
VERTEX
  5
CF
  8
0
 62
     9
 10
0.0
 20
0.0
 30
0.0
 70
   128
 71
     7
 72
    11
 73
     1
  0
VERTEX
  5
D0
  8
0
 62
     9
 10
0.0
 20
0.0
 30
0.0
 70
   128
 71
     7
 72
    10
 73
    11
  0
VERTEX
  5
D1
  8
0
 62
     9
 10
0.0
 20
0.0
 30
0.0
 70
   128
 71
     4
 72
     7
 73
     6
  0
SEQEND
  5
D2
  8
0
 62
     9
  0
ENDBLK
  5
D5
  8
0
  0
BLOCK
  8
0
  2
E3_NODE_8_
 70
     0
 10
0.0
 20
0.0
 30
0.0
  3
E3_NODE_8_
  1

  0
POLYLINE
  5
D7
  8
0
 62
     9
 66
     1
 10
0.0
 20
0.0
 30
0.0
 70
    64
 71
    66
 72
    66
  0
VERTEX
  5
D8
  8
0
 10
-12.94400024414062
 20
-75.0
 30
-9.404999732971191
 70
   192
  0
VERTEX
  5
D9
  8
0
 10
-14.125
 20
-58.35599899291992
 30
-7.515999794006348
 70
   192
  0
VERTEX
  5
DA
  8
0
 10
-13.73099994659424
 20
-58.01699829101562
 30
-8.213000297546387
 70
   192
  0
VERTEX
  5
DB
  8
0
 10
-15.39099979400635
 20
-59.46099853515625
 30
-4.372000217437744
 70
   192
  0
VERTEX
  5
DC
  8
0
 10
-15.65900039672852
 20
-59.69699859619141
 30
-3.286999940872192
 70
   192
  0
VERTEX
  5
DD
  8
0
 10
-16.0
 20
-75.0
 30
0.0
 70
   192
  0
VERTEX
  5
DE
  8
0
 10
-16.0
 20
-60.0
 30
0.0
 70
   192
  0
VERTEX
  5
DF
  8
0
 10
-4.943999767303467
 20
-75.0
 30
-15.21700000762939
 70
   192
  0
VERTEX
  5
E0
  8
0
 10
-7.135000228881836
 20
-52.90399932861328
 30
-14.32100009918213
 70
   192
  0
VERTEX
  5
E1
  8
0
 10
-5.464000225067139
 20
-51.89199829101562
 30
-15.03800010681152
 70
   192
  0
VERTEX
  5
E2
  8
0
 10
-10.1850004196167
 20
-55.10499954223633
 30
-12.34000015258789
 70
   192
  0
VERTEX
  5
E3
  8
0
 10
-11.54199981689453
 20
-56.18500137329102
 30
-11.08100032806396
 70
   192
  0
VERTEX
  5
E4
  8
0
 10
-12.86699962615967
 20
-57.29399871826172
 30
-9.345999717712402
 70
   192
  0
VERTEX
  5
E5
  8
0
 10
-12.60499954223633
 20
-57.07500076293945
 30
-9.687999725341797
 70
   192
  0
VERTEX
  5
E6
  8
0
 10
4.943999767303467
 20
-75.0
 30
-15.21700000762939
 70
   192
  0
VERTEX
  5
E7
  8
0
 10
-2.621000051498413
 20
-50.65299987792969
 30
-15.78400039672852
 70
   192
  0
VERTEX
  5
E8
  8
0
 10
-0.0060000000521541
 20
-50.24599838256836
 30
-16.0
 70
   192
  0
VERTEX
  5
E9
  8
0
 10
2.617000102996826
 20
-50.6510009765625
 30
-15.78499984741211
 70
   192
  0
VERTEX
  5
EA
  8
0
 10
-4.934000015258789
 20
-51.6609992980957
 30
-15.17700004577637
 70
   192
  0
VERTEX
  5
EB
  8
0
 10
12.61999988555908
 20
-57.08599853515625
 30
-9.694000244140625
 70
   192
  0
VERTEX
  5
EC
  8
0
 10
12.89099979400635
 20
-57.3120002746582
 30
-9.361000061035156
 70
   192
  0
VERTEX
  5
ED
  8
0
 10
11.22200012207031
 20
-55.92599868774414
 30
-11.4040002822876
 70
   192
  0
VERTEX
  5
EE
  8
0
 10
4.932000160217285
 20
-51.66899871826172
 30
-15.17000007629395
 70
   192
  0
VERTEX
  5
EF
  8
0
 10
5.553999900817871
 20
-51.94200134277344
 30
-15.00500011444092
 70
   192
  0
VERTEX
  5
F0
  8
0
 10
6.170000076293945
 20
-52.29899978637695
 30
-14.76299953460693
 70
   192
  0
VERTEX
  5
F1
  8
0
 10
9.440999984741211
 20
-54.53499984741211
 30
-12.91800022125244
 70
   192
  0
VERTEX
  5
F2
  8
0
 10
16.0
 20
-75.0
 30
0.0
 70
   192
  0
VERTEX
  5
F3
  8
0
 10
12.94400024414062
 20
-75.0
 30
-9.404999732971191
 70
   192
  0
VERTEX
  5
F4
  8
0
 10
15.68000030517578
 20
-59.71699905395508
 30
-3.181999921798706
 70
   192
  0
VERTEX
  5
F5
  8
0
 10
15.99100017547607
 20
-59.99200057983398
 30
0.0010000000474975
 70
   192
  0
VERTEX
  5
F6
  8
0
 10
14.25100040435791
 20
-58.46500015258789
 30
-7.27299976348877
 70
   192
  0
VERTEX
  5
F7
  8
0
 10
15.44400024414062
 20
-59.50699996948242
 30
-4.182000160217285
 70
   192
  0
VERTEX
  5
F8
  8
0
 10
13.41499996185303
 20
-57.74700164794922
 30
-8.720000267028809
 70
   192
  0
VERTEX
  5
F9
  8
0
 10
12.94400024414062
 20
-75.0
 30
9.404999732971191
 70
   192
  0
VERTEX
  5
FA
  8
0
 10
13.6560001373291
 20
-57.95299911499023
 30
8.336999893188477
 70
   192
  0
VERTEX
  5
FB
  8
0
 10
13.35700035095215
 20
-57.69699859619141
 30
8.809000015258789
 70
   192
  0
VERTEX
  5
FC
  8
0
 10
15.11400032043457
 20
-59.21699905395508
 30
5.25
 70
   192
  0
VERTEX
  5
FD
  8
0
 10
15.32699966430664
 20
-59.40499877929688
 30
4.591000080108643
 70
   192
  0
VERTEX
  5
FE
  8
0
 10
15.94400024414062
 20
-59.95000076293945
 30
1.337000012397766
 70
   192
  0
VERTEX
  5
FF
  8
0
 10
16.0
 20
-60.0
 30
0.0930000022053719
 70
   192
  0
VERTEX
  5
100
  8
0
 10
4.943999767303467
 20
-75.0
 30
15.21700000762939
 70
   192
  0
VERTEX
  5
101
  8
0
 10
9.491999626159668
 20
-54.57300186157227
 30
12.88099956512451
 70
   192
  0
VERTEX
  5
102
  8
0
 10
6.510000228881836
 20
-52.50600051879883
 30
14.61600017547607
 70
   192
  0
VERTEX
  5
103
  8
0
 10
11.01500034332275
 20
-55.7599983215332
 30
11.60499954223633
 70
   192
  0
VERTEX
  5
104
  8
0
 10
12.89299964904785
 20
-57.31399917602539
 30
9.362000465393066
 70
   192
  0
VERTEX
  5
105
  8
0
 10
12.61699962615967
 20
-57.08499908447266
 30
9.692000389099121
 70
   192
  0
VERTEX
  5
106
  8
0
 10
0.0
 20
-75.0
 30
16.0
 70
   192
  0
VERTEX
  5
107
  8
0
 10
4.361000061035156
 20
-51.32799911499023
 30
15.39400005340576
 70
   192
  0
VERTEX
  5
108
  8
0
 10
1.629999995231628
 20
-50.40599822998047
 30
15.91699981689453
 70
   192
  0
VERTEX
  5
109
  8
0
 10
4.933000087738037
 20
-51.64199829101562
 30
15.1870002746582
 70
   192
  0
VERTEX
  5
10A
  8
0
 10
-4.320000171661377
 20
-51.30899810791016
 30
15.4060001373291
 70
   192
  0
VERTEX
  5
10B
  8
0
 10
-4.922999858856201
 20
-51.65900039672852
 30
15.16300010681152
 70
   192
  0
VERTEX
  5
10C
  8
0
 10
-1.330000042915344
 20
-50.35300064086914
 30
15.94499969482422
 70
   192
  0
VERTEX
  5
10D
  8
0
 10
-0.9760000109672546
 20
-50.30400085449219
 30
15.97000026702881
 70
   192
  0
VERTEX
  5
10E
  8
0
 10
-4.943999767303467
 20
-75.0
 30
15.21700000762939
 70
   192
  0
VERTEX
  5
10F
  8
0
 10
-12.77400016784668
 20
-57.20399856567383
 30
9.635000228881836
 70
   192
  0
VERTEX
  5
110
  8
0
 10
-12.92099952697754
 20
-57.33000183105469
 30
9.390000343322754
 70
   192
  0
VERTEX
  5
111
  8
0
 10
-11.61200046539307
 20
-56.24200057983398
 30
11.00800037384033
 70
   192
  0
VERTEX
  5
112
  8
0
 10
-12.69400024414062
 20
-57.13800048828125
 30
9.729000091552734
 70
   192
  0
VERTEX
  5
113
  8
0
 10
-7.551000118255615
 20
-53.18099975585938
 30
14.10599994659424
 70
   192
  0
VERTEX
  5
114
  8
0
 10
-8.829999923706055
 20
-54.08200073242188
 30
13.3430004119873
 70
   192
  0
VERTEX
  5
115
  8
0
 10
-12.94400024414062
 20
-75.0
 30
9.404999732971191
 70
   192
  0
VERTEX
  5
116
  8
0
 10
-15.82499980926514
 20
-59.84400177001953
 30
2.361000061035156
 70
   192
  0
VERTEX
  5
117
  8
0
 10
-15.93200016021729
 20
-59.93999862670898
 30
1.472000002861023
 70
   192
  0
VERTEX
  5
118
  8
0
 10
-15.00800037384033
 20
-59.12400054931641
 30
5.546000003814697
 70
   192
  0
VERTEX
  5
119
  8
0
 10
-14.51399993896484
 20
-58.69300079345703
 30
6.732999801635742
 70
   192
  0
VERTEX
  5
11A
  8
0
 62
     9
 10
0.0
 20
0.0
 30
0.0
 70
   128
 71
     3
 72
     2
 73
     1
  0
VERTEX
  5
11B
  8
0
 62
     9
 10
0.0
 20
0.0
 30
0.0
 70
   128
 71
     2
 72
     4
 73
     1
  0
VERTEX
  5
11C
  8
0
 62
     9
 10
0.0
 20
0.0
 30
0.0
 70
   128
 71
     4
 72
     5
 73
     1
  0
VERTEX
  5
11D
  8
0
 62
     9
 10
0.0
 20
0.0
 30
0.0
 70
   128
 71
     5
 72
     7
 73
     6
  0
VERTEX
  5
11E
  8
0
 62
     9
 10
0.0
 20
0.0
 30
0.0
 70
   128
 71
     6
 72
     1
 73
     5
  0
VERTEX
  5
11F
  8
0
 62
     9
 10
0.0
 20
0.0
 30
0.0
 70
   128
 71
    10
 72
     9
 73
     8
  0
VERTEX
  5
120
  8
0
 62
     9
 10
0.0
 20
0.0
 30
0.0
 70
   128
 71
     9
 72
    11
 73
     8
  0
VERTEX
  5
121
  8
0
 62
     9
 10
0.0
 20
0.0
 30
0.0
 70
   128
 71
    11
 72
    12
 73
     8
  0
VERTEX
  5
122
  8
0
 62
     9
 10
0.0
 20
0.0
 30
0.0
 70
   128
 71
    13
 72
     1
 73
     8
  0
VERTEX
  5
123
  8
0
 62
     9
 10
0.0
 20
0.0
 30
0.0
 70
   128
 71
     8
 72
    14
 73
    13
  0
VERTEX
  5
124
  8
0
 62
     9
 10
0.0
 20
0.0
 30
0.0
 70
   128
 71
     8
 72
    12
 73
    14
  0
VERTEX
  5
125
  8
0
 62
     9
 10
0.0
 20
0.0
 30
0.0
 70
   128
 71
    17
 72
    16
 73
    15
  0
VERTEX
  5
126
  8
0
 62
     9
 10
0.0
 20
0.0
 30
0.0
 70
   128
 71
    15
 72
    18
 73
    17
  0
VERTEX
  5
127
  8
0
 62
     9
 10
0.0
 20
0.0
 30
0.0
 70
   128
 71
    19
 72
     8
 73
    15
  0
VERTEX
  5
128
  8
0
 62
     9
 10
0.0
 20
0.0
 30
0.0
 70
   128
 71
    15
 72
    16
 73
    19
  0
VERTEX
  5
129
  8
0
 62
     9
 10
0.0
 20
0.0
 30
0.0
 70
   128
 71
    21
 72
    20
 73
    15
  0
VERTEX
  5
12A
  8
0
 62
     9
 10
0.0
 20
0.0
 30
0.0
 70
   128
 71
    20
 72
    22
 73
    15
  0
VERTEX
  5
12B
  8
0
 62
     9
 10
0.0
 20
0.0
 30
0.0
 70
   128
 71
    24
 72
    23
 73
    15
  0
VERTEX
  5
12C
  8
0
 62
     9
 10
0.0
 20
0.0
 30
0.0
 70
   128
 71
    15
 72
    25
 73
    24
  0
VERTEX
  5
12D
  8
0
 62
     9
 10
0.0
 20
0.0
 30
0.0
 70
   128
 71
    15
 72
    26
 73
    25
  0
VERTEX
  5
12E
  8
0
 62
     9
 10
0.0
 20
0.0
 30
0.0
 70
   128
 71
    15
 72
    22
 73
    26
  0
VERTEX
  5
12F
  8
0
 62
     9
 10
0.0
 20
0.0
 30
0.0
 70
   128
 71
    29
 72
    28
 73
    27
  0
VERTEX
  5
130
  8
0
 62
     9
 10
0.0
 20
0.0
 30
0.0
 70
   128
 71
    27
 72
    30
 73
    29
  0
VERTEX
  5
131
  8
0
 62
     9
 10
0.0
 20
0.0
 30
0.0
 70
   128
 71
    32
 72
    31
 73
    28
  0
VERTEX
  5
132
  8
0
 62
     9
 10
0.0
 20
0.0
 30
0.0
 70
   128
 71
    33
 72
    21
 73
    28
  0
VERTEX
  5
133
  8
0
 62
     9
 10
0.0
 20
0.0
 30
0.0
 70
   128
 71
    28
 72
    31
 73
    33
  0
VERTEX
  5
134
  8
0
 62
     9
 10
0.0
 20
0.0
 30
0.0
 70
   128
 71
    28
 72
    29
 73
    32
  0
VERTEX
  5
135
  8
0
 62
     9
 10
0.0
 20
0.0
 30
0.0
 70
   128
 71
    36
 72
    35
 73
    34
  0
VERTEX
  5
136
  8
0
 62
     9
 10
0.0
 20
0.0
 30
0.0
 70
   128
 71
    35
 72
    37
 73
    34
  0
VERTEX
  5
137
  8
0
 62
     9
 10
0.0
 20
0.0
 30
0.0
 70
   128
 71
    37
 72
    38
 73
    34
  0
VERTEX
  5
138
  8
0
 62
     9
 10
0.0
 20
0.0
 30
0.0
 70
   128
 71
    39
 72
    27
 73
    34
  0
VERTEX
  5
139
  8
0
 62
     9
 10
0.0
 20
0.0
 30
0.0
 70
   128
 71
    34
 72
    38
 73
    39
  0
VERTEX
  5
13A
  8
0
 62
     9
 10
0.0
 20
0.0
 30
0.0
 70
   128
 71
    39
 72
    40
 73
    27
  0
VERTEX
  5
13B
  8
0
 62
     9
 10
0.0
 20
0.0
 30
0.0
 70
   128
 71
    40
 72
    30
 73
    27
  0
VERTEX
  5
13C
  8
0
 62
     9
 10
0.0
 20
0.0
 30
0.0
 70
   128
 71
    43
 72
    42
 73
    41
  0
VERTEX
  5
13D
  8
0
 62
     9
 10
0.0
 20
0.0
 30
0.0
 70
   128
 71
    42
 72
    44
 73
    41
  0
VERTEX
  5
13E
  8
0
 62
     9
 10
0.0
 20
0.0
 30
0.0
 70
   128
 71
    45
 72
    34
 73
    41
  0
VERTEX
  5
13F
  8
0
 62
     9
 10
0.0
 20
0.0
 30
0.0
 70
   128
 71
    41
 72
    46
 73
    45
  0
VERTEX
  5
140
  8
0
 62
     9
 10
0.0
 20
0.0
 30
0.0
 70
   128
 71
    41
 72
    44
 73
    46
  0
VERTEX
  5
141
  8
0
 62
     9
 10
0.0
 20
0.0
 30
0.0
 70
   128
 71
    49
 72
    48
 73
    47
  0
VERTEX
  5
142
  8
0
 62
     9
 10
0.0
 20
0.0
 30
0.0
 70
   128
 71
    50
 72
    41
 73
    47
  0
VERTEX
  5
143
  8
0
 62
     9
 10
0.0
 20
0.0
 30
0.0
 70
   128
 71
    47
 72
    48
 73
    50
  0
VERTEX
  5
144
  8
0
 62
     9
 10
0.0
 20
0.0
 30
0.0
 70
   128
 71
    52
 72
    51
 73
    47
  0
VERTEX
  5
145
  8
0
 62
     9
 10
0.0
 20
0.0
 30
0.0
 70
   128
 71
    51
 72
    53
 73
    47
  0
VERTEX
  5
146
  8
0
 62
     9
 10
0.0
 20
0.0
 30
0.0
 70
   128
 71
    53
 72
    54
 73
    47
  0
VERTEX
  5
147
  8
0
 62
     9
 10
0.0
 20
0.0
 30
0.0
 70
   128
 71
    47
 72
    55
 73
    52
  0
VERTEX
  5
148
  8
0
 62
     9
 10
0.0
 20
0.0
 30
0.0
 70
   128
 71
    57
 72
    56
 73
    55
  0
VERTEX
  5
149
  8
0
 62
     9
 10
0.0
 20
0.0
 30
0.0
 70
   128
 71
    59
 72
    58
 73
    55
  0
VERTEX
  5
14A
  8
0
 62
     9
 10
0.0
 20
0.0
 30
0.0
 70
   128
 71
    60
 72
    52
 73
    55
  0
VERTEX
  5
14B
  8
0
 62
     9
 10
0.0
 20
0.0
 30
0.0
 70
   128
 71
    55
 72
    61
 73
    60
  0
VERTEX
  5
14C
  8
0
 62
     9
 10
0.0
 20
0.0
 30
0.0
 70
   128
 71
    55
 72
    58
 73
    61
  0
VERTEX
  5
14D
  8
0
 62
     9
 10
0.0
 20
0.0
 30
0.0
 70
   128
 71
    55
 72
    56
 73
    59
  0
VERTEX
  5
14E
  8
0
 62
     9
 10
0.0
 20
0.0
 30
0.0
 70
   128
 71
    63
 72
    62
 73
     6
  0
VERTEX
  5
14F
  8
0
 62
     9
 10
0.0
 20
0.0
 30
0.0
 70
   128
 71
     6
 72
    64
 73
    63
  0
VERTEX
  5
150
  8
0
 62
     9
 10
0.0
 20
0.0
 30
0.0
 70
   128
 71
    63
 72
    65
 73
    62
  0
VERTEX
  5
151
  8
0
 62
     9
 10
0.0
 20
0.0
 30
0.0
 70
   128
 71
    66
 72
    57
 73
    62
  0
VERTEX
  5
152
  8
0
 62
     9
 10
0.0
 20
0.0
 30
0.0
 70
   128
 71
    62
 72
    65
 73
    66
  0
VERTEX
  5
153
  8
0
 62
     9
 10
0.0
 20
0.0
 30
0.0
 70
   128
 71
     6
 72
     7
 73
    64
  0
VERTEX
  5
154
  8
0
 62
     9
 10
0.0
 20
0.0
 30
0.0
 70
   128
 71
    55
 72
    62
 73
    57
  0
VERTEX
  5
155
  8
0
 62
     9
 10
0.0
 20
0.0
 30
0.0
 70
   128
 71
    47
 72
    54
 73
    49
  0
VERTEX
  5
156
  8
0
 62
     9
 10
0.0
 20
0.0
 30
0.0
 70
   128
 71
    41
 72
    50
 73
    43
  0
VERTEX
  5
157
  8
0
 62
     9
 10
0.0
 20
0.0
 30
0.0
 70
   128
 71
    34
 72
    45
 73
    36
  0
VERTEX
  5
158
  8
0
 62
     9
 10
0.0
 20
0.0
 30
0.0
 70
   128
 71
    15
 72
    28
 73
    21
  0
VERTEX
  5
159
  8
0
 62
     9
 10
0.0
 20
0.0
 30
0.0
 70
   128
 71
    15
 72
    23
 73
    18
  0
VERTEX
  5
15A
  8
0
 62
     9
 10
0.0
 20
0.0
 30
0.0
 70
   128
 71
     8
 72
    19
 73
    10
  0
VERTEX
  5
15B
  8
0
 62
     9
 10
0.0
 20
0.0
 30
0.0
 70
   128
 71
     1
 72
    13
 73
     3
  0
SEQEND
  5
15C
  8
0
 62
     9
  0
ENDBLK
  5
15F
  8
0
  0
BLOCK
  8
0
  2
E3_NODE_9_
 70
     0
 10
0.0
 20
0.0
 30
0.0
  3
E3_NODE_9_
  1

  0
POLYLINE
  5
161
  8
0
 62
     9
 66
     1
 10
0.0
 20
0.0
 30
0.0
 70
    64
 71
    88
 72
    90
  0
VERTEX
  5
162
  8
0
 10
-18.0
 20
-39.4379997253418
 30
17.8169994354248
 70
   192
  0
VERTEX
  5
163
  8
0
 10
-18.0
 20
-49.47700119018555
 30
16.37299919128418
 70
   192
  0
VERTEX
  5
164
  8
0
 10
38.0
 20
-49.47700119018555
 30
16.37299919128418
 70
   192
  0
VERTEX
  5
165
  8
0
 10
-18.0
 20
-30.21299934387207
 30
13.60299968719482
 70
   192
  0
VERTEX
  5
166
  8
0
 10
12.5
 20
-36.15599822998047
 30
17.02499961853027
 70
   192
  0
VERTEX
  5
167
  8
0
 10
38.0
 20
-39.4379997253418
 30
17.8169994354248
 70
   192
  0
VERTEX
  5
168
  8
0
 10
38.0
 20
-36.15599822998047
 30
17.02499961853027
 70
   192
  0
VERTEX
  5
169
  8
0
 10
12.5
 20
-30.21299934387207
 30
13.60299968719482
 70
   192
  0
VERTEX
  5
16A
  8
0
 10
12.5
 20
-24.72900009155273
 30
5.071000099182129
 70
   192
  0
VERTEX
  5
16B
  8
0
 10
-18.0
 20
-24.72900009155273
 30
5.071000099182129
 70
   192
  0
VERTEX
  5
16C
  8
0
 10
-11.0
 20
-24.72900009155273
 30
-5.071000099182129
 70
   192
  0
VERTEX
  5
16D
  8
0
 10
-18.0
 20
-24.72900009155273
 30
-5.071000099182129
 70
   192
  0
VERTEX
  5
16E
  8
0
 10
-18.0
 20
-24.11100006103516
 30
2.0
 70
   192
  0
VERTEX
  5
16F
  8
0
 10
-11.0
 20
-24.11100006103516
 30
2.0
 70
   192
  0
VERTEX
  5
170
  8
0
 10
12.5
 20
-24.11100006103516
 30
2.0
 70
   192
  0
VERTEX
  5
171
  8
0
 10
-11.0
 20
-30.21299934387207
 30
-13.60299968719482
 70
   192
  0
VERTEX
  5
172
  8
0
 10
-18.0
 20
-30.21299934387207
 30
-13.60299968719482
 70
   192
  0
VERTEX
  5
173
  8
0
 10
-11.0
 20
-39.4379997253418
 30
-17.8169994354248
 70
   192
  0
VERTEX
  5
174
  8
0
 10
38.0
 20
-49.47700119018555
 30
-16.37299919128418
 70
   192
  0
VERTEX
  5
175
  8
0
 10
-18.0
 20
-49.47700119018555
 30
-16.37299919128418
 70
   192
  0
VERTEX
  5
176
  8
0
 10
31.5
 20
-47.03799819946289
 30
-17.2810001373291
 70
   192
  0
VERTEX
  5
177
  8
0
 10
26.5
 20
-44.38299942016602
 30
-17.84099960327148
 70
   192
  0
VERTEX
  5
178
  8
0
 10
31.5
 20
-44.38299942016602
 30
-17.84099960327148
 70
   192
  0
VERTEX
  5
179
  8
0
 10
-11.0
 20
-42.0
 30
-18.0
 70
   192
  0
VERTEX
  5
17A
  8
0
 10
-18.0
 20
-39.4379997253418
 30
-17.8169994354248
 70
   192
  0
VERTEX
  5
17B
  8
0
 10
26.5
 20
-42.0
 30
-18.0
 70
   192
  0
VERTEX
  5
17C
  8
0
 10
-18.0
 20
-57.14300155639648
 30
9.732000350952148
 70
   192
  0
VERTEX
  5
17D
  8
0
 10
-14.51399993896484
 20
-58.69300079345703
 30
6.732999801635742
 70
   192
  0
VERTEX
  5
17E
  8
0
 10
-12.92099952697754
 20
-57.33000183105469
 30
9.390000343322754
 70
   192
  0
VERTEX
  5
17F
  8
0
 10
-15.00800037384033
 20
-59.12400054931641
 30
5.546000003814697
 70
   192
  0
VERTEX
  5
180
  8
0
 10
-18.0
 20
-60.0
 30
0.0
 70
   192
  0
VERTEX
  5
181
  8
0
 10
-15.82499980926514
 20
-59.84400177001953
 30
2.361000061035156
 70
   192
  0
VERTEX
  5
182
  8
0
 10
-16.0
 20
-60.0
 30
0.0
 70
   192
  0
VERTEX
  5
183
  8
0
 10
-15.93200016021729
 20
-59.93999862670898
 30
1.472000002861023
 70
   192
  0
VERTEX
  5
184
  8
0
 10
-12.77400016784668
 20
-57.20399856567383
 30
9.635000228881836
 70
   192
  0
VERTEX
  5
185
  8
0
 10
11.01500034332275
 20
-55.7599983215332
 30
11.60499954223633
 70
   192
  0
VERTEX
  5
186
  8
0
 10
12.61699962615967
 20
-57.08499908447266
 30
9.692000389099121
 70
   192
  0
VERTEX
  5
187
  8
0
 10
9.491999626159668
 20
-54.57300186157227
 30
12.88099956512451
 70
   192
  0
VERTEX
  5
188
  8
0
 10
6.510000228881836
 20
-52.50600051879883
 30
14.61600017547607
 70
   192
  0
VERTEX
  5
189
  8
0
 10
4.361000061035156
 20
-51.32799911499023
 30
15.39400005340576
 70
   192
  0
VERTEX
  5
18A
  8
0
 10
4.933000087738037
 20
-51.64199829101562
 30
15.1870002746582
 70
   192
  0
VERTEX
  5
18B
  8
0
 10
1.629999995231628
 20
-50.40599822998047
 30
15.91699981689453
 70
   192
  0
VERTEX
  5
18C
  8
0
 10
-0.9760000109672546
 20
-50.30400085449219
 30
15.97000026702881
 70
   192
  0
VERTEX
  5
18D
  8
0
 10
-4.320000171661377
 20
-51.30899810791016
 30
15.4060001373291
 70
   192
  0
VERTEX
  5
18E
  8
0
 10
-1.330000042915344
 20
-50.35300064086914
 30
15.94499969482422
 70
   192
  0
VERTEX
  5
18F
  8
0
 10
-7.551000118255615
 20
-53.18099975585938
 30
14.10599994659424
 70
   192
  0
VERTEX
  5
190
  8
0
 10
-4.922999858856201
 20
-51.65900039672852
 30
15.16300010681152
 70
   192
  0
VERTEX
  5
191
  8
0
 10
-12.69400024414062
 20
-57.13800048828125
 30
9.729000091552734
 70
   192
  0
VERTEX
  5
192
  8
0
 10
-11.61200046539307
 20
-56.24200057983398
 30
11.00800037384033
 70
   192
  0
VERTEX
  5
193
  8
0
 10
-8.829999923706055
 20
-54.08200073242188
 30
13.3430004119873
 70
   192
  0
VERTEX
  5
194
  8
0
 10
38.0
 20
-60.0
 30
0.0
 70
   192
  0
VERTEX
  5
195
  8
0
 10
16.0
 20
-60.0
 30
0.0930000022053719
 70
   192
  0
VERTEX
  5
196
  8
0
 10
15.99100017547607
 20
-59.99200057983398
 30
0.0010000000474975
 70
   192
  0
VERTEX
  5
197
  8
0
 10
38.0
 20
-57.14300155639648
 30
9.732000350952148
 70
   192
  0
VERTEX
  5
198
  8
0
 10
15.32699966430664
 20
-59.40499877929688
 30
4.591000080108643
 70
   192
  0
VERTEX
  5
199
  8
0
 10
15.94400024414062
 20
-59.95000076293945
 30
1.337000012397766
 70
   192
  0
VERTEX
  5
19A
  8
0
 10
13.35700035095215
 20
-57.69699859619141
 30
8.809000015258789
 70
   192
  0
VERTEX
  5
19B
  8
0
 10
13.6560001373291
 20
-57.95299911499023
 30
8.336999893188477
 70
   192
  0
VERTEX
  5
19C
  8
0
 10
12.89299964904785
 20
-57.31399917602539
 30
9.362000465393066
 70
   192
  0
VERTEX
  5
19D
  8
0
 10
15.11400032043457
 20
-59.21699905395508
 30
5.25
 70
   192
  0
VERTEX
  5
19E
  8
0
 10
38.0
 20
-57.14300155639648
 30
-9.732000350952148
 70
   192
  0
VERTEX
  5
19F
  8
0
 10
13.41499996185303
 20
-57.74700164794922
 30
-8.720000267028809
 70
   192
  0
VERTEX
  5
1A0
  8
0
 10
12.89099979400635
 20
-57.3120002746582
 30
-9.361000061035156
 70
   192
  0
VERTEX
  5
1A1
  8
0
 10
14.25100040435791
 20
-58.46500015258789
 30
-7.27299976348877
 70
   192
  0
VERTEX
  5
1A2
  8
0
 10
15.68000030517578
 20
-59.71699905395508
 30
-3.181999921798706
 70
   192
  0
VERTEX
  5
1A3
  8
0
 10
15.44400024414062
 20
-59.50699996948242
 30
-4.182000160217285
 70
   192
  0
VERTEX
  5
1A4
  8
0
 10
-11.54199981689453
 20
-56.18500137329102
 30
-11.08100032806396
 70
   192
  0
VERTEX
  5
1A5
  8
0
 10
-12.60499954223633
 20
-57.07500076293945
 30
-9.687999725341797
 70
   192
  0
VERTEX
  5
1A6
  8
0
 10
-10.1850004196167
 20
-55.10499954223633
 30
-12.34000015258789
 70
   192
  0
VERTEX
  5
1A7
  8
0
 10
-7.135000228881836
 20
-52.90399932861328
 30
-14.32100009918213
 70
   192
  0
VERTEX
  5
1A8
  8
0
 10
-5.464000225067139
 20
-51.89199829101562
 30
-15.03800010681152
 70
   192
  0
VERTEX
  5
1A9
  8
0
 10
-2.621000051498413
 20
-50.65299987792969
 30
-15.78400039672852
 70
   192
  0
VERTEX
  5
1AA
  8
0
 10
-4.934000015258789
 20
-51.6609992980957
 30
-15.17700004577637
 70
   192
  0
VERTEX
  5
1AB
  8
0
 10
-0.0060000000521541
 20
-50.24599838256836
 30
-16.0
 70
   192
  0
VERTEX
  5
1AC
  8
0
 10
2.617000102996826
 20
-50.6510009765625
 30
-15.78499984741211
 70
   192
  0
VERTEX
  5
1AD
  8
0
 10
5.553999900817871
 20
-51.94200134277344
 30
-15.00500011444092
 70
   192
  0
VERTEX
  5
1AE
  8
0
 10
4.932000160217285
 20
-51.66899871826172
 30
-15.17000007629395
 70
   192
  0
VERTEX
  5
1AF
  8
0
 10
9.440999984741211
 20
-54.53499984741211
 30
-12.91800022125244
 70
   192
  0
VERTEX
  5
1B0
  8
0
 10
6.170000076293945
 20
-52.29899978637695
 30
-14.76299953460693
 70
   192
  0
VERTEX
  5
1B1
  8
0
 10
12.61999988555908
 20
-57.08599853515625
 30
-9.694000244140625
 70
   192
  0
VERTEX
  5
1B2
  8
0
 10
11.22200012207031
 20
-55.92599868774414
 30
-11.4040002822876
 70
   192
  0
VERTEX
  5
1B3
  8
0
 10
-18.0
 20
-57.14300155639648
 30
-9.732000350952148
 70
   192
  0
VERTEX
  5
1B4
  8
0
 10
-15.65900039672852
 20
-59.69699859619141
 30
-3.286999940872192
 70
   192
  0
VERTEX
  5
1B5
  8
0
 10
-12.86699962615967
 20
-57.29399871826172
 30
-9.345999717712402
 70
   192
  0
VERTEX
  5
1B6
  8
0
 10
-13.73099994659424
 20
-58.01699829101562
 30
-8.213000297546387
 70
   192
  0
VERTEX
  5
1B7
  8
0
 10
-14.125
 20
-58.35599899291992
 30
-7.515999794006348
 70
   192
  0
VERTEX
  5
1B8
  8
0
 10
-15.39099979400635
 20
-59.46099853515625
 30
-4.372000217437744
 70
   192
  0
VERTEX
  5
1B9
  8
0
 10
38.0
 20
-47.03799819946289
 30
-17.2810001373291
 70
   192
  0
VERTEX
  5
1BA
  8
0
 62
     9
 10
0.0
 20
0.0
 30
0.0
 70
   128
 71
     3
 72
     2
 73
     1
  0
VERTEX
  5
1BB
  8
0
 62
     9
 10
0.0
 20
0.0
 30
0.0
 70
   128
 71
     5
 72
     1
 73
     4
  0
VERTEX
  5
1BC
  8
0
 62
     9
 10
0.0
 20
0.0
 30
0.0
 70
   128
 71
     5
 72
     7
 73
     6
  0
VERTEX
  5
1BD
  8
0
 62
     9
 10
0.0
 20
0.0
 30
0.0
 70
   128
 71
     6
 72
     1
 73
     5
  0
VERTEX
  5
1BE
  8
0
 62
     9
 10
0.0
 20
0.0
 30
0.0
 70
   128
 71
    10
 72
     9
 73
     8
  0
VERTEX
  5
1BF
  8
0
 62
     9
 10
0.0
 20
0.0
 30
0.0
 70
   128
 71
    13
 72
    12
 73
    11
  0
VERTEX
  5
1C0
  8
0
 62
     9
 10
0.0
 20
0.0
 30
0.0
 70
   128
 71
    11
 72
    14
 73
    13
  0
VERTEX
  5
1C1
  8
0
 62
     9
 10
0.0
 20
0.0
 30
0.0
 70
   128
 71
    14
 72
    15
 73
     9
  0
VERTEX
  5
1C2
  8
0
 62
     9
 10
0.0
 20
0.0
 30
0.0
 70
   128
 71
     9
 72
    10
 73
    14
  0
VERTEX
  5
1C3
  8
0
 62
     9
 10
0.0
 20
0.0
 30
0.0
 70
   128
 71
    12
 72
    17
 73
    16
  0
VERTEX
  5
1C4
  8
0
 62
     9
 10
0.0
 20
0.0
 30
0.0
 70
   128
 71
    18
 72
    16
 73
    17
  0
VERTEX
  5
1C5
  8
0
 62
     9
 10
0.0
 20
0.0
 30
0.0
 70
   128
 71
    21
 72
    20
 73
    19
  0
VERTEX
  5
1C6
  8
0
 62
     9
 10
0.0
 20
0.0
 30
0.0
 70
   128
 71
    22
 72
    20
 73
    21
  0
VERTEX
  5
1C7
  8
0
 62
     9
 10
0.0
 20
0.0
 30
0.0
 70
   128
 71
    21
 72
    23
 73
    22
  0
VERTEX
  5
1C8
  8
0
 62
     9
 10
0.0
 20
0.0
 30
0.0
 70
   128
 71
    24
 72
    20
 73
    22
  0
VERTEX
  5
1C9
  8
0
 62
     9
 10
0.0
 20
0.0
 30
0.0
 70
   128
 71
    24
 72
    18
 73
    25
  0
VERTEX
  5
1CA
  8
0
 62
     9
 10
0.0
 20
0.0
 30
0.0
 70
   128
 71
    25
 72
    20
 73
    24
  0
VERTEX
  5
1CB
  8
0
 62
     9
 10
0.0
 20
0.0
 30
0.0
 70
   128
 71
    22
 72
    26
 73
    24
  0
VERTEX
  5
1CC
  8
0
 62
     9
 10
0.0
 20
0.0
 30
0.0
 70
   128
 71
    29
 72
    28
 73
    27
  0
VERTEX
  5
1CD
  8
0
 62
     9
 10
0.0
 20
0.0
 30
0.0
 70
   128
 71
    28
 72
    30
 73
    27
  0
VERTEX
  5
1CE
  8
0
 62
     9
 10
0.0
 20
0.0
 30
0.0
 70
   128
 71
    32
 72
    31
 73
    27
  0
VERTEX
  5
1CF
  8
0
 62
     9
 10
0.0
 20
0.0
 30
0.0
 70
   128
 71
    34
 72
    33
 73
    31
  0
VERTEX
  5
1D0
  8
0
 62
     9
 10
0.0
 20
0.0
 30
0.0
 70
   128
 71
    31
 72
    32
 73
    34
  0
VERTEX
  5
1D1
  8
0
 62
     9
 10
0.0
 20
0.0
 30
0.0
 70
   128
 71
    27
 72
    30
 73
    32
  0
VERTEX
  5
1D2
  8
0
 62
     9
 10
0.0
 20
0.0
 30
0.0
 70
   128
 71
    27
 72
    35
 73
    29
  0
VERTEX
  5
1D3
  8
0
 62
     9
 10
0.0
 20
0.0
 30
0.0
 70
   128
 71
    37
 72
    36
 73
     3
  0
VERTEX
  5
1D4
  8
0
 62
     9
 10
0.0
 20
0.0
 30
0.0
 70
   128
 71
    36
 72
    38
 73
     3
  0
VERTEX
  5
1D5
  8
0
 62
     9
 10
0.0
 20
0.0
 30
0.0
 70
   128
 71
    38
 72
    39
 73
     3
  0
VERTEX
  5
1D6
  8
0
 62
     9
 10
0.0
 20
0.0
 30
0.0
 70
   128
 71
    41
 72
    40
 73
     3
  0
VERTEX
  5
1D7
  8
0
 62
     9
 10
0.0
 20
0.0
 30
0.0
 70
   128
 71
     3
 72
    39
 73
    41
  0
VERTEX
  5
1D8
  8
0
 62
     9
 10
0.0
 20
0.0
 30
0.0
 70
   128
 71
    40
 72
    42
 73
     3
  0
VERTEX
  5
1D9
  8
0
 62
     9
 10
0.0
 20
0.0
 30
0.0
 70
   128
 71
    43
 72
     2
 73
     3
  0
VERTEX
  5
1DA
  8
0
 62
     9
 10
0.0
 20
0.0
 30
0.0
 70
   128
 71
    45
 72
    44
 73
     2
  0
VERTEX
  5
1DB
  8
0
 62
     9
 10
0.0
 20
0.0
 30
0.0
 70
   128
 71
     2
 72
    43
 73
    45
  0
VERTEX
  5
1DC
  8
0
 62
     9
 10
0.0
 20
0.0
 30
0.0
 70
   128
 71
    47
 72
    46
 73
     2
  0
VERTEX
  5
1DD
  8
0
 62
     9
 10
0.0
 20
0.0
 30
0.0
 70
   128
 71
    48
 72
    27
 73
     2
  0
VERTEX
  5
1DE
  8
0
 62
     9
 10
0.0
 20
0.0
 30
0.0
 70
   128
 71
     2
 72
    49
 73
    48
  0
VERTEX
  5
1DF
  8
0
 62
     9
 10
0.0
 20
0.0
 30
0.0
 70
   128
 71
     2
 72
    50
 73
    49
  0
VERTEX
  5
1E0
  8
0
 62
     9
 10
0.0
 20
0.0
 30
0.0
 70
   128
 71
     2
 72
    46
 73
    50
  0
VERTEX
  5
1E1
  8
0
 62
     9
 10
0.0
 20
0.0
 30
0.0
 70
   128
 71
     2
 72
    44
 73
    47
  0
VERTEX
  5
1E2
  8
0
 62
     9
 10
0.0
 20
0.0
 30
0.0
 70
   128
 71
     3
 72
    42
 73
    43
  0
VERTEX
  5
1E3
  8
0
 62
     9
 10
0.0
 20
0.0
 30
0.0
 70
   128
 71
    53
 72
    52
 73
    51
  0
VERTEX
  5
1E4
  8
0
 62
     9
 10
0.0
 20
0.0
 30
0.0
 70
   128
 71
    56
 72
    55
 73
    54
  0
VERTEX
  5
1E5
  8
0
 62
     9
 10
0.0
 20
0.0
 30
0.0
 70
   128
 71
    58
 72
    57
 73
    54
  0
VERTEX
  5
1E6
  8
0
 62
     9
 10
0.0
 20
0.0
 30
0.0
 70
   128
 71
    59
 72
    37
 73
    54
  0
VERTEX
  5
1E7
  8
0
 62
     9
 10
0.0
 20
0.0
 30
0.0
 70
   128
 71
    54
 72
    57
 73
    59
  0
VERTEX
  5
1E8
  8
0
 62
     9
 10
0.0
 20
0.0
 30
0.0
 70
   128
 71
    54
 72
    60
 73
    58
  0
VERTEX
  5
1E9
  8
0
 62
     9
 10
0.0
 20
0.0
 30
0.0
 70
   128
 71
    54
 72
    55
 73
    60
  0
VERTEX
  5
1EA
  8
0
 62
     9
 10
0.0
 20
0.0
 30
0.0
 70
   128
 71
    54
 72
    51
 73
    56
  0
VERTEX
  5
1EB
  8
0
 62
     9
 10
0.0
 20
0.0
 30
0.0
 70
   128
 71
    51
 72
    52
 73
    56
  0
VERTEX
  5
1EC
  8
0
 62
     9
 10
0.0
 20
0.0
 30
0.0
 70
   128
 71
    63
 72
    62
 73
    61
  0
VERTEX
  5
1ED
  8
0
 62
     9
 10
0.0
 20
0.0
 30
0.0
 70
   128
 71
    62
 72
    64
 73
    61
  0
VERTEX
  5
1EE
  8
0
 62
     9
 10
0.0
 20
0.0
 30
0.0
 70
   128
 71
    66
 72
    65
 73
    61
  0
VERTEX
  5
1EF
  8
0
 62
     9
 10
0.0
 20
0.0
 30
0.0
 70
   128
 71
    65
 72
    53
 73
    51
  0
VERTEX
  5
1F0
  8
0
 62
     9
 10
0.0
 20
0.0
 30
0.0
 70
   128
 71
    51
 72
    61
 73
    65
  0
VERTEX
  5
1F1
  8
0
 62
     9
 10
0.0
 20
0.0
 30
0.0
 70
   128
 71
    61
 72
    64
 73
    66
  0
VERTEX
  5
1F2
  8
0
 62
     9
 10
0.0
 20
0.0
 30
0.0
 70
   128
 71
    68
 72
    67
 73
    20
  0
VERTEX
  5
1F3
  8
0
 62
     9
 10
0.0
 20
0.0
 30
0.0
 70
   128
 71
    67
 72
    69
 73
    20
  0
VERTEX
  5
1F4
  8
0
 62
     9
 10
0.0
 20
0.0
 30
0.0
 70
   128
 71
    69
 72
    70
 73
    20
  0
VERTEX
  5
1F5
  8
0
 62
     9
 10
0.0
 20
0.0
 30
0.0
 70
   128
 71
    70
 72
    71
 73
    20
  0
VERTEX
  5
1F6
  8
0
 62
     9
 10
0.0
 20
0.0
 30
0.0
 70
   128
 71
    73
 72
    72
 73
    20
  0
VERTEX
  5
1F7
  8
0
 62
     9
 10
0.0
 20
0.0
 30
0.0
 70
   128
 71
    20
 72
    71
 73
    73
  0
VERTEX
  5
1F8
  8
0
 62
     9
 10
0.0
 20
0.0
 30
0.0
 70
   128
 71
    72
 72
    74
 73
    20
  0
VERTEX
  5
1F9
  8
0
 62
     9
 10
0.0
 20
0.0
 30
0.0
 70
   128
 71
    74
 72
    75
 73
    19
  0
VERTEX
  5
1FA
  8
0
 62
     9
 10
0.0
 20
0.0
 30
0.0
 70
   128
 71
    77
 72
    76
 73
    19
  0
VERTEX
  5
1FB
  8
0
 62
     9
 10
0.0
 20
0.0
 30
0.0
 70
   128
 71
    79
 72
    78
 73
    19
  0
VERTEX
  5
1FC
  8
0
 62
     9
 10
0.0
 20
0.0
 30
0.0
 70
   128
 71
    80
 72
    61
 73
    19
  0
VERTEX
  5
1FD
  8
0
 62
     9
 10
0.0
 20
0.0
 30
0.0
 70
   128
 71
    19
 72
    81
 73
    80
  0
VERTEX
  5
1FE
  8
0
 62
     9
 10
0.0
 20
0.0
 30
0.0
 70
   128
 71
    19
 72
    78
 73
    81
  0
VERTEX
  5
1FF
  8
0
 62
     9
 10
0.0
 20
0.0
 30
0.0
 70
   128
 71
    19
 72
    76
 73
    79
  0
VERTEX
  5
200
  8
0
 62
     9
 10
0.0
 20
0.0
 30
0.0
 70
   128
 71
    19
 72
    75
 73
    77
  0
VERTEX
  5
201
  8
0
 62
     9
 10
0.0
 20
0.0
 30
0.0
 70
   128
 71
    19
 72
    20
 73
    74
  0
VERTEX
  5
202
  8
0
 62
     9
 10
0.0
 20
0.0
 30
0.0
 70
   128
 71
    83
 72
    82
 73
    31
  0
VERTEX
  5
203
  8
0
 62
     9
 10
0.0
 20
0.0
 30
0.0
 70
   128
 71
    84
 72
    68
 73
    82
  0
VERTEX
  5
204
  8
0
 62
     9
 10
0.0
 20
0.0
 30
0.0
 70
   128
 71
    82
 72
    85
 73
    84
  0
VERTEX
  5
205
  8
0
 62
     9
 10
0.0
 20
0.0
 30
0.0
 70
   128
 71
    82
 72
    86
 73
    85
  0
VERTEX
  5
206
  8
0
 62
     9
 10
0.0
 20
0.0
 30
0.0
 70
   128
 71
    82
 72
    87
 73
    86
  0
VERTEX
  5
207
  8
0
 62
     9
 10
0.0
 20
0.0
 30
0.0
 70
   128
 71
    82
 72
    83
 73
    87
  0
VERTEX
  5
208
  8
0
 62
     9
 10
0.0
 20
0.0
 30
0.0
 70
   128
 71
    31
 72
    33
 73
    83
  0
VERTEX
  5
209
  8
0
 62
     9
 10
0.0
 20
0.0
 30
0.0
 70
   128
 71
    20
 72
    82
 73
    68
  0
VERTEX
  5
20A
  8
0
 62
     9
 10
0.0
 20
0.0
 30
0.0
 70
   128
 71
    61
 72
    80
 73
    63
  0
VERTEX
  5
20B
  8
0
 62
     9
 10
0.0
 20
0.0
 30
0.0
 70
   128
 71
     3
 72
    54
 73
    37
  0
VERTEX
  5
20C
  8
0
 62
     9
 10
0.0
 20
0.0
 30
0.0
 70
   128
 71
    27
 72
    48
 73
    35
  0
VERTEX
  5
20D
  8
0
 62
     9
 10
0.0
 20
0.0
 30
0.0
 70
   128
 71
    19
 72
    88
 73
    21
  0
VERTEX
  5
20E
  8
0
 62
     9
 10
0.0
 20
0.0
 30
0.0
 70
   128
 71
    17
 72
    25
 73
    18
  0
VERTEX
  5
20F
  8
0
 62
     9
 10
0.0
 20
0.0
 30
0.0
 70
   128
 71
    16
 72
    11
 73
    12
  0
VERTEX
  5
210
  8
0
 62
     9
 10
0.0
 20
0.0
 30
0.0
 70
   128
 71
    14
 72
    10
 73
    13
  0
VERTEX
  5
211
  8
0
 62
     9
 10
0.0
 20
0.0
 30
0.0
 70
   128
 71
     8
 72
     4
 73
    10
  0
VERTEX
  5
212
  8
0
 62
     9
 10
0.0
 20
0.0
 30
0.0
 70
   128
 71
     4
 72
     8
 73
     5
  0
VERTEX
  5
213
  8
0
 62
     9
 10
0.0
 20
0.0
 30
0.0
 70
   128
 71
     1
 72
     6
 73
     3
  0
SEQEND
  5
214
  8
0
 62
     9
  0
ENDBLK
  5
217
  8
0
  0
BLOCK
  8
0
  2
E3_NODE_10_
 70
     0
 10
0.0
 20
0.0
 30
0.0
  3
E3_NODE_10_
  1

  0
POLYLINE
  5
219
  8
0
 62
     9
 66
     1
 10
0.0
 20
0.0
 30
0.0
 70
    64
 71
    12
 72
    10
  0
VERTEX
  5
21A
  8
0
 10
-18.0
 20
-24.72900009155273
 30
-5.071000099182129
 70
   192
  0
VERTEX
  5
21B
  8
0
 10
-18.0
 20
-49.47700119018555
 30
-16.37299919128418
 70
   192
  0
VERTEX
  5
21C
  8
0
 10
-18.0
 20
-57.14300155639648
 30
-9.732000350952148
 70
   192
  0
VERTEX
  5
21D
  8
0
 10
-18.0
 20
-30.21299934387207
 30
-13.60299968719482
 70
   192
  0
VERTEX
  5
21E
  8
0
 10
-18.0
 20
-60.0
 30
0.0
 70
   192
  0
VERTEX
  5
21F
  8
0
 10
-18.0
 20
-39.4379997253418
 30
17.8169994354248
 70
   192
  0
VERTEX
  5
220
  8
0
 10
-18.0
 20
-30.21299934387207
 30
13.60299968719482
 70
   192
  0
VERTEX
  5
221
  8
0
 10
-18.0
 20
-57.14300155639648
 30
9.732000350952148
 70
   192
  0
VERTEX
  5
222
  8
0
 10
-18.0
 20
-39.4379997253418
 30
-17.8169994354248
 70
   192
  0
VERTEX
  5
223
  8
0
 10
-18.0
 20
-49.47700119018555
 30
16.37299919128418
 70
   192
  0
VERTEX
  5
224
  8
0
 10
-18.0
 20
-24.11100006103516
 30
2.0
 70
   192
  0
VERTEX
  5
225
  8
0
 10
-18.0
 20
-24.72900009155273
 30
5.071000099182129
 70
   192
  0
VERTEX
  5
226
  8
0
 62
     9
 10
0.0
 20
0.0
 30
0.0
 70
   128
 71
     3
 72
     2
 73
     1
  0
VERTEX
  5
227
  8
0
 62
     9
 10
0.0
 20
0.0
 30
0.0
 70
   128
 71
     4
 72
     1
 73
     2
  0
VERTEX
  5
228
  8
0
 62
     9
 10
0.0
 20
0.0
 30
0.0
 70
   128
 71
     7
 72
     6
 73
     5
  0
VERTEX
  5
229
  8
0
 62
     9
 10
0.0
 20
0.0
 30
0.0
 70
   128
 71
     8
 72
     5
 73
     6
  0
VERTEX
  5
22A
  8
0
 62
     9
 10
0.0
 20
0.0
 30
0.0
 70
   128
 71
     2
 72
     9
 73
     4
  0
VERTEX
  5
22B
  8
0
 62
     9
 10
0.0
 20
0.0
 30
0.0
 70
   128
 71
     6
 72
    10
 73
     8
  0
VERTEX
  5
22C
  8
0
 62
     9
 10
0.0
 20
0.0
 30
0.0
 70
   128
 71
     1
 72
    11
 73
     5
  0
VERTEX
  5
22D
  8
0
 62
     9
 10
0.0
 20
0.0
 30
0.0
 70
   128
 71
     5
 72
    12
 73
     7
  0
VERTEX
  5
22E
  8
0
 62
     9
 10
0.0
 20
0.0
 30
0.0
 70
   128
 71
     5
 72
    11
 73
    12
  0
VERTEX
  5
22F
  8
0
 62
     9
 10
0.0
 20
0.0
 30
0.0
 70
   128
 71
     1
 72
     5
 73
     3
  0
SEQEND
  5
230
  8
0
 62
     9
  0
ENDBLK
  5
233
  8
0
  0
BLOCK
  8
0
  2
E3_NODE_11_
 70
     0
 10
0.0
 20
0.0
 30
0.0
  3
E3_NODE_11_
  1

  0
POLYLINE
  5
235
  8
0
 62
     9
 66
     1
 10
0.0
 20
0.0
 30
0.0
 70
    64
 71
     4
 72
     2
  0
VERTEX
  5
236
  8
0
 10
38.0
 20
-46.62599945068359
 30
-25.12800025939941
 70
   192
  0
VERTEX
  5
237
  8
0
 10
38.0
 20
-47.03799819946289
 30
-17.2810001373291
 70
   192
  0
VERTEX
  5
238
  8
0
 10
31.5
 20
-47.03799819946289
 30
-17.2810001373291
 70
   192
  0
VERTEX
  5
239
  8
0
 10
31.5
 20
-46.62599945068359
 30
-25.12800025939941
 70
   192
  0
VERTEX
  5
23A
  8
0
 62
     9
 10
0.0
 20
0.0
 30
0.0
 70
   128
 71
     3
 72
     2
 73
     1
  0
VERTEX
  5
23B
  8
0
 62
     9
 10
0.0
 20
0.0
 30
0.0
 70
   128
 71
     1
 72
     4
 73
     3
  0
SEQEND
  5
23C
  8
0
 62
     9
  0
ENDBLK
  5
23F
  8
0
  0
BLOCK
  8
0
  2
E3_NODE_12_
 70
     0
 10
0.0
 20
0.0
 30
0.0
  3
E3_NODE_12_
  1

  0
POLYLINE
  5
241
  8
0
 62
     9
 66
     1
 10
0.0
 20
0.0
 30
0.0
 70
    64
 71
     4
 72
     2
  0
VERTEX
  5
242
  8
0
 10
31.5
 20
-38.10400009155273
 30
-25.12800025939941
 70
   192
  0
VERTEX
  5
243
  8
0
 10
38.0
 20
-38.10400009155273
 30
-25.12800025939941
 70
   192
  0
VERTEX
  5
244
  8
0
 10
38.0
 20
-46.62599945068359
 30
-25.12800025939941
 70
   192
  0
VERTEX
  5
245
  8
0
 10
31.5
 20
-46.62599945068359
 30
-25.12800025939941
 70
   192
  0
VERTEX
  5
246
  8
0
 62
     9
 10
0.0
 20
0.0
 30
0.0
 70
   128
 71
     3
 72
     2
 73
     1
  0
VERTEX
  5
247
  8
0
 62
     9
 10
0.0
 20
0.0
 30
0.0
 70
   128
 71
     1
 72
     4
 73
     3
  0
SEQEND
  5
248
  8
0
 62
     9
  0
ENDBLK
  5
24B
  8
0
  0
BLOCK
  8
0
  2
E3_NODE_13_
 70
     0
 10
0.0
 20
0.0
 30
0.0
  3
E3_NODE_13_
  1

  0
POLYLINE
  5
24D
  8
0
 62
     9
 66
     1
 10
0.0
 20
0.0
 30
0.0
 70
    64
 71
     6
 72
     4
  0
VERTEX
  5
24E
  8
0
 10
12.5
 20
-10.34700012207031
 30
8.164999961853027
 70
   192
  0
VERTEX
  5
24F
  8
0
 10
12.5
 20
-10.8459997177124
 30
2.0
 70
   192
  0
VERTEX
  5
250
  8
0
 10
12.5
 20
-24.11100006103516
 30
2.0
 70
   192
  0
VERTEX
  5
251
  8
0
 10
12.5
 20
-24.72900009155273
 30
5.071000099182129
 70
   192
  0
VERTEX
  5
252
  8
0
 10
12.5
 20
-30.21299934387207
 30
13.60299968719482
 70
   192
  0
VERTEX
  5
253
  8
0
 10
12.5
 20
-36.15599822998047
 30
17.02499961853027
 70
   192
  0
VERTEX
  5
254
  8
0
 62
     9
 10
0.0
 20
0.0
 30
0.0
 70
   128
 71
     3
 72
     2
 73
     1
  0
VERTEX
  5
255
  8
0
 62
     9
 10
0.0
 20
0.0
 30
0.0
 70
   128
 71
     1
 72
     4
 73
     3
  0
VERTEX
  5
256
  8
0
 62
     9
 10
0.0
 20
0.0
 30
0.0
 70
   128
 71
     1
 72
     5
 73
     4
  0
VERTEX
  5
257
  8
0
 62
     9
 10
0.0
 20
0.0
 30
0.0
 70
   128
 71
     1
 72
     6
 73
     5
  0
SEQEND
  5
258
  8
0
 62
     9
  0
ENDBLK
  5
25B
  8
0
  0
BLOCK
  8
0
  2
E3_NODE_14_
 70
     0
 10
0.0
 20
0.0
 30
0.0
  3
E3_NODE_14_
  1

  0
POLYLINE
  5
25D
  8
0
 62
     9
 66
     1
 10
0.0
 20
0.0
 30
0.0
 70
    64
 71
     5
 72
     3
  0
VERTEX
  5
25E
  8
0
 10
38.0
 20
-36.15599822998047
 30
17.02499961853027
 70
   192
  0
VERTEX
  5
25F
  8
0
 10
38.0
 20
-6.288000106811523
 30
6.771999835968018
 70
   192
  0
VERTEX
  5
260
  8
0
 10
12.5
 20
-10.34700012207031
 30
8.164999961853027
 70
   192
  0
VERTEX
  5
261
  8
0
 10
15.03800010681152
 20
-6.288000106811523
 30
6.771999835968018
 70
   192
  0
VERTEX
  5
262
  8
0
 10
12.5
 20
-36.15599822998047
 30
17.02499961853027
 70
   192
  0
VERTEX
  5
263
  8
0
 62
     9
 10
0.0
 20
0.0
 30
0.0
 70
   128
 71
     3
 72
     2
 73
     1
  0
VERTEX
  5
264
  8
0
 62
     9
 10
0.0
 20
0.0
 30
0.0
 70
   128
 71
     3
 72
     4
 73
     2
  0
VERTEX
  5
265
  8
0
 62
     9
 10
0.0
 20
0.0
 30
0.0
 70
   128
 71
     1
 72
     5
 73
     3
  0
SEQEND
  5
266
  8
0
 62
     9
  0
ENDBLK
  5
269
  8
0
  0
BLOCK
  8
0
  2
E3_NODE_15_
 70
     0
 10
0.0
 20
0.0
 30
0.0
  3
E3_NODE_15_
  1

  0
POLYLINE
  5
26B
  8
0
 62
     9
 66
     1
 10
0.0
 20
0.0
 30
0.0
 70
    64
 71
    11
 72
     9
  0
VERTEX
  5
26C
  8
0
 10
38.0
 20
-6.288000106811523
 30
6.771999835968018
 70
   192
  0
VERTEX
  5
26D
  8
0
 10
15.69499969482422
 20
-4.321000099182129
 30
7.157999992370605
 70
   192
  0
VERTEX
  5
26E
  8
0
 10
15.46100044250488
 20
-5.02299976348877
 30
7.019999980926514
 70
   192
  0
VERTEX
  5
26F
  8
0
 10
15.99600028991699
 20
-2.970000028610229
 30
7.339000225067139
 70
   192
  0
VERTEX
  5
270
  8
0
 10
38.0
 20
6.288000106811523
 30
6.771999835968018
 70
   192
  0
VERTEX
  5
271
  8
0
 10
16.25
 20
0.6320000290870667
 30
7.493000030517578
 70
   192
  0
VERTEX
  5
272
  8
0
 10
15.1540002822876
 20
5.99399995803833
 30
6.839000225067139
 70
   192
  0
VERTEX
  5
273
  8
0
 10
15.41300010681152
 20
5.013000011444092
 30
6.993000030517578
 70
   192
  0
VERTEX
  5
274
  8
0
 10
15.03800010681152
 20
6.288000106811523
 30
6.771999835968018
 70
   192
  0
VERTEX
  5
275
  8
0
 10
16.07299995422363
 20
2.510999917984009
 30
7.385000228881836
 70
   192
  0
VERTEX
  5
276
  8
0
 10
15.03800010681152
 20
-6.288000106811523
 30
6.771999835968018
 70
   192
  0
VERTEX
  5
277
  8
0
 62
     9
 10
0.0
 20
0.0
 30
0.0
 70
   128
 71
     3
 72
     2
 73
     1
  0
VERTEX
  5
278
  8
0
 62
     9
 10
0.0
 20
0.0
 30
0.0
 70
   128
 71
     2
 72
     4
 73
     1
  0
VERTEX
  5
279
  8
0
 62
     9
 10
0.0
 20
0.0
 30
0.0
 70
   128
 71
     6
 72
     5
 73
     1
  0
VERTEX
  5
27A
  8
0
 62
     9
 10
0.0
 20
0.0
 30
0.0
 70
   128
 71
     1
 72
     4
 73
     6
  0
VERTEX
  5
27B
  8
0
 62
     9
 10
0.0
 20
0.0
 30
0.0
 70
   128
 71
     8
 72
     7
 73
     5
  0
VERTEX
  5
27C
  8
0
 62
     9
 10
0.0
 20
0.0
 30
0.0
 70
   128
 71
     7
 72
     9
 73
     5
  0
VERTEX
  5
27D
  8
0
 62
     9
 10
0.0
 20
0.0
 30
0.0
 70
   128
 71
     5
 72
    10
 73
     8
  0
VERTEX
  5
27E
  8
0
 62
     9
 10
0.0
 20
0.0
 30
0.0
 70
   128
 71
     5
 72
     6
 73
    10
  0
VERTEX
  5
27F
  8
0
 62
     9
 10
0.0
 20
0.0
 30
0.0
 70
   128
 71
     1
 72
    11
 73
     3
  0
SEQEND
  5
280
  8
0
 62
     9
  0
ENDBLK
  5
283
  8
0
  0
BLOCK
  8
0
  2
E3_NODE_16_
 70
     0
 10
0.0
 20
0.0
 30
0.0
  3
E3_NODE_16_
  1

  0
POLYLINE
  5
285
  8
0
 62
     9
 66
     1
 10
0.0
 20
0.0
 30
0.0
 70
    64
 71
     4
 72
     2
  0
VERTEX
  5
286
  8
0
 10
26.5
 20
-42.29999923706055
 30
-17.0
 70
   192
  0
VERTEX
  5
287
  8
0
 10
31.5
 20
-42.29999923706055
 30
-17.0
 70
   192
  0
VERTEX
  5
288
  8
0
 10
31.5
 20
-44.38299942016602
 30
-17.84099960327148
 70
   192
  0
VERTEX
  5
289
  8
0
 10
26.5
 20
-44.38299942016602
 30
-17.84099960327148
 70
   192
  0
VERTEX
  5
28A
  8
0
 62
     9
 10
0.0
 20
0.0
 30
0.0
 70
   128
 71
     3
 72
     2
 73
     1
  0
VERTEX
  5
28B
  8
0
 62
     9
 10
0.0
 20
0.0
 30
0.0
 70
   128
 71
     1
 72
     4
 73
     3
  0
SEQEND
  5
28C
  8
0
 62
     9
  0
ENDBLK
  5
28F
  8
0
  0
BLOCK
  8
0
  2
E3_NODE_17_
 70
     0
 10
0.0
 20
0.0
 30
0.0
  3
E3_NODE_17_
  1

  0
POLYLINE
  5
291
  8
0
 62
     9
 66
     1
 10
0.0
 20
0.0
 30
0.0
 70
    64
 71
     4
 72
     2
  0
VERTEX
  5
292
  8
0
 10
26.5
 20
-41.37699890136719
 30
-17.0
 70
   192
  0
VERTEX
  5
293
  8
0
 10
31.5
 20
-41.37699890136719
 30
-17.0
 70
   192
  0
VERTEX
  5
294
  8
0
 10
31.5
 20
-42.29999923706055
 30
-17.0
 70
   192
  0
VERTEX
  5
295
  8
0
 10
26.5
 20
-42.29999923706055
 30
-17.0
 70
   192
  0
VERTEX
  5
296
  8
0
 62
     9
 10
0.0
 20
0.0
 30
0.0
 70
   128
 71
     3
 72
     2
 73
     1
  0
VERTEX
  5
297
  8
0
 62
     9
 10
0.0
 20
0.0
 30
0.0
 70
   128
 71
     1
 72
     4
 73
     3
  0
SEQEND
  5
298
  8
0
 62
     9
  0
ENDBLK
  5
29B
  8
0
  0
BLOCK
  8
0
  2
E3_NODE_18_
 70
     0
 10
0.0
 20
0.0
 30
0.0
  3
E3_NODE_18_
  1

  0
POLYLINE
  5
29D
  8
0
 62
     9
 66
     1
 10
0.0
 20
0.0
 30
0.0
 70
    64
 71
     7
 72
     5
  0
VERTEX
  5
29E
  8
0
 10
31.5
 20
-42.29999923706055
 30
-17.0
 70
   192
  0
VERTEX
  5
29F
  8
0
 10
31.5
 20
-41.37699890136719
 30
-17.0
 70
   192
  0
VERTEX
  5
2A0
  8
0
 10
31.5
 20
-38.38100051879883
 30
-19.8430004119873
 70
   192
  0
VERTEX
  5
2A1
  8
0
 10
31.5
 20
-38.10400009155273
 30
-25.12800025939941
 70
   192
  0
VERTEX
  5
2A2
  8
0
 10
31.5
 20
-46.62599945068359
 30
-25.12800025939941
 70
   192
  0
VERTEX
  5
2A3
  8
0
 10
31.5
 20
-44.38299942016602
 30
-17.84099960327148
 70
   192
  0
VERTEX
  5
2A4
  8
0
 10
31.5
 20
-47.03799819946289
 30
-17.2810001373291
 70
   192
  0
VERTEX
  5
2A5
  8
0
 62
     9
 10
0.0
 20
0.0
 30
0.0
 70
   128
 71
     3
 72
     2
 73
     1
  0
VERTEX
  5
2A6
  8
0
 62
     9
 10
0.0
 20
0.0
 30
0.0
 70
   128
 71
     6
 72
     5
 73
     4
  0
VERTEX
  5
2A7
  8
0
 62
     9
 10
0.0
 20
0.0
 30
0.0
 70
   128
 71
     4
 72
     1
 73
     6
  0
VERTEX
  5
2A8
  8
0
 62
     9
 10
0.0
 20
0.0
 30
0.0
 70
   128
 71
     6
 72
     7
 73
     5
  0
VERTEX
  5
2A9
  8
0
 62
     9
 10
0.0
 20
0.0
 30
0.0
 70
   128
 71
     1
 72
     4
 73
     3
  0
SEQEND
  5
2AA
  8
0
 62
     9
  0
ENDBLK
  5
2AD
  8
0
  0
BLOCK
  8
0
  2
E3_NODE_19_
 70
     0
 10
0.0
 20
0.0
 30
0.0
  3
E3_NODE_19_
  1

  0
POLYLINE
  5
2AF
  8
0
 62
     9
 66
     1
 10
0.0
 20
0.0
 30
0.0
 70
    64
 71
     6
 72
     4
  0
VERTEX
  5
2B0
  8
0
 10
12.5
 20
-38.38100051879883
 30
-19.8430004119873
 70
   192
  0
VERTEX
  5
2B1
  8
0
 10
31.5
 20
-38.38100051879883
 30
-19.8430004119873
 70
   192
  0
VERTEX
  5
2B2
  8
0
 10
26.5
 20
-39.14099884033203
 30
-18.0
 70
   192
  0
VERTEX
  5
2B3
  8
0
 10
31.5
 20
-41.37699890136719
 30
-17.0
 70
   192
  0
VERTEX
  5
2B4
  8
0
 10
26.5
 20
-41.37699890136719
 30
-17.0
 70
   192
  0
VERTEX
  5
2B5
  8
0
 10
12.5
 20
-39.14099884033203
 30
-18.0
 70
   192
  0
VERTEX
  5
2B6
  8
0
 62
     9
 10
0.0
 20
0.0
 30
0.0
 70
   128
 71
     3
 72
     2
 73
     1
  0
VERTEX
  5
2B7
  8
0
 62
     9
 10
0.0
 20
0.0
 30
0.0
 70
   128
 71
     3
 72
     5
 73
     4
  0
VERTEX
  5
2B8
  8
0
 62
     9
 10
0.0
 20
0.0
 30
0.0
 70
   128
 71
     4
 72
     2
 73
     3
  0
VERTEX
  5
2B9
  8
0
 62
     9
 10
0.0
 20
0.0
 30
0.0
 70
   128
 71
     1
 72
     6
 73
     3
  0
SEQEND
  5
2BA
  8
0
 62
     9
  0
ENDBLK
  5
2BD
  8
0
  0
BLOCK
  8
0
  2
E3_NODE_20_
 70
     0
 10
0.0
 20
0.0
 30
0.0
  3
E3_NODE_20_
  1

  0
POLYLINE
  5
2BF
  8
0
 62
     9
 66
     1
 10
0.0
 20
0.0
 30
0.0
 70
    64
 71
     4
 72
     2
  0
VERTEX
  5
2C0
  8
0
 10
31.5
 20
-38.10400009155273
 30
-25.12800025939941
 70
   192
  0
VERTEX
  5
2C1
  8
0
 10
31.5
 20
-38.38100051879883
 30
-19.8430004119873
 70
   192
  0
VERTEX
  5
2C2
  8
0
 10
12.5
 20
-38.38100051879883
 30
-19.8430004119873
 70
   192
  0
VERTEX
  5
2C3
  8
0
 10
12.5
 20
-38.10400009155273
 30
-25.12800025939941
 70
   192
  0
VERTEX
  5
2C4
  8
0
 62
     9
 10
0.0
 20
0.0
 30
0.0
 70
   128
 71
     3
 72
     2
 73
     1
  0
VERTEX
  5
2C5
  8
0
 62
     9
 10
0.0
 20
0.0
 30
0.0
 70
   128
 71
     1
 72
     4
 73
     3
  0
SEQEND
  5
2C6
  8
0
 62
     9
  0
ENDBLK
  5
2C9
  8
0
  0
BLOCK
  8
0
  2
E3_NODE_21_
 70
     0
 10
0.0
 20
0.0
 30
0.0
  3
E3_NODE_21_
  1

  0
POLYLINE
  5
2CB
  8
0
 62
     9
 66
     1
 10
0.0
 20
0.0
 30
0.0
 70
    64
 71
     5
 72
     3
  0
VERTEX
  5
2CC
  8
0
 10
12.5
 20
-16.93099975585938
 30
-41.66999816894531
 70
   192
  0
VERTEX
  5
2CD
  8
0
 10
38.0
 20
-16.93099975585938
 30
-41.66999816894531
 70
   192
  0
VERTEX
  5
2CE
  8
0
 10
31.5
 20
-38.10400009155273
 30
-25.12800025939941
 70
   192
  0
VERTEX
  5
2CF
  8
0
 10
38.0
 20
-38.10400009155273
 30
-25.12800025939941
 70
   192
  0
VERTEX
  5
2D0
  8
0
 10
12.5
 20
-38.10400009155273
 30
-25.12800025939941
 70
   192
  0
VERTEX
  5
2D1
  8
0
 62
     9
 10
0.0
 20
0.0
 30
0.0
 70
   128
 71
     3
 72
     2
 73
     1
  0
VERTEX
  5
2D2
  8
0
 62
     9
 10
0.0
 20
0.0
 30
0.0
 70
   128
 71
     3
 72
     4
 73
     2
  0
VERTEX
  5
2D3
  8
0
 62
     9
 10
0.0
 20
0.0
 30
0.0
 70
   128
 71
     1
 72
     5
 73
     3
  0
SEQEND
  5
2D4
  8
0
 62
     9
  0
ENDBLK
  5
2D7
  8
0
  0
BLOCK
  8
0
  2
E3_NODE_22_
 70
     0
 10
0.0
 20
0.0
 30
0.0
  3
E3_NODE_22_
  1

  0
POLYLINE
  5
2D9
  8
0
 62
     9
 66
     1
 10
0.0
 20
0.0
 30
0.0
 70
    64
 71
     8
 72
     6
  0
VERTEX
  5
2DA
  8
0
 10
12.5
 20
-16.93099975585938
 30
-41.66999816894531
 70
   192
  0
VERTEX
  5
2DB
  8
0
 10
12.5
 20
-38.10400009155273
 30
-25.12800025939941
 70
   192
  0
VERTEX
  5
2DC
  8
0
 10
12.5
 20
-16.67099952697754
 30
-26.78899955749512
 70
   192
  0
VERTEX
  5
2DD
  8
0
 10
12.5
 20
-17.88899993896484
 30
-18.0
 70
   192
  0
VERTEX
  5
2DE
  8
0
 10
12.5
 20
-11.48499965667725
 30
-33.86000061035156
 70
   192
  0
VERTEX
  5
2DF
  8
0
 10
12.5
 20
-10.57299995422363
 30
-45.38600158691406
 70
   192
  0
VERTEX
  5
2E0
  8
0
 10
12.5
 20
-38.38100051879883
 30
-19.8430004119873
 70
   192
  0
VERTEX
  5
2E1
  8
0
 10
12.5
 20
-39.14099884033203
 30
-18.0
 70
   192
  0
VERTEX
  5
2E2
  8
0
 62
     9
 10
0.0
 20
0.0
 30
0.0
 70
   128
 71
     3
 72
     2
 73
     1
  0
VERTEX
  5
2E3
  8
0
 62
     9
 10
0.0
 20
0.0
 30
0.0
 70
   128
 71
     2
 72
     3
 73
     4
  0
VERTEX
  5
2E4
  8
0
 62
     9
 10
0.0
 20
0.0
 30
0.0
 70
   128
 71
     1
 72
     6
 73
     5
  0
VERTEX
  5
2E5
  8
0
 62
     9
 10
0.0
 20
0.0
 30
0.0
 70
   128
 71
     4
 72
     7
 73
     2
  0
VERTEX
  5
2E6
  8
0
 62
     9
 10
0.0
 20
0.0
 30
0.0
 70
   128
 71
     4
 72
     8
 73
     7
  0
VERTEX
  5
2E7
  8
0
 62
     9
 10
0.0
 20
0.0
 30
0.0
 70
   128
 71
     1
 72
     5
 73
     3
  0
SEQEND
  5
2E8
  8
0
 62
     9
  0
ENDBLK
  5
2EB
  8
0
  0
BLOCK
  8
0
  2
E3_NODE_23_
 70
     0
 10
0.0
 20
0.0
 30
0.0
  3
E3_NODE_23_
  1

  0
POLYLINE
  5
2ED
  8
0
 62
     9
 66
     1
 10
0.0
 20
0.0
 30
0.0
 70
    64
 71
    13
 72
    11
  0
VERTEX
  5
2EE
  8
0
 10
12.5
 20
-17.88899993896484
 30
-18.0
 70
   192
  0
VERTEX
  5
2EF
  8
0
 10
2.066999912261963
 20
-17.32099914550781
 30
-24.89699935913086
 70
   192
  0
VERTEX
  5
2F0
  8
0
 10
4.769999980926514
 20
-16.66600036621094
 30
-26.78700065612793
 70
   192
  0
VERTEX
  5
2F1
  8
0
 10
0.0
 20
-17.88899993896484
 30
-18.0
 70
   192
  0
VERTEX
  5
2F2
  8
0
 10
0.628000020980835
 20
-17.45999908447266
 30
-24.37700080871582
 70
   192
  0
VERTEX
  5
2F3
  8
0
 10
0.0
 20
-17.47400093078613
 30
-24.31900024414062
 70
   192
  0
VERTEX
  5
2F4
  8
0
 10
12.5
 20
-16.67099952697754
 30
-26.78899955749512
 70
   192
  0
VERTEX
  5
2F5
  8
0
 10
9.133999824523926
 20
-14.50699996948242
 30
-30.6560001373291
 70
   192
  0
VERTEX
  5
2F6
  8
0
 10
9.255999565124512
 20
-14.4060001373291
 30
-30.77199935913086
 70
   192
  0
VERTEX
  5
2F7
  8
0
 10
11.5310001373291
 20
-12.52299976348877
 30
-32.92900085449219
 70
   192
  0
VERTEX
  5
2F8
  8
0
 10
4.885000228881836
 20
-16.63899993896484
 30
-26.86700057983398
 70
   192
  0
VERTEX
  5
2F9
  8
0
 10
5.814000129699707
 20
-16.29400062561035
 30
-27.64900016784668
 70
   192
  0
VERTEX
  5
2FA
  8
0
 10
12.5
 20
-11.48499965667725
 30
-33.86000061035156
 70
   192
  0
VERTEX
  5
2FB
  8
0
 62
     9
 10
0.0
 20
0.0
 30
0.0
 70
   128
 71
     3
 72
     2
 73
     1
  0
VERTEX
  5
2FC
  8
0
 62
     9
 10
0.0
 20
0.0
 30
0.0
 70
   128
 71
     2
 72
     5
 73
     4
  0
VERTEX
  5
2FD
  8
0
 62
     9
 10
0.0
 20
0.0
 30
0.0
 70
   128
 71
     5
 72
     6
 73
     4
  0
VERTEX
  5
2FE
  8
0
 62
     9
 10
0.0
 20
0.0
 30
0.0
 70
   128
 71
     4
 72
     1
 73
     2
  0
VERTEX
  5
2FF
  8
0
 62
     9
 10
0.0
 20
0.0
 30
0.0
 70
   128
 71
     9
 72
     8
 73
     7
  0
VERTEX
  5
300
  8
0
 62
     9
 10
0.0
 20
0.0
 30
0.0
 70
   128
 71
     7
 72
    10
 73
     9
  0
VERTEX
  5
301
  8
0
 62
     9
 10
0.0
 20
0.0
 30
0.0
 70
   128
 71
    12
 72
    11
 73
     7
  0
VERTEX
  5
302
  8
0
 62
     9
 10
0.0
 20
0.0
 30
0.0
 70
   128
 71
     7
 72
     8
 73
    12
  0
VERTEX
  5
303
  8
0
 62
     9
 10
0.0
 20
0.0
 30
0.0
 70
   128
 71
    11
 72
     3
 73
     7
  0
VERTEX
  5
304
  8
0
 62
     9
 10
0.0
 20
0.0
 30
0.0
 70
   128
 71
     7
 72
    13
 73
    10
  0
VERTEX
  5
305
  8
0
 62
     9
 10
0.0
 20
0.0
 30
0.0
 70
   128
 71
     1
 72
     7
 73
     3
  0
SEQEND
  5
306
  8
0
 62
     9
  0
ENDBLK
  5
309
  8
0
  0
BLOCK
  8
0
  2
E3_NODE_24_
 70
     0
 10
0.0
 20
0.0
 30
0.0
  3
E3_NODE_24_
  1

  0
POLYLINE
  5
30B
  8
0
 62
     9
 66
     1
 10
0.0
 20
0.0
 30
0.0
 70
    64
 71
     8
 72
     6
  0
VERTEX
  5
30C
  8
0
 10
12.5
 20
-17.88899993896484
 30
-18.0
 70
   192
  0
VERTEX
  5
30D
  8
0
 10
12.5
 20
-39.14099884033203
 30
-18.0
 70
   192
  0
VERTEX
  5
30E
  8
0
 10
0.0
 20
-33.6870002746582
 30
-18.0
 70
   192
  0
VERTEX
  5
30F
  8
0
 10
-11.0
 20
-42.0
 30
-18.0
 70
   192
  0
VERTEX
  5
310
  8
0
 10
-11.0
 20
-33.6870002746582
 30
-18.0
 70
   192
  0
VERTEX
  5
311
  8
0
 10
26.5
 20
-42.0
 30
-18.0
 70
   192
  0
VERTEX
  5
312
  8
0
 10
0.0
 20
-17.88899993896484
 30
-18.0
 70
   192
  0
VERTEX
  5
313
  8
0
 10
26.5
 20
-39.14099884033203
 30
-18.0
 70
   192
  0
VERTEX
  5
314
  8
0
 62
     9
 10
0.0
 20
0.0
 30
0.0
 70
   128
 71
     3
 72
     2
 73
     1
  0
VERTEX
  5
315
  8
0
 62
     9
 10
0.0
 20
0.0
 30
0.0
 70
   128
 71
     3
 72
     5
 73
     4
  0
VERTEX
  5
316
  8
0
 62
     9
 10
0.0
 20
0.0
 30
0.0
 70
   128
 71
     2
 72
     4
 73
     6
  0
VERTEX
  5
317
  8
0
 62
     9
 10
0.0
 20
0.0
 30
0.0
 70
   128
 71
     4
 72
     2
 73
     3
  0
VERTEX
  5
318
  8
0
 62
     9
 10
0.0
 20
0.0
 30
0.0
 70
   128
 71
     1
 72
     7
 73
     3
  0
VERTEX
  5
319
  8
0
 62
     9
 10
0.0
 20
0.0
 30
0.0
 70
   128
 71
     6
 72
     8
 73
     2
  0
SEQEND
  5
31A
  8
0
 62
     9
  0
ENDBLK
  5
31D
  8
0
  0
BLOCK
  8
0
  2
E3_NODE_25_
 70
     0
 10
0.0
 20
0.0
 30
0.0
  3
E3_NODE_25_
  1

  0
POLYLINE
  5
31F
  8
0
 62
     9
 66
     1
 10
0.0
 20
0.0
 30
0.0
 70
    64
 71
     4
 72
     2
  0
VERTEX
  5
320
  8
0
 10
-11.0
 20
-33.6870002746582
 30
-18.0
 70
   192
  0
VERTEX
  5
321
  8
0
 10
-11.0
 20
-31.98999977111816
 30
-50.36600112915039
 70
   192
  0
VERTEX
  5
322
  8
0
 10
0.0
 20
-31.98999977111816
 30
-50.36600112915039
 70
   192
  0
VERTEX
  5
323
  8
0
 10
0.0
 20
-33.6870002746582
 30
-18.0
 70
   192
  0
VERTEX
  5
324
  8
0
 62
     9
 10
0.0
 20
0.0
 30
0.0
 70
   128
 71
     3
 72
     2
 73
     1
  0
VERTEX
  5
325
  8
0
 62
     9
 10
0.0
 20
0.0
 30
0.0
 70
   128
 71
     1
 72
     4
 73
     3
  0
SEQEND
  5
326
  8
0
 62
     9
  0
ENDBLK
  5
329
  8
0
  0
BLOCK
  8
0
  2
E3_NODE_26_
 70
     0
 10
0.0
 20
0.0
 30
0.0
  3
E3_NODE_26_
  1

  0
POLYLINE
  5
32B
  8
0
 62
     9
 66
     1
 10
0.0
 20
0.0
 30
0.0
 70
    64
 71
     8
 72
     6
  0
VERTEX
  5
32C
  8
0
 10
0.0
 20
-17.47400093078613
 30
-24.31900024414062
 70
   192
  0
VERTEX
  5
32D
  8
0
 10
0.0
 20
-33.6870002746582
 30
-18.0
 70
   192
  0
VERTEX
  5
32E
  8
0
 10
0.0
 20
-18.16300010681152
 30
-51.5
 70
   192
  0
VERTEX
  5
32F
  8
0
 10
0.0
 20
-31.98999977111816
 30
-50.36600112915039
 70
   192
  0
VERTEX
  5
330
  8
0
 10
0.0
 20
-28.72200012207031
 30
-55.92800140380859
 70
   192
  0
VERTEX
  5
331
  8
0
 10
0.0
 20
-22.29299926757812
 30
-56.45500183105469
 70
   192
  0
VERTEX
  5
332
  8
0
 10
0.0
 20
-16.05200004577637
 30
-51.5
 70
   192
  0
VERTEX
  5
333
  8
0
 10
0.0
 20
-17.88899993896484
 30
-18.0
 70
   192
  0
VERTEX
  5
334
  8
0
 62
     9
 10
0.0
 20
0.0
 30
0.0
 70
   128
 71
     3
 72
     2
 73
     1
  0
VERTEX
  5
335
  8
0
 62
     9
 10
0.0
 20
0.0
 30
0.0
 70
   128
 71
     6
 72
     5
 73
     4
  0
VERTEX
  5
336
  8
0
 62
     9
 10
0.0
 20
0.0
 30
0.0
 70
   128
 71
     1
 72
     7
 73
     3
  0
VERTEX
  5
337
  8
0
 62
     9
 10
0.0
 20
0.0
 30
0.0
 70
   128
 71
     4
 72
     2
 73
     3
  0
VERTEX
  5
338
  8
0
 62
     9
 10
0.0
 20
0.0
 30
0.0
 70
   128
 71
     4
 72
     3
 73
     6
  0
VERTEX
  5
339
  8
0
 62
     9
 10
0.0
 20
0.0
 30
0.0
 70
   128
 71
     2
 72
     8
 73
     1
  0
SEQEND
  5
33A
  8
0
 62
     9
  0
ENDBLK
  5
33D
  8
0
  0
BLOCK
  8
0
  2
E3_NODE_27_
 70
     0
 10
0.0
 20
0.0
 30
0.0
  3
E3_NODE_27_
  1

  0
POLYLINE
  5
33F
  8
0
 62
     9
 66
     1
 10
0.0
 20
0.0
 30
0.0
 70
    64
 71
     5
 72
     3
  0
VERTEX
  5
340
  8
0
 10
-11.0
 20
-18.16300010681152
 30
-51.5
 70
   192
  0
VERTEX
  5
341
  8
0
 10
-8.678999900817871
 20
-13.50399971008301
 30
-51.5
 70
   192
  0
VERTEX
  5
342
  8
0
 10
0.0
 20
-16.05200004577637
 30
-51.5
 70
   192
  0
VERTEX
  5
343
  8
0
 10
-11.0
 20
-11.69099998474121
 30
-51.5
 70
   192
  0
VERTEX
  5
344
  8
0
 10
0.0
 20
-18.16300010681152
 30
-51.5
 70
   192
  0
VERTEX
  5
345
  8
0
 62
     9
 10
0.0
 20
0.0
 30
0.0
 70
   128
 71
     3
 72
     2
 73
     1
  0
VERTEX
  5
346
  8
0
 62
     9
 10
0.0
 20
0.0
 30
0.0
 70
   128
 71
     2
 72
     4
 73
     1
  0
VERTEX
  5
347
  8
0
 62
     9
 10
0.0
 20
0.0
 30
0.0
 70
   128
 71
     1
 72
     5
 73
     3
  0
SEQEND
  5
348
  8
0
 62
     9
  0
ENDBLK
  5
34B
  8
0
  0
BLOCK
  8
0
  2
E3_NODE_28_
 70
     0
 10
0.0
 20
0.0
 30
0.0
  3
E3_NODE_28_
  1

  0
POLYLINE
  5
34D
  8
0
 62
     9
 66
     1
 10
0.0
 20
0.0
 30
0.0
 70
    64
 71
     8
 72
     6
  0
VERTEX
  5
34E
  8
0
 10
0.0
 20
-22.29299926757812
 30
-56.45500183105469
 70
   192
  0
VERTEX
  5
34F
  8
0
 10
-11.0
 20
-22.29299926757812
 30
-56.45500183105469
 70
   192
  0
VERTEX
  5
350
  8
0
 10
-11.0
 20
-18.16300010681152
 30
-51.5
 70
   192
  0
VERTEX
  5
351
  8
0
 10
0.0
 20
-28.72200012207031
 30
-55.92800140380859
 70
   192
  0
VERTEX
  5
352
  8
0
 10
0.0
 20
-31.98999977111816
 30
-50.36600112915039
 70
   192
  0
VERTEX
  5
353
  8
0
 10
-11.0
 20
-31.98999977111816
 30
-50.36600112915039
 70
   192
  0
VERTEX
  5
354
  8
0
 10
-11.0
 20
-28.72200012207031
 30
-55.92800140380859
 70
   192
  0
VERTEX
  5
355
  8
0
 10
0.0
 20
-18.16300010681152
 30
-51.5
 70
   192
  0
VERTEX
  5
356
  8
0
 62
     9
 10
0.0
 20
0.0
 30
0.0
 70
   128
 71
     3
 72
     2
 73
     1
  0
VERTEX
  5
357
  8
0
 62
     9
 10
0.0
 20
0.0
 30
0.0
 70
   128
 71
     4
 72
     1
 73
     2
  0
VERTEX
  5
358
  8
0
 62
     9
 10
0.0
 20
0.0
 30
0.0
 70
   128
 71
     7
 72
     6
 73
     5
  0
VERTEX
  5
359
  8
0
 62
     9
 10
0.0
 20
0.0
 30
0.0
 70
   128
 71
     5
 72
     4
 73
     7
  0
VERTEX
  5
35A
  8
0
 62
     9
 10
0.0
 20
0.0
 30
0.0
 70
   128
 71
     2
 72
     7
 73
     4
  0
VERTEX
  5
35B
  8
0
 62
     9
 10
0.0
 20
0.0
 30
0.0
 70
   128
 71
     1
 72
     8
 73
     3
  0
SEQEND
  5
35C
  8
0
 62
     9
  0
ENDBLK
  5
35F
  8
0
  0
BLOCK
  8
0
  2
E3_NODE_29_
 70
     0
 10
0.0
 20
0.0
 30
0.0
  3
E3_NODE_29_
  1

  0
POLYLINE
  5
361
  8
0
 62
     9
 66
     1
 10
0.0
 20
0.0
 30
0.0
 70
    64
 71
    20
 72
    18
  0
VERTEX
  5
362
  8
0
 10
38.0
 20
-16.93099975585938
 30
-41.66999816894531
 70
   192
  0
VERTEX
  5
363
  8
0
 10
14.8149995803833
 20
-6.765999794006348
 30
-46.64400100708008
 70
   192
  0
VERTEX
  5
364
  8
0
 10
15.13799953460693
 20
-6.03000020980835
 30
-46.83000183105469
 70
   192
  0
VERTEX
  5
365
  8
0
 10
14.51299953460693
 20
-7.453999996185303
 30
-46.47000122070312
 70
   192
  0
VERTEX
  5
366
  8
0
 10
12.5
 20
-16.93099975585938
 30
-41.66999816894531
 70
   192
  0
VERTEX
  5
367
  8
0
 10
12.5
 20
-10.57299995422363
 30
-45.38600158691406
 70
   192
  0
VERTEX
  5
368
  8
0
 10
38.0
 20
6.03000020980835
 30
-46.83100128173828
 70
   192
  0
VERTEX
  5
369
  8
0
 10
38.0
 20
-6.03000020980835
 30
-46.83100128173828
 70
   192
  0
VERTEX
  5
36A
  8
0
 10
16.25
 20
-0.6320000290870667
 30
-47.49300003051758
 70
   192
  0
VERTEX
  5
36B
  8
0
 10
16.04299926757812
 20
2.311000108718872
 30
-47.36700057983398
 70
   192
  0
VERTEX
  5
36C
  8
0
 10
15.99600028991699
 20
2.970000028610229
 30
-47.3390007019043
 70
   192
  0
VERTEX
  5
36D
  8
0
 10
15.69499969482422
 20
4.321000099182129
 30
-47.15800094604492
 70
   192
  0
VERTEX
  5
36E
  8
0
 10
15.1540002822876
 20
-5.99399995803833
 30
-46.8390007019043
 70
   192
  0
VERTEX
  5
36F
  8
0
 10
16.07299995422363
 20
-2.510999917984009
 30
-47.3849983215332
 70
   192
  0
VERTEX
  5
370
  8
0
 10
38.0
 20
16.93099975585938
 30
-41.66999816894531
 70
   192
  0
VERTEX
  5
371
  8
0
 10
13.82999992370605
 20
8.692999839782715
 30
-46.09000015258789
 70
   192
  0
VERTEX
  5
372
  8
0
 10
12.5
 20
10.57299995422363
 30
-45.38600158691406
 70
   192
  0
VERTEX
  5
373
  8
0
 10
14.35900020599365
 20
7.75600004196167
 30
-46.38399887084961
 70
   192
  0
VERTEX
  5
374
  8
0
 10
15.03499984741211
 20
6.01800012588501
 30
-46.7760009765625
 70
   192
  0
VERTEX
  5
375
  8
0
 10
12.5
 20
16.93099975585938
 30
-41.66999816894531
 70
   192
  0
VERTEX
  5
376
  8
0
 62
     9
 10
0.0
 20
0.0
 30
0.0
 70
   128
 71
     3
 72
     2
 73
     1
  0
VERTEX
  5
377
  8
0
 62
     9
 10
0.0
 20
0.0
 30
0.0
 70
   128
 71
     2
 72
     4
 73
     1
  0
VERTEX
  5
378
  8
0
 62
     9
 10
0.0
 20
0.0
 30
0.0
 70
   128
 71
     6
 72
     5
 73
     1
  0
VERTEX
  5
379
  8
0
 62
     9
 10
0.0
 20
0.0
 30
0.0
 70
   128
 71
     1
 72
     4
 73
     6
  0
VERTEX
  5
37A
  8
0
 62
     9
 10
0.0
 20
0.0
 30
0.0
 70
   128
 71
     9
 72
     8
 73
     7
  0
VERTEX
  5
37B
  8
0
 62
     9
 10
0.0
 20
0.0
 30
0.0
 70
   128
 71
     7
 72
    10
 73
     9
  0
VERTEX
  5
37C
  8
0
 62
     9
 10
0.0
 20
0.0
 30
0.0
 70
   128
 71
     7
 72
    11
 73
    10
  0
VERTEX
  5
37D
  8
0
 62
     9
 10
0.0
 20
0.0
 30
0.0
 70
   128
 71
     7
 72
    12
 73
    11
  0
VERTEX
  5
37E
  8
0
 62
     9
 10
0.0
 20
0.0
 30
0.0
 70
   128
 71
    13
 72
     3
 73
     8
  0
VERTEX
  5
37F
  8
0
 62
     9
 10
0.0
 20
0.0
 30
0.0
 70
   128
 71
     8
 72
    14
 73
    13
  0
VERTEX
  5
380
  8
0
 62
     9
 10
0.0
 20
0.0
 30
0.0
 70
   128
 71
     8
 72
     9
 73
    14
  0
VERTEX
  5
381
  8
0
 62
     9
 10
0.0
 20
0.0
 30
0.0
 70
   128
 71
    17
 72
    16
 73
    15
  0
VERTEX
  5
382
  8
0
 62
     9
 10
0.0
 20
0.0
 30
0.0
 70
   128
 71
    16
 72
    18
 73
    15
  0
VERTEX
  5
383
  8
0
 62
     9
 10
0.0
 20
0.0
 30
0.0
 70
   128
 71
    19
 72
     7
 73
    15
  0
VERTEX
  5
384
  8
0
 62
     9
 10
0.0
 20
0.0
 30
0.0
 70
   128
 71
    15
 72
    18
 73
    19
  0
VERTEX
  5
385
  8
0
 62
     9
 10
0.0
 20
0.0
 30
0.0
 70
   128
 71
    15
 72
    20
 73
    17
  0
VERTEX
  5
386
  8
0
 62
     9
 10
0.0
 20
0.0
 30
0.0
 70
   128
 71
     7
 72
    19
 73
    12
  0
VERTEX
  5
387
  8
0
 62
     9
 10
0.0
 20
0.0
 30
0.0
 70
   128
 71
     1
 72
     8
 73
     3
  0
SEQEND
  5
388
  8
0
 62
     9
  0
ENDBLK
  5
38B
  8
0
  0
BLOCK
  8
0
  2
E3_NODE_30_
 70
     0
 10
0.0
 20
0.0
 30
0.0
  3
E3_NODE_30_
  1

  0
POLYLINE
  5
38D
  8
0
 62
     9
 66
     1
 10
0.0
 20
0.0
 30
0.0
 70
    64
 71
     5
 72
     3
  0
VERTEX
  5
38E
  8
0
 10
12.5
 20
16.93099975585938
 30
-41.66999816894531
 70
   192
  0
VERTEX
  5
38F
  8
0
 10
12.5
 20
38.10400009155273
 30
-25.12800025939941
 70
   192
  0
VERTEX
  5
390
  8
0
 10
31.5
 20
38.10400009155273
 30
-25.12800025939941
 70
   192
  0
VERTEX
  5
391
  8
0
 10
38.0
 20
16.93099975585938
 30
-41.66999816894531
 70
   192
  0
VERTEX
  5
392
  8
0
 10
38.0
 20
38.10400009155273
 30
-25.12800025939941
 70
   192
  0
VERTEX
  5
393
  8
0
 62
     9
 10
0.0
 20
0.0
 30
0.0
 70
   128
 71
     3
 72
     2
 73
     1
  0
VERTEX
  5
394
  8
0
 62
     9
 10
0.0
 20
0.0
 30
0.0
 70
   128
 71
     1
 72
     4
 73
     3
  0
VERTEX
  5
395
  8
0
 62
     9
 10
0.0
 20
0.0
 30
0.0
 70
   128
 71
     4
 72
     5
 73
     3
  0
SEQEND
  5
396
  8
0
 62
     9
  0
ENDBLK
  5
399
  8
0
  0
BLOCK
  8
0
  2
E3_NODE_31_
 70
     0
 10
0.0
 20
0.0
 30
0.0
  3
E3_NODE_31_
  1

  0
POLYLINE
  5
39B
  8
0
 62
     9
 66
     1
 10
0.0
 20
0.0
 30
0.0
 70
    64
 71
    26
 72
    24
  0
VERTEX
  5
39C
  8
0
 10
38.0
 20
-6.288000106811523
 30
6.771999835968018
 70
   192
  0
VERTEX
  5
39D
  8
0
 10
38.0
 20
-6.03000020980835
 30
-46.83100128173828
 70
   192
  0
VERTEX
  5
39E
  8
0
 10
38.0
 20
6.03000020980835
 30
-46.83100128173828
 70
   192
  0
VERTEX
  5
39F
  8
0
 10
38.0
 20
39.4379997253418
 30
17.8169994354248
 70
   192
  0
VERTEX
  5
3A0
  8
0
 10
38.0
 20
60.0
 30
0.0
 70
   192
  0
VERTEX
  5
3A1
  8
0
 10
38.0
 20
57.14300155639648
 30
9.732000350952148
 70
   192
  0
VERTEX
  5
3A2
  8
0
 10
38.0
 20
49.47700119018555
 30
-16.37299919128418
 70
   192
  0
VERTEX
  5
3A3
  8
0
 10
38.0
 20
57.14300155639648
 30
-9.732000350952148
 70
   192
  0
VERTEX
  5
3A4
  8
0
 10
38.0
 20
-16.93099975585938
 30
-41.66999816894531
 70
   192
  0
VERTEX
  5
3A5
  8
0
 10
38.0
 20
-49.47700119018555
 30
16.37299919128418
 70
   192
  0
VERTEX
  5
3A6
  8
0
 10
38.0
 20
-60.0
 30
0.0
 70
   192
  0
VERTEX
  5
3A7
  8
0
 10
38.0
 20
-57.14300155639648
 30
-9.732000350952148
 70
   192
  0
VERTEX
  5
3A8
  8
0
 10
38.0
 20
16.93099975585938
 30
-41.66999816894531
 70
   192
  0
VERTEX
  5
3A9
  8
0
 10
38.0
 20
38.10400009155273
 30
-25.12800025939941
 70
   192
  0
VERTEX
  5
3AA
  8
0
 10
38.0
 20
6.288000106811523
 30
6.771999835968018
 70
   192
  0
VERTEX
  5
3AB
  8
0
 10
38.0
 20
-38.10400009155273
 30
-25.12800025939941
 70
   192
  0
VERTEX
  5
3AC
  8
0
 10
38.0
 20
-57.14300155639648
 30
9.732000350952148
 70
   192
  0
VERTEX
  5
3AD
  8
0
 10
38.0
 20
49.47700119018555
 30
16.37299919128418
 70
   192
  0
VERTEX
  5
3AE
  8
0
 10
38.0
 20
47.03799819946289
 30
-17.2810001373291
 70
   192
  0
VERTEX
  5
3AF
  8
0
 10
38.0
 20
-49.47700119018555
 30
-16.37299919128418
 70
   192
  0
VERTEX
  5
3B0
  8
0
 10
38.0
 20
-39.4379997253418
 30
17.8169994354248
 70
   192
  0
VERTEX
  5
3B1
  8
0
 10
38.0
 20
36.15599822998047
 30
17.02499961853027
 70
   192
  0
VERTEX
  5
3B2
  8
0
 10
38.0
 20
-47.03799819946289
 30
-17.2810001373291
 70
   192
  0
VERTEX
  5
3B3
  8
0
 10
38.0
 20
-46.62599945068359
 30
-25.12800025939941
 70
   192
  0
VERTEX
  5
3B4
  8
0
 10
38.0
 20
-36.15599822998047
 30
17.02499961853027
 70
   192
  0
VERTEX
  5
3B5
  8
0
 10
38.0
 20
46.62599945068359
 30
-25.12800025939941
 70
   192
  0
VERTEX
  5
3B6
  8
0
 62
     9
 10
0.0
 20
0.0
 30
0.0
 70
   128
 71
     3
 72
     2
 73
     1
  0
VERTEX
  5
3B7
  8
0
 62
     9
 10
0.0
 20
0.0
 30
0.0
 70
   128
 71
     6
 72
     5
 73
     4
  0
VERTEX
  5
3B8
  8
0
 62
     9
 10
0.0
 20
0.0
 30
0.0
 70
   128
 71
     8
 72
     7
 73
     4
  0
VERTEX
  5
3B9
  8
0
 62
     9
 10
0.0
 20
0.0
 30
0.0
 70
   128
 71
     2
 72
     9
 73
     1
  0
VERTEX
  5
3BA
  8
0
 62
     9
 10
0.0
 20
0.0
 30
0.0
 70
   128
 71
    12
 72
    11
 73
    10
  0
VERTEX
  5
3BB
  8
0
 62
     9
 10
0.0
 20
0.0
 30
0.0
 70
   128
 71
     4
 72
     5
 73
     8
  0
VERTEX
  5
3BC
  8
0
 62
     9
 10
0.0
 20
0.0
 30
0.0
 70
   128
 71
    15
 72
    14
 73
    13
  0
VERTEX
  5
3BD
  8
0
 62
     9
 10
0.0
 20
0.0
 30
0.0
 70
   128
 71
     9
 72
    16
 73
     1
  0
VERTEX
  5
3BE
  8
0
 62
     9
 10
0.0
 20
0.0
 30
0.0
 70
   128
 71
    11
 72
    17
 73
    10
  0
VERTEX
  5
3BF
  8
0
 62
     9
 10
0.0
 20
0.0
 30
0.0
 70
   128
 71
     4
 72
    18
 73
     6
  0
VERTEX
  5
3C0
  8
0
 62
     9
 10
0.0
 20
0.0
 30
0.0
 70
   128
 71
    14
 72
    15
 73
    19
  0
VERTEX
  5
3C1
  8
0
 62
     9
 10
0.0
 20
0.0
 30
0.0
 70
   128
 71
     1
 72
    13
 73
     3
  0
VERTEX
  5
3C2
  8
0
 62
     9
 10
0.0
 20
0.0
 30
0.0
 70
   128
 71
    10
 72
    21
 73
    20
  0
VERTEX
  5
3C3
  8
0
 62
     9
 10
0.0
 20
0.0
 30
0.0
 70
   128
 71
     7
 72
    19
 73
    22
  0
VERTEX
  5
3C4
  8
0
 62
     9
 10
0.0
 20
0.0
 30
0.0
 70
   128
 71
    13
 72
     1
 73
    15
  0
VERTEX
  5
3C5
  8
0
 62
     9
 10
0.0
 20
0.0
 30
0.0
 70
   128
 71
    16
 72
    24
 73
    23
  0
VERTEX
  5
3C6
  8
0
 62
     9
 10
0.0
 20
0.0
 30
0.0
 70
   128
 71
    21
 72
    25
 73
    20
  0
VERTEX
  5
3C7
  8
0
 62
     9
 10
0.0
 20
0.0
 30
0.0
 70
   128
 71
     7
 72
    22
 73
     4
  0
VERTEX
  5
3C8
  8
0
 62
     9
 10
0.0
 20
0.0
 30
0.0
 70
   128
 71
    23
 72
     1
 73
    16
  0
VERTEX
  5
3C9
  8
0
 62
     9
 10
0.0
 20
0.0
 30
0.0
 70
   128
 71
    10
 72
    20
 73
    12
  0
VERTEX
  5
3CA
  8
0
 62
     9
 10
0.0
 20
0.0
 30
0.0
 70
   128
 71
    19
 72
    26
 73
    14
  0
VERTEX
  5
3CB
  8
0
 62
     9
 10
0.0
 20
0.0
 30
0.0
 70
   128
 71
    25
 72
     1
 73
    23
  0
VERTEX
  5
3CC
  8
0
 62
     9
 10
0.0
 20
0.0
 30
0.0
 70
   128
 71
    25
 72
    23
 73
    20
  0
VERTEX
  5
3CD
  8
0
 62
     9
 10
0.0
 20
0.0
 30
0.0
 70
   128
 71
    19
 72
    15
 73
    22
  0
SEQEND
  5
3CE
  8
0
 62
     9
  0
ENDBLK
  5
3D1
  8
0
  0
BLOCK
  8
0
  2
E3_NODE_32_
 70
     0
 10
0.0
 20
0.0
 30
0.0
  3
E3_NODE_32_
  1

  0
POLYLINE
  5
3D3
  8
0
 62
     9
 66
     1
 10
0.0
 20
0.0
 30
0.0
 70
    64
 71
     5
 72
     3
  0
VERTEX
  5
3D4
  8
0
 10
38.0
 20
36.15599822998047
 30
17.02499961853027
 70
   192
  0
VERTEX
  5
3D5
  8
0
 10
12.5
 20
36.15599822998047
 30
17.02499961853027
 70
   192
  0
VERTEX
  5
3D6
  8
0
 10
12.5
 20
10.34700012207031
 30
8.164999961853027
 70
   192
  0
VERTEX
  5
3D7
  8
0
 10
38.0
 20
6.288000106811523
 30
6.771999835968018
 70
   192
  0
VERTEX
  5
3D8
  8
0
 10
15.03800010681152
 20
6.288000106811523
 30
6.771999835968018
 70
   192
  0
VERTEX
  5
3D9
  8
0
 62
     9
 10
0.0
 20
0.0
 30
0.0
 70
   128
 71
     3
 72
     2
 73
     1
  0
VERTEX
  5
3DA
  8
0
 62
     9
 10
0.0
 20
0.0
 30
0.0
 70
   128
 71
     1
 72
     4
 73
     3
  0
VERTEX
  5
3DB
  8
0
 62
     9
 10
0.0
 20
0.0
 30
0.0
 70
   128
 71
     4
 72
     5
 73
     3
  0
SEQEND
  5
3DC
  8
0
 62
     9
  0
ENDBLK
  5
3DF
  8
0
  0
BLOCK
  8
0
  2
E3_NODE_33_
 70
     0
 10
0.0
 20
0.0
 30
0.0
  3
E3_NODE_33_
  1

  0
POLYLINE
  5
3E1
  8
0
 62
     9
 66
     1
 10
0.0
 20
0.0
 30
0.0
 70
    64
 71
     4
 72
     2
  0
VERTEX
  5
3E2
  8
0
 10
38.0
 20
47.03799819946289
 30
-17.2810001373291
 70
   192
  0
VERTEX
  5
3E3
  8
0
 10
38.0
 20
46.62599945068359
 30
-25.12800025939941
 70
   192
  0
VERTEX
  5
3E4
  8
0
 10
31.5
 20
46.62599945068359
 30
-25.12800025939941
 70
   192
  0
VERTEX
  5
3E5
  8
0
 10
31.5
 20
47.03799819946289
 30
-17.2810001373291
 70
   192
  0
VERTEX
  5
3E6
  8
0
 62
     9
 10
0.0
 20
0.0
 30
0.0
 70
   128
 71
     3
 72
     2
 73
     1
  0
VERTEX
  5
3E7
  8
0
 62
     9
 10
0.0
 20
0.0
 30
0.0
 70
   128
 71
     1
 72
     4
 73
     3
  0
SEQEND
  5
3E8
  8
0
 62
     9
  0
ENDBLK
  5
3EB
  8
0
  0
BLOCK
  8
0
  2
E3_NODE_34_
 70
     0
 10
0.0
 20
0.0
 30
0.0
  3
E3_NODE_34_
  1

  0
POLYLINE
  5
3ED
  8
0
 62
     9
 66
     1
 10
0.0
 20
0.0
 30
0.0
 70
    64
 71
     4
 72
     2
  0
VERTEX
  5
3EE
  8
0
 10
31.5
 20
46.62599945068359
 30
-25.12800025939941
 70
   192
  0
VERTEX
  5
3EF
  8
0
 10
38.0
 20
46.62599945068359
 30
-25.12800025939941
 70
   192
  0
VERTEX
  5
3F0
  8
0
 10
38.0
 20
38.10400009155273
 30
-25.12800025939941
 70
   192
  0
VERTEX
  5
3F1
  8
0
 10
31.5
 20
38.10400009155273
 30
-25.12800025939941
 70
   192
  0
VERTEX
  5
3F2
  8
0
 62
     9
 10
0.0
 20
0.0
 30
0.0
 70
   128
 71
     3
 72
     2
 73
     1
  0
VERTEX
  5
3F3
  8
0
 62
     9
 10
0.0
 20
0.0
 30
0.0
 70
   128
 71
     1
 72
     4
 73
     3
  0
SEQEND
  5
3F4
  8
0
 62
     9
  0
ENDBLK
  5
3F7
  8
0
  0
BLOCK
  8
0
  2
E3_NODE_35_
 70
     0
 10
0.0
 20
0.0
 30
0.0
  3
E3_NODE_35_
  1

  0
POLYLINE
  5
3F9
  8
0
 62
     9
 66
     1
 10
0.0
 20
0.0
 30
0.0
 70
    64
 71
     6
 72
     4
  0
VERTEX
  5
3FA
  8
0
 10
12.5
 20
10.34700012207031
 30
8.164999961853027
 70
   192
  0
VERTEX
  5
3FB
  8
0
 10
12.5
 20
24.72900009155273
 30
5.071000099182129
 70
   192
  0
VERTEX
  5
3FC
  8
0
 10
12.5
 20
24.11100006103516
 30
2.0
 70
   192
  0
VERTEX
  5
3FD
  8
0
 10
12.5
 20
30.21299934387207
 30
13.60299968719482
 70
   192
  0
VERTEX
  5
3FE
  8
0
 10
12.5
 20
36.15599822998047
 30
17.02499961853027
 70
   192
  0
VERTEX
  5
3FF
  8
0
 10
12.5
 20
10.8459997177124
 30
2.0
 70
   192
  0
VERTEX
  5
400
  8
0
 62
     9
 10
0.0
 20
0.0
 30
0.0
 70
   128
 71
     3
 72
     2
 73
     1
  0
VERTEX
  5
401
  8
0
 62
     9
 10
0.0
 20
0.0
 30
0.0
 70
   128
 71
     2
 72
     4
 73
     1
  0
VERTEX
  5
402
  8
0
 62
     9
 10
0.0
 20
0.0
 30
0.0
 70
   128
 71
     4
 72
     5
 73
     1
  0
VERTEX
  5
403
  8
0
 62
     9
 10
0.0
 20
0.0
 30
0.0
 70
   128
 71
     1
 72
     6
 73
     3
  0
SEQEND
  5
404
  8
0
 62
     9
  0
ENDBLK
  5
407
  8
0
  0
BLOCK
  8
0
  2
E3_NODE_36_
 70
     0
 10
0.0
 20
0.0
 30
0.0
  3
E3_NODE_36_
  1

  0
POLYLINE
  5
409
  8
0
 62
     9
 66
     1
 10
0.0
 20
0.0
 30
0.0
 70
    64
 71
     4
 72
     2
  0
VERTEX
  5
40A
  8
0
 10
31.5
 20
38.38100051879883
 30
-19.8430004119873
 70
   192
  0
VERTEX
  5
40B
  8
0
 10
31.5
 20
38.10400009155273
 30
-25.12800025939941
 70
   192
  0
VERTEX
  5
40C
  8
0
 10
12.5
 20
38.10400009155273
 30
-25.12800025939941
 70
   192
  0
VERTEX
  5
40D
  8
0
 10
12.5
 20
38.38100051879883
 30
-19.8430004119873
 70
   192
  0
VERTEX
  5
40E
  8
0
 62
     9
 10
0.0
 20
0.0
 30
0.0
 70
   128
 71
     3
 72
     2
 73
     1
  0
VERTEX
  5
40F
  8
0
 62
     9
 10
0.0
 20
0.0
 30
0.0
 70
   128
 71
     1
 72
     4
 73
     3
  0
SEQEND
  5
410
  8
0
 62
     9
  0
ENDBLK
  5
413
  8
0
  0
BLOCK
  8
0
  2
E3_NODE_37_
 70
     0
 10
0.0
 20
0.0
 30
0.0
  3
E3_NODE_37_
  1

  0
POLYLINE
  5
415
  8
0
 62
     9
 66
     1
 10
0.0
 20
0.0
 30
0.0
 70
    64
 71
     7
 72
     5
  0
VERTEX
  5
416
  8
0
 10
31.5
 20
38.10400009155273
 30
-25.12800025939941
 70
   192
  0
VERTEX
  5
417
  8
0
 10
31.5
 20
42.29999923706055
 30
-17.0
 70
   192
  0
VERTEX
  5
418
  8
0
 10
31.5
 20
44.38299942016602
 30
-17.84099960327148
 70
   192
  0
VERTEX
  5
419
  8
0
 10
31.5
 20
38.38100051879883
 30
-19.8430004119873
 70
   192
  0
VERTEX
  5
41A
  8
0
 10
31.5
 20
41.37699890136719
 30
-17.0
 70
   192
  0
VERTEX
  5
41B
  8
0
 10
31.5
 20
46.62599945068359
 30
-25.12800025939941
 70
   192
  0
VERTEX
  5
41C
  8
0
 10
31.5
 20
47.03799819946289
 30
-17.2810001373291
 70
   192
  0
VERTEX
  5
41D
  8
0
 62
     9
 10
0.0
 20
0.0
 30
0.0
 70
   128
 71
     3
 72
     2
 73
     1
  0
VERTEX
  5
41E
  8
0
 62
     9
 10
0.0
 20
0.0
 30
0.0
 70
   128
 71
     5
 72
     4
 73
     1
  0
VERTEX
  5
41F
  8
0
 62
     9
 10
0.0
 20
0.0
 30
0.0
 70
   128
 71
     1
 72
     2
 73
     5
  0
VERTEX
  5
420
  8
0
 62
     9
 10
0.0
 20
0.0
 30
0.0
 70
   128
 71
     1
 72
     6
 73
     3
  0
VERTEX
  5
421
  8
0
 62
     9
 10
0.0
 20
0.0
 30
0.0
 70
   128
 71
     6
 72
     7
 73
     3
  0
SEQEND
  5
422
  8
0
 62
     9
  0
ENDBLK
  5
425
  8
0
  0
BLOCK
  8
0
  2
E3_NODE_38_
 70
     0
 10
0.0
 20
0.0
 30
0.0
  3
E3_NODE_38_
  1

  0
POLYLINE
  5
427
  8
0
 62
     9
 66
     1
 10
0.0
 20
0.0
 30
0.0
 70
    64
 71
     4
 72
     2
  0
VERTEX
  5
428
  8
0
 10
26.5
 20
44.38299942016602
 30
-17.84099960327148
 70
   192
  0
VERTEX
  5
429
  8
0
 10
31.5
 20
44.38299942016602
 30
-17.84099960327148
 70
   192
  0
VERTEX
  5
42A
  8
0
 10
31.5
 20
42.29999923706055
 30
-17.0
 70
   192
  0
VERTEX
  5
42B
  8
0
 10
26.5
 20
42.29999923706055
 30
-17.0
 70
   192
  0
VERTEX
  5
42C
  8
0
 62
     9
 10
0.0
 20
0.0
 30
0.0
 70
   128
 71
     3
 72
     2
 73
     1
  0
VERTEX
  5
42D
  8
0
 62
     9
 10
0.0
 20
0.0
 30
0.0
 70
   128
 71
     1
 72
     4
 73
     3
  0
SEQEND
  5
42E
  8
0
 62
     9
  0
ENDBLK
  5
431
  8
0
  0
BLOCK
  8
0
  2
E3_NODE_39_
 70
     0
 10
0.0
 20
0.0
 30
0.0
  3
E3_NODE_39_
  1

  0
POLYLINE
  5
433
  8
0
 62
     9
 66
     1
 10
0.0
 20
0.0
 30
0.0
 70
    64
 71
     4
 72
     2
  0
VERTEX
  5
434
  8
0
 10
26.5
 20
42.29999923706055
 30
-17.0
 70
   192
  0
VERTEX
  5
435
  8
0
 10
31.5
 20
42.29999923706055
 30
-17.0
 70
   192
  0
VERTEX
  5
436
  8
0
 10
31.5
 20
41.37699890136719
 30
-17.0
 70
   192
  0
VERTEX
  5
437
  8
0
 10
26.5
 20
41.37699890136719
 30
-17.0
 70
   192
  0
VERTEX
  5
438
  8
0
 62
     9
 10
0.0
 20
0.0
 30
0.0
 70
   128
 71
     3
 72
     2
 73
     1
  0
VERTEX
  5
439
  8
0
 62
     9
 10
0.0
 20
0.0
 30
0.0
 70
   128
 71
     1
 72
     4
 73
     3
  0
SEQEND
  5
43A
  8
0
 62
     9
  0
ENDBLK
  5
43D
  8
0
  0
BLOCK
  8
0
  2
E3_NODE_40_
 70
     0
 10
0.0
 20
0.0
 30
0.0
  3
E3_NODE_40_
  1

  0
POLYLINE
  5
43F
  8
0
 62
     9
 66
     1
 10
0.0
 20
0.0
 30
0.0
 70
    64
 71
     6
 72
     4
  0
VERTEX
  5
440
  8
0
 10
31.5
 20
41.37699890136719
 30
-17.0
 70
   192
  0
VERTEX
  5
441
  8
0
 10
31.5
 20
38.38100051879883
 30
-19.8430004119873
 70
   192
  0
VERTEX
  5
442
  8
0
 10
26.5
 20
39.14099884033203
 30
-18.0
 70
   192
  0
VERTEX
  5
443
  8
0
 10
12.5
 20
38.38100051879883
 30
-19.8430004119873
 70
   192
  0
VERTEX
  5
444
  8
0
 10
12.5
 20
39.14099884033203
 30
-18.0
 70
   192
  0
VERTEX
  5
445
  8
0
 10
26.5
 20
41.37699890136719
 30
-17.0
 70
   192
  0
VERTEX
  5
446
  8
0
 62
     9
 10
0.0
 20
0.0
 30
0.0
 70
   128
 71
     3
 72
     2
 73
     1
  0
VERTEX
  5
447
  8
0
 62
     9
 10
0.0
 20
0.0
 30
0.0
 70
   128
 71
     3
 72
     5
 73
     4
  0
VERTEX
  5
448
  8
0
 62
     9
 10
0.0
 20
0.0
 30
0.0
 70
   128
 71
     4
 72
     2
 73
     3
  0
VERTEX
  5
449
  8
0
 62
     9
 10
0.0
 20
0.0
 30
0.0
 70
   128
 71
     1
 72
     6
 73
     3
  0
SEQEND
  5
44A
  8
0
 62
     9
  0
ENDBLK
  5
44D
  8
0
  0
BLOCK
  8
0
  2
E3_NODE_41_
 70
     0
 10
0.0
 20
0.0
 30
0.0
  3
E3_NODE_41_
  1

  0
POLYLINE
  5
44F
  8
0
 62
     9
 66
     1
 10
0.0
 20
0.0
 30
0.0
 70
    64
 71
     9
 72
     7
  0
VERTEX
  5
450
  8
0
 10
12.5
 20
16.93099975585938
 30
-41.66999816894531
 70
   192
  0
VERTEX
  5
451
  8
0
 10
12.5
 20
11.48499965667725
 30
-33.86000061035156
 70
   192
  0
VERTEX
  5
452
  8
0
 10
12.5
 20
16.67099952697754
 30
-26.78899955749512
 70
   192
  0
VERTEX
  5
453
  8
0
 10
12.5
 20
17.88899993896484
 30
-18.0
 70
   192
  0
VERTEX
  5
454
  8
0
 10
12.5
 20
38.38100051879883
 30
-19.8430004119873
 70
   192
  0
VERTEX
  5
455
  8
0
 10
12.5
 20
38.10400009155273
 30
-25.12800025939941
 70
   192
  0
VERTEX
  5
456
  8
0
 10
12.5
 20
10.83800029754639
 30
-42.03900146484375
 70
   192
  0
VERTEX
  5
457
  8
0
 10
12.5
 20
39.14099884033203
 30
-18.0
 70
   192
  0
VERTEX
  5
458
  8
0
 10
12.5
 20
10.57299995422363
 30
-45.38600158691406
 70
   192
  0
VERTEX
  5
459
  8
0
 62
     9
 10
0.0
 20
0.0
 30
0.0
 70
   128
 71
     3
 72
     2
 73
     1
  0
VERTEX
  5
45A
  8
0
 62
     9
 10
0.0
 20
0.0
 30
0.0
 70
   128
 71
     6
 72
     5
 73
     4
  0
VERTEX
  5
45B
  8
0
 62
     9
 10
0.0
 20
0.0
 30
0.0
 70
   128
 71
     2
 72
     7
 73
     1
  0
VERTEX
  5
45C
  8
0
 62
     9
 10
0.0
 20
0.0
 30
0.0
 70
   128
 71
     5
 72
     8
 73
     4
  0
VERTEX
  5
45D
  8
0
 62
     9
 10
0.0
 20
0.0
 30
0.0
 70
   128
 71
     7
 72
     9
 73
     1
  0
VERTEX
  5
45E
  8
0
 62
     9
 10
0.0
 20
0.0
 30
0.0
 70
   128
 71
     1
 72
     6
 73
     3
  0
VERTEX
  5
45F
  8
0
 62
     9
 10
0.0
 20
0.0
 30
0.0
 70
   128
 71
     4
 72
     3
 73
     6
  0
SEQEND
  5
460
  8
0
 62
     9
  0
ENDBLK
  5
463
  8
0
  0
BLOCK
  8
0
  2
E3_NODE_42_
 70
     0
 10
0.0
 20
0.0
 30
0.0
  3
E3_NODE_42_
  1

  0
POLYLINE
  5
465
  8
0
 62
     9
 66
     1
 10
0.0
 20
0.0
 30
0.0
 70
    64
 71
    13
 72
    11
  0
VERTEX
  5
466
  8
0
 10
12.5
 20
16.67099952697754
 30
-26.78899955749512
 70
   192
  0
VERTEX
  5
467
  8
0
 10
7.341000080108643
 20
15.58699989318848
 30
-29.00300025939941
 70
   192
  0
VERTEX
  5
468
  8
0
 10
4.877999782562256
 20
16.62100028991699
 30
-26.87299919128418
 70
   192
  0
VERTEX
  5
469
  8
0
 10
12.5
 20
11.48499965667725
 30
-33.86000061035156
 70
   192
  0
VERTEX
  5
46A
  8
0
 10
9.711999893188477
 20
14.09200000762939
 30
-31.19899940490723
 70
   192
  0
VERTEX
  5
46B
  8
0
 10
0.0
 20
17.88899993896484
 30
-18.0
 70
   192
  0
VERTEX
  5
46C
  8
0
 10
1.565999984741211
 20
17.38599967956543
 30
-24.66200065612793
 70
   192
  0
VERTEX
  5
46D
  8
0
 10
0.0439999997615814
 20
17.47400093078613
 30
-24.31999969482422
 70
   192
  0
VERTEX
  5
46E
  8
0
 10
12.5
 20
17.88899993896484
 30
-18.0
 70
   192
  0
VERTEX
  5
46F
  8
0
 10
2.288000106811523
 20
17.28700065612793
 30
-25.01700019836426
 70
   192
  0
VERTEX
  5
470
  8
0
 10
4.776000022888184
 20
16.66300010681152
 30
-26.78499984741211
 70
   192
  0
VERTEX
  5
471
  8
0
 10
4.651999950408936
 20
16.71500015258789
 30
-26.67799949645996
 70
   192
  0
VERTEX
  5
472
  8
0
 10
0.0
 20
17.47400093078613
 30
-24.31900024414062
 70
   192
  0
VERTEX
  5
473
  8
0
 62
     9
 10
0.0
 20
0.0
 30
0.0
 70
   128
 71
     3
 72
     2
 73
     1
  0
VERTEX
  5
474
  8
0
 62
     9
 10
0.0
 20
0.0
 30
0.0
 70
   128
 71
     5
 72
     4
 73
     1
  0
VERTEX
  5
475
  8
0
 62
     9
 10
0.0
 20
0.0
 30
0.0
 70
   128
 71
     1
 72
     2
 73
     5
  0
VERTEX
  5
476
  8
0
 62
     9
 10
0.0
 20
0.0
 30
0.0
 70
   128
 71
     8
 72
     7
 73
     6
  0
VERTEX
  5
477
  8
0
 62
     9
 10
0.0
 20
0.0
 30
0.0
 70
   128
 71
     7
 72
    10
 73
     9
  0
VERTEX
  5
478
  8
0
 62
     9
 10
0.0
 20
0.0
 30
0.0
 70
   128
 71
    11
 72
     1
 73
     9
  0
VERTEX
  5
479
  8
0
 62
     9
 10
0.0
 20
0.0
 30
0.0
 70
   128
 71
     9
 72
    12
 73
    11
  0
VERTEX
  5
47A
  8
0
 62
     9
 10
0.0
 20
0.0
 30
0.0
 70
   128
 71
     9
 72
    10
 73
    12
  0
VERTEX
  5
47B
  8
0
 62
     9
 10
0.0
 20
0.0
 30
0.0
 70
   128
 71
     9
 72
     6
 73
     7
  0
VERTEX
  5
47C
  8
0
 62
     9
 10
0.0
 20
0.0
 30
0.0
 70
   128
 71
     6
 72
    13
 73
     8
  0
VERTEX
  5
47D
  8
0
 62
     9
 10
0.0
 20
0.0
 30
0.0
 70
   128
 71
     1
 72
    11
 73
     3
  0
SEQEND
  5
47E
  8
0
 62
     9
  0
ENDBLK
  5
481
  8
0
  0
BLOCK
  8
0
  2
E3_NODE_43_
 70
     0
 10
0.0
 20
0.0
 30
0.0
  3
E3_NODE_43_
  1

  0
POLYLINE
  5
483
  8
0
 62
     9
 66
     1
 10
0.0
 20
0.0
 30
0.0
 70
    64
 71
     8
 72
     6
  0
VERTEX
  5
484
  8
0
 10
-11.0
 20
42.0
 30
-18.0
 70
   192
  0
VERTEX
  5
485
  8
0
 10
12.5
 20
39.14099884033203
 30
-18.0
 70
   192
  0
VERTEX
  5
486
  8
0
 10
0.0
 20
33.6870002746582
 30
-18.0
 70
   192
  0
VERTEX
  5
487
  8
0
 10
12.5
 20
17.88899993896484
 30
-18.0
 70
   192
  0
VERTEX
  5
488
  8
0
 10
0.0
 20
17.88899993896484
 30
-18.0
 70
   192
  0
VERTEX
  5
489
  8
0
 10
26.5
 20
42.0
 30
-18.0
 70
   192
  0
VERTEX
  5
48A
  8
0
 10
26.5
 20
39.14099884033203
 30
-18.0
 70
   192
  0
VERTEX
  5
48B
  8
0
 10
-11.0
 20
33.6870002746582
 30
-18.0
 70
   192
  0
VERTEX
  5
48C
  8
0
 62
     9
 10
0.0
 20
0.0
 30
0.0
 70
   128
 71
     3
 72
     2
 73
     1
  0
VERTEX
  5
48D
  8
0
 62
     9
 10
0.0
 20
0.0
 30
0.0
 70
   128
 71
     3
 72
     5
 73
     4
  0
VERTEX
  5
48E
  8
0
 62
     9
 10
0.0
 20
0.0
 30
0.0
 70
   128
 71
     4
 72
     2
 73
     3
  0
VERTEX
  5
48F
  8
0
 62
     9
 10
0.0
 20
0.0
 30
0.0
 70
   128
 71
     2
 72
     7
 73
     6
  0
VERTEX
  5
490
  8
0
 62
     9
 10
0.0
 20
0.0
 30
0.0
 70
   128
 71
     6
 72
     1
 73
     2
  0
VERTEX
  5
491
  8
0
 62
     9
 10
0.0
 20
0.0
 30
0.0
 70
   128
 71
     1
 72
     8
 73
     3
  0
SEQEND
  5
492
  8
0
 62
     9
  0
ENDBLK
  5
495
  8
0
  0
BLOCK
  8
0
  2
E3_NODE_44_
 70
     0
 10
0.0
 20
0.0
 30
0.0
  3
E3_NODE_44_
  1

  0
POLYLINE
  5
497
  8
0
 62
     9
 66
     1
 10
0.0
 20
0.0
 30
0.0
 70
    64
 71
     4
 72
     2
  0
VERTEX
  5
498
  8
0
 10
-11.0
 20
33.6870002746582
 30
-18.0
 70
   192
  0
VERTEX
  5
499
  8
0
 10
0.0
 20
33.6870002746582
 30
-18.0
 70
   192
  0
VERTEX
  5
49A
  8
0
 10
0.0
 20
31.98999977111816
 30
-50.36600112915039
 70
   192
  0
VERTEX
  5
49B
  8
0
 10
-11.0
 20
31.98999977111816
 30
-50.36600112915039
 70
   192
  0
VERTEX
  5
49C
  8
0
 62
     9
 10
0.0
 20
0.0
 30
0.0
 70
   128
 71
     3
 72
     2
 73
     1
  0
VERTEX
  5
49D
  8
0
 62
     9
 10
0.0
 20
0.0
 30
0.0
 70
   128
 71
     1
 72
     4
 73
     3
  0
SEQEND
  5
49E
  8
0
 62
     9
  0
ENDBLK
  5
4A1
  8
0
  0
BLOCK
  8
0
  2
E3_NODE_45_
 70
     0
 10
0.0
 20
0.0
 30
0.0
  3
E3_NODE_45_
  1

  0
POLYLINE
  5
4A3
  8
0
 62
     9
 66
     1
 10
0.0
 20
0.0
 30
0.0
 70
    64
 71
     8
 72
     6
  0
VERTEX
  5
4A4
  8
0
 10
0.0
 20
31.98999977111816
 30
-50.36600112915039
 70
   192
  0
VERTEX
  5
4A5
  8
0
 10
0.0
 20
18.16300010681152
 30
-51.5
 70
   192
  0
VERTEX
  5
4A6
  8
0
 10
0.0
 20
22.29299926757812
 30
-56.45500183105469
 70
   192
  0
VERTEX
  5
4A7
  8
0
 10
0.0
 20
17.47400093078613
 30
-24.31900024414062
 70
   192
  0
VERTEX
  5
4A8
  8
0
 10
0.0
 20
16.05200004577637
 30
-51.5
 70
   192
  0
VERTEX
  5
4A9
  8
0
 10
0.0
 20
28.72200012207031
 30
-55.92800140380859
 70
   192
  0
VERTEX
  5
4AA
  8
0
 10
0.0
 20
33.6870002746582
 30
-18.0
 70
   192
  0
VERTEX
  5
4AB
  8
0
 10
0.0
 20
17.88899993896484
 30
-18.0
 70
   192
  0
VERTEX
  5
4AC
  8
0
 62
     9
 10
0.0
 20
0.0
 30
0.0
 70
   128
 71
     3
 72
     2
 73
     1
  0
VERTEX
  5
4AD
  8
0
 62
     9
 10
0.0
 20
0.0
 30
0.0
 70
   128
 71
     2
 72
     5
 73
     4
  0
VERTEX
  5
4AE
  8
0
 62
     9
 10
0.0
 20
0.0
 30
0.0
 70
   128
 71
     1
 72
     6
 73
     3
  0
VERTEX
  5
4AF
  8
0
 62
     9
 10
0.0
 20
0.0
 30
0.0
 70
   128
 71
     4
 72
     8
 73
     7
  0
VERTEX
  5
4B0
  8
0
 62
     9
 10
0.0
 20
0.0
 30
0.0
 70
   128
 71
     4
 72
     7
 73
     2
  0
VERTEX
  5
4B1
  8
0
 62
     9
 10
0.0
 20
0.0
 30
0.0
 70
   128
 71
     2
 72
     7
 73
     1
  0
SEQEND
  5
4B2
  8
0
 62
     9
  0
ENDBLK
  5
4B5
  8
0
  0
BLOCK
  8
0
  2
E3_NODE_46_
 70
     0
 10
0.0
 20
0.0
 30
0.0
  3
E3_NODE_46_
  1

  0
POLYLINE
  5
4B7
  8
0
 62
     9
 66
     1
 10
0.0
 20
0.0
 30
0.0
 70
    64
 71
     5
 72
     3
  0
VERTEX
  5
4B8
  8
0
 10
0.0
 20
18.16300010681152
 30
-51.5
 70
   192
  0
VERTEX
  5
4B9
  8
0
 10
0.0
 20
16.05200004577637
 30
-51.5
 70
   192
  0
VERTEX
  5
4BA
  8
0
 10
-4.521999835968018
 20
15.40200042724609
 30
-51.5
 70
   192
  0
VERTEX
  5
4BB
  8
0
 10
-11.0
 20
18.16300010681152
 30
-51.5
 70
   192
  0
VERTEX
  5
4BC
  8
0
 10
-11.0
 20
11.69099998474121
 30
-51.5
 70
   192
  0
VERTEX
  5
4BD
  8
0
 62
     9
 10
0.0
 20
0.0
 30
0.0
 70
   128
 71
     3
 72
     2
 73
     1
  0
VERTEX
  5
4BE
  8
0
 62
     9
 10
0.0
 20
0.0
 30
0.0
 70
   128
 71
     1
 72
     4
 73
     3
  0
VERTEX
  5
4BF
  8
0
 62
     9
 10
0.0
 20
0.0
 30
0.0
 70
   128
 71
     4
 72
     5
 73
     3
  0
SEQEND
  5
4C0
  8
0
 62
     9
  0
ENDBLK
  5
4C3
  8
0
  0
BLOCK
  8
0
  2
E3_NODE_47_
 70
     0
 10
0.0
 20
0.0
 30
0.0
  3
E3_NODE_47_
  1

  0
POLYLINE
  5
4C5
  8
0
 62
     9
 66
     1
 10
0.0
 20
0.0
 30
0.0
 70
    64
 71
     8
 72
     6
  0
VERTEX
  5
4C6
  8
0
 10
0.0
 20
28.72200012207031
 30
-55.92800140380859
 70
   192
  0
VERTEX
  5
4C7
  8
0
 10
-11.0
 20
28.72200012207031
 30
-55.92800140380859
 70
   192
  0
VERTEX
  5
4C8
  8
0
 10
-11.0
 20
31.98999977111816
 30
-50.36600112915039
 70
   192
  0
VERTEX
  5
4C9
  8
0
 10
0.0
 20
22.29299926757812
 30
-56.45500183105469
 70
   192
  0
VERTEX
  5
4CA
  8
0
 10
-11.0
 20
22.29299926757812
 30
-56.45500183105469
 70
   192
  0
VERTEX
  5
4CB
  8
0
 10
0.0
 20
18.16300010681152
 30
-51.5
 70
   192
  0
VERTEX
  5
4CC
  8
0
 10
-11.0
 20
18.16300010681152
 30
-51.5
 70
   192
  0
VERTEX
  5
4CD
  8
0
 10
0.0
 20
31.98999977111816
 30
-50.36600112915039
 70
   192
  0
VERTEX
  5
4CE
  8
0
 62
     9
 10
0.0
 20
0.0
 30
0.0
 70
   128
 71
     3
 72
     2
 73
     1
  0
VERTEX
  5
4CF
  8
0
 62
     9
 10
0.0
 20
0.0
 30
0.0
 70
   128
 71
     2
 72
     5
 73
     4
  0
VERTEX
  5
4D0
  8
0
 62
     9
 10
0.0
 20
0.0
 30
0.0
 70
   128
 71
     6
 72
     4
 73
     5
  0
VERTEX
  5
4D1
  8
0
 62
     9
 10
0.0
 20
0.0
 30
0.0
 70
   128
 71
     5
 72
     7
 73
     6
  0
VERTEX
  5
4D2
  8
0
 62
     9
 10
0.0
 20
0.0
 30
0.0
 70
   128
 71
     4
 72
     1
 73
     2
  0
VERTEX
  5
4D3
  8
0
 62
     9
 10
0.0
 20
0.0
 30
0.0
 70
   128
 71
     1
 72
     8
 73
     3
  0
SEQEND
  5
4D4
  8
0
 62
     9
  0
ENDBLK
  5
4D7
  8
0
  0
BLOCK
  8
0
  2
E3_NODE_48_
 70
     0
 10
0.0
 20
0.0
 30
0.0
  3
E3_NODE_48_
  1

  0
POLYLINE
  5
4D9
  8
0
 62
     9
 66
     1
 10
0.0
 20
0.0
 30
0.0
 70
    64
 71
    88
 72
    90
  0
VERTEX
  5
4DA
  8
0
 10
38.0
 20
49.47700119018555
 30
16.37299919128418
 70
   192
  0
VERTEX
  5
4DB
  8
0
 10
-18.0
 20
49.47700119018555
 30
16.37299919128418
 70
   192
  0
VERTEX
  5
4DC
  8
0
 10
-18.0
 20
39.4379997253418
 30
17.8169994354248
 70
   192
  0
VERTEX
  5
4DD
  8
0
 10
-18.0
 20
39.4379997253418
 30
-17.8169994354248
 70
   192
  0
VERTEX
  5
4DE
  8
0
 10
-18.0
 20
49.47700119018555
 30
-16.37299919128418
 70
   192
  0
VERTEX
  5
4DF
  8
0
 10
-11.0
 20
42.0
 30
-18.0
 70
   192
  0
VERTEX
  5
4E0
  8
0
 10
26.5
 20
44.38299942016602
 30
-17.84099960327148
 70
   192
  0
VERTEX
  5
4E1
  8
0
 10
26.5
 20
42.0
 30
-18.0
 70
   192
  0
VERTEX
  5
4E2
  8
0
 10
31.5
 20
47.03799819946289
 30
-17.2810001373291
 70
   192
  0
VERTEX
  5
4E3
  8
0
 10
31.5
 20
44.38299942016602
 30
-17.84099960327148
 70
   192
  0
VERTEX
  5
4E4
  8
0
 10
38.0
 20
49.47700119018555
 30
-16.37299919128418
 70
   192
  0
VERTEX
  5
4E5
  8
0
 10
38.0
 20
47.03799819946289
 30
-17.2810001373291
 70
   192
  0
VERTEX
  5
4E6
  8
0
 10
-11.0
 20
30.21299934387207
 30
-13.60299968719482
 70
   192
  0
VERTEX
  5
4E7
  8
0
 10
-18.0
 20
30.21299934387207
 30
-13.60299968719482
 70
   192
  0
VERTEX
  5
4E8
  8
0
 10
-11.0
 20
24.72900009155273
 30
-5.071000099182129
 70
   192
  0
VERTEX
  5
4E9
  8
0
 10
12.5
 20
24.72900009155273
 30
5.071000099182129
 70
   192
  0
VERTEX
  5
4EA
  8
0
 10
-18.0
 20
24.72900009155273
 30
5.071000099182129
 70
   192
  0
VERTEX
  5
4EB
  8
0
 10
-11.0
 20
24.11100006103516
 30
2.0
 70
   192
  0
VERTEX
  5
4EC
  8
0
 10
-18.0
 20
24.11100006103516
 30
2.0
 70
   192
  0
VERTEX
  5
4ED
  8
0
 10
-18.0
 20
24.72900009155273
 30
-5.071000099182129
 70
   192
  0
VERTEX
  5
4EE
  8
0
 10
12.5
 20
30.21299934387207
 30
13.60299968719482
 70
   192
  0
VERTEX
  5
4EF
  8
0
 10
-18.0
 20
30.21299934387207
 30
13.60299968719482
 70
   192
  0
VERTEX
  5
4F0
  8
0
 10
38.0
 20
39.4379997253418
 30
17.8169994354248
 70
   192
  0
VERTEX
  5
4F1
  8
0
 10
12.5
 20
36.15599822998047
 30
17.02499961853027
 70
   192
  0
VERTEX
  5
4F2
  8
0
 10
38.0
 20
57.14300155639648
 30
9.732000350952148
 70
   192
  0
VERTEX
  5
4F3
  8
0
 10
14.51399993896484
 20
58.69300079345703
 30
6.732999801635742
 70
   192
  0
VERTEX
  5
4F4
  8
0
 10
12.92099952697754
 20
57.33000183105469
 30
9.390000343322754
 70
   192
  0
VERTEX
  5
4F5
  8
0
 10
15.00800037384033
 20
59.12400054931641
 30
5.546000003814697
 70
   192
  0
VERTEX
  5
4F6
  8
0
 10
38.0
 20
60.0
 30
0.0
 70
   192
  0
VERTEX
  5
4F7
  8
0
 10
15.93200016021729
 20
59.93999862670898
 30
1.472000002861023
 70
   192
  0
VERTEX
  5
4F8
  8
0
 10
15.82499980926514
 20
59.84400177001953
 30
2.361000061035156
 70
   192
  0
VERTEX
  5
4F9
  8
0
 10
16.0
 20
60.0
 30
0.0
 70
   192
  0
VERTEX
  5
4FA
  8
0
 10
12.77400016784668
 20
57.20399856567383
 30
9.635000228881836
 70
   192
  0
VERTEX
  5
4FB
  8
0
 10
-11.01500034332275
 20
55.7599983215332
 30
11.60499954223633
 70
   192
  0
VERTEX
  5
4FC
  8
0
 10
-12.61699962615967
 20
57.08499908447266
 30
9.692000389099121
 70
   192
  0
VERTEX
  5
4FD
  8
0
 10
-9.491999626159668
 20
54.57300186157227
 30
12.88099956512451
 70
   192
  0
VERTEX
  5
4FE
  8
0
 10
-6.510000228881836
 20
52.50600051879883
 30
14.61600017547607
 70
   192
  0
VERTEX
  5
4FF
  8
0
 10
-4.361000061035156
 20
51.32799911499023
 30
15.39400005340576
 70
   192
  0
VERTEX
  5
500
  8
0
 10
-4.933000087738037
 20
51.64199829101562
 30
15.1870002746582
 70
   192
  0
VERTEX
  5
501
  8
0
 10
-1.629999995231628
 20
50.40599822998047
 30
15.91699981689453
 70
   192
  0
VERTEX
  5
502
  8
0
 10
0.9760000109672546
 20
50.30400085449219
 30
15.97000026702881
 70
   192
  0
VERTEX
  5
503
  8
0
 10
4.320000171661377
 20
51.30899810791016
 30
15.4060001373291
 70
   192
  0
VERTEX
  5
504
  8
0
 10
1.330000042915344
 20
50.35300064086914
 30
15.94499969482422
 70
   192
  0
VERTEX
  5
505
  8
0
 10
7.551000118255615
 20
53.18099975585938
 30
14.10599994659424
 70
   192
  0
VERTEX
  5
506
  8
0
 10
4.922999858856201
 20
51.65900039672852
 30
15.16300010681152
 70
   192
  0
VERTEX
  5
507
  8
0
 10
12.69400024414062
 20
57.13800048828125
 30
9.729000091552734
 70
   192
  0
VERTEX
  5
508
  8
0
 10
11.61200046539307
 20
56.24200057983398
 30
11.00800037384033
 70
   192
  0
VERTEX
  5
509
  8
0
 10
8.829999923706055
 20
54.08200073242188
 30
13.3430004119873
 70
   192
  0
VERTEX
  5
50A
  8
0
 10
-18.0
 20
60.0
 30
0.0
 70
   192
  0
VERTEX
  5
50B
  8
0
 10
-16.0
 20
60.0
 30
0.0930000022053719
 70
   192
  0
VERTEX
  5
50C
  8
0
 10
-15.99100017547607
 20
59.99200057983398
 30
0.0010000000474975
 70
   192
  0
VERTEX
  5
50D
  8
0
 10
-18.0
 20
57.14300155639648
 30
9.732000350952148
 70
   192
  0
VERTEX
  5
50E
  8
0
 10
-15.32699966430664
 20
59.40499877929688
 30
4.591000080108643
 70
   192
  0
VERTEX
  5
50F
  8
0
 10
-13.35700035095215
 20
57.69699859619141
 30
8.809000015258789
 70
   192
  0
VERTEX
  5
510
  8
0
 10
-13.6560001373291
 20
57.95299911499023
 30
8.336999893188477
 70
   192
  0
VERTEX
  5
511
  8
0
 10
-12.89299964904785
 20
57.31399917602539
 30
9.362000465393066
 70
   192
  0
VERTEX
  5
512
  8
0
 10
-15.11400032043457
 20
59.21699905395508
 30
5.25
 70
   192
  0
VERTEX
  5
513
  8
0
 10
-15.94400024414062
 20
59.95000076293945
 30
1.337000012397766
 70
   192
  0
VERTEX
  5
514
  8
0
 10
-18.0
 20
57.14300155639648
 30
-9.732000350952148
 70
   192
  0
VERTEX
  5
515
  8
0
 10
-13.41499996185303
 20
57.74700164794922
 30
-8.720000267028809
 70
   192
  0
VERTEX
  5
516
  8
0
 10
-12.89099979400635
 20
57.3120002746582
 30
-9.361000061035156
 70
   192
  0
VERTEX
  5
517
  8
0
 10
-14.25100040435791
 20
58.46500015258789
 30
-7.27299976348877
 70
   192
  0
VERTEX
  5
518
  8
0
 10
-15.68000030517578
 20
59.71699905395508
 30
-3.181999921798706
 70
   192
  0
VERTEX
  5
519
  8
0
 10
-15.44400024414062
 20
59.50699996948242
 30
-4.182000160217285
 70
   192
  0
VERTEX
  5
51A
  8
0
 10
11.54199981689453
 20
56.18500137329102
 30
-11.08100032806396
 70
   192
  0
VERTEX
  5
51B
  8
0
 10
12.60499954223633
 20
57.07500076293945
 30
-9.687999725341797
 70
   192
  0
VERTEX
  5
51C
  8
0
 10
10.1850004196167
 20
55.10499954223633
 30
-12.34000015258789
 70
   192
  0
VERTEX
  5
51D
  8
0
 10
7.135000228881836
 20
52.90399932861328
 30
-14.32100009918213
 70
   192
  0
VERTEX
  5
51E
  8
0
 10
5.464000225067139
 20
51.89199829101562
 30
-15.03800010681152
 70
   192
  0
VERTEX
  5
51F
  8
0
 10
2.621000051498413
 20
50.65299987792969
 30
-15.78400039672852
 70
   192
  0
VERTEX
  5
520
  8
0
 10
4.934000015258789
 20
51.6609992980957
 30
-15.17700004577637
 70
   192
  0
VERTEX
  5
521
  8
0
 10
0.0060000000521541
 20
50.24599838256836
 30
-16.0
 70
   192
  0
VERTEX
  5
522
  8
0
 10
-5.553999900817871
 20
51.94200134277344
 30
-15.00500011444092
 70
   192
  0
VERTEX
  5
523
  8
0
 10
-4.932000160217285
 20
51.66899871826172
 30
-15.17000007629395
 70
   192
  0
VERTEX
  5
524
  8
0
 10
-9.440999984741211
 20
54.53499984741211
 30
-12.91800022125244
 70
   192
  0
VERTEX
  5
525
  8
0
 10
-6.170000076293945
 20
52.29899978637695
 30
-14.76299953460693
 70
   192
  0
VERTEX
  5
526
  8
0
 10
-12.61999988555908
 20
57.08599853515625
 30
-9.694000244140625
 70
   192
  0
VERTEX
  5
527
  8
0
 10
-11.22200012207031
 20
55.92599868774414
 30
-11.4040002822876
 70
   192
  0
VERTEX
  5
528
  8
0
 10
-2.617000102996826
 20
50.6510009765625
 30
-15.78499984741211
 70
   192
  0
VERTEX
  5
529
  8
0
 10
38.0
 20
57.14300155639648
 30
-9.732000350952148
 70
   192
  0
VERTEX
  5
52A
  8
0
 10
15.65900039672852
 20
59.69699859619141
 30
-3.286999940872192
 70
   192
  0
VERTEX
  5
52B
  8
0
 10
12.86699962615967
 20
57.29399871826172
 30
-9.345999717712402
 70
   192
  0
VERTEX
  5
52C
  8
0
 10
13.73099994659424
 20
58.01699829101562
 30
-8.213000297546387
 70
   192
  0
VERTEX
  5
52D
  8
0
 10
14.125
 20
58.35599899291992
 30
-7.515999794006348
 70
   192
  0
VERTEX
  5
52E
  8
0
 10
15.39099979400635
 20
59.46099853515625
 30
-4.372000217437744
 70
   192
  0
VERTEX
  5
52F
  8
0
 10
38.0
 20
36.15599822998047
 30
17.02499961853027
 70
   192
  0
VERTEX
  5
530
  8
0
 10
12.5
 20
24.11100006103516
 30
2.0
 70
   192
  0
VERTEX
  5
531
  8
0
 10
-11.0
 20
39.4379997253418
 30
-17.8169994354248
 70
   192
  0
VERTEX
  5
532
  8
0
 62
     9
 10
0.0
 20
0.0
 30
0.0
 70
   128
 71
     3
 72
     2
 73
     1
  0
VERTEX
  5
533
  8
0
 62
     9
 10
0.0
 20
0.0
 30
0.0
 70
   128
 71
     6
 72
     5
 73
     4
  0
VERTEX
  5
534
  8
0
 62
     9
 10
0.0
 20
0.0
 30
0.0
 70
   128
 71
     6
 72
     8
 73
     7
  0
VERTEX
  5
535
  8
0
 62
     9
 10
0.0
 20
0.0
 30
0.0
 70
   128
 71
     7
 72
     5
 73
     6
  0
VERTEX
  5
536
  8
0
 62
     9
 10
0.0
 20
0.0
 30
0.0
 70
   128
 71
     7
 72
    10
 73
     9
  0
VERTEX
  5
537
  8
0
 62
     9
 10
0.0
 20
0.0
 30
0.0
 70
   128
 71
     9
 72
    12
 73
    11
  0
VERTEX
  5
538
  8
0
 62
     9
 10
0.0
 20
0.0
 30
0.0
 70
   128
 71
    11
 72
     5
 73
     9
  0
VERTEX
  5
539
  8
0
 62
     9
 10
0.0
 20
0.0
 30
0.0
 70
   128
 71
     9
 72
     5
 73
     7
  0
VERTEX
  5
53A
  8
0
 62
     9
 10
0.0
 20
0.0
 30
0.0
 70
   128
 71
     4
 72
    14
 73
    13
  0
VERTEX
  5
53B
  8
0
 62
     9
 10
0.0
 20
0.0
 30
0.0
 70
   128
 71
    15
 72
    13
 73
    14
  0
VERTEX
  5
53C
  8
0
 62
     9
 10
0.0
 20
0.0
 30
0.0
 70
   128
 71
    18
 72
    17
 73
    16
  0
VERTEX
  5
53D
  8
0
 62
     9
 10
0.0
 20
0.0
 30
0.0
 70
   128
 71
    20
 72
    19
 73
    18
  0
VERTEX
  5
53E
  8
0
 62
     9
 10
0.0
 20
0.0
 30
0.0
 70
   128
 71
    19
 72
    17
 73
    18
  0
VERTEX
  5
53F
  8
0
 62
     9
 10
0.0
 20
0.0
 30
0.0
 70
   128
 71
    18
 72
    15
 73
    20
  0
VERTEX
  5
540
  8
0
 62
     9
 10
0.0
 20
0.0
 30
0.0
 70
   128
 71
    17
 72
    22
 73
    21
  0
VERTEX
  5
541
  8
0
 62
     9
 10
0.0
 20
0.0
 30
0.0
 70
   128
 71
    24
 72
     3
 73
    23
  0
VERTEX
  5
542
  8
0
 62
     9
 10
0.0
 20
0.0
 30
0.0
 70
   128
 71
    24
 72
    21
 73
    22
  0
VERTEX
  5
543
  8
0
 62
     9
 10
0.0
 20
0.0
 30
0.0
 70
   128
 71
    22
 72
     3
 73
    24
  0
VERTEX
  5
544
  8
0
 62
     9
 10
0.0
 20
0.0
 30
0.0
 70
   128
 71
    27
 72
    26
 73
    25
  0
VERTEX
  5
545
  8
0
 62
     9
 10
0.0
 20
0.0
 30
0.0
 70
   128
 71
    26
 72
    28
 73
    25
  0
VERTEX
  5
546
  8
0
 62
     9
 10
0.0
 20
0.0
 30
0.0
 70
   128
 71
    31
 72
    30
 73
    29
  0
VERTEX
  5
547
  8
0
 62
     9
 10
0.0
 20
0.0
 30
0.0
 70
   128
 71
    30
 72
    32
 73
    29
  0
VERTEX
  5
548
  8
0
 62
     9
 10
0.0
 20
0.0
 30
0.0
 70
   128
 71
    29
 72
    25
 73
    31
  0
VERTEX
  5
549
  8
0
 62
     9
 10
0.0
 20
0.0
 30
0.0
 70
   128
 71
    25
 72
    28
 73
    31
  0
VERTEX
  5
54A
  8
0
 62
     9
 10
0.0
 20
0.0
 30
0.0
 70
   128
 71
    25
 72
    33
 73
    27
  0
VERTEX
  5
54B
  8
0
 62
     9
 10
0.0
 20
0.0
 30
0.0
 70
   128
 71
    35
 72
    34
 73
     2
  0
VERTEX
  5
54C
  8
0
 62
     9
 10
0.0
 20
0.0
 30
0.0
 70
   128
 71
    34
 72
    36
 73
     2
  0
VERTEX
  5
54D
  8
0
 62
     9
 10
0.0
 20
0.0
 30
0.0
 70
   128
 71
    36
 72
    37
 73
     2
  0
VERTEX
  5
54E
  8
0
 62
     9
 10
0.0
 20
0.0
 30
0.0
 70
   128
 71
    39
 72
    38
 73
     2
  0
VERTEX
  5
54F
  8
0
 62
     9
 10
0.0
 20
0.0
 30
0.0
 70
   128
 71
     2
 72
    37
 73
    39
  0
VERTEX
  5
550
  8
0
 62
     9
 10
0.0
 20
0.0
 30
0.0
 70
   128
 71
    38
 72
    40
 73
     2
  0
VERTEX
  5
551
  8
0
 62
     9
 10
0.0
 20
0.0
 30
0.0
 70
   128
 71
    41
 72
     1
 73
     2
  0
VERTEX
  5
552
  8
0
 62
     9
 10
0.0
 20
0.0
 30
0.0
 70
   128
 71
    43
 72
    42
 73
     1
  0
VERTEX
  5
553
  8
0
 62
     9
 10
0.0
 20
0.0
 30
0.0
 70
   128
 71
     1
 72
    41
 73
    43
  0
VERTEX
  5
554
  8
0
 62
     9
 10
0.0
 20
0.0
 30
0.0
 70
   128
 71
    45
 72
    44
 73
     1
  0
VERTEX
  5
555
  8
0
 62
     9
 10
0.0
 20
0.0
 30
0.0
 70
   128
 71
    46
 72
    25
 73
     1
  0
VERTEX
  5
556
  8
0
 62
     9
 10
0.0
 20
0.0
 30
0.0
 70
   128
 71
     1
 72
    47
 73
    46
  0
VERTEX
  5
557
  8
0
 62
     9
 10
0.0
 20
0.0
 30
0.0
 70
   128
 71
     1
 72
    48
 73
    47
  0
VERTEX
  5
558
  8
0
 62
     9
 10
0.0
 20
0.0
 30
0.0
 70
   128
 71
     1
 72
    44
 73
    48
  0
VERTEX
  5
559
  8
0
 62
     9
 10
0.0
 20
0.0
 30
0.0
 70
   128
 71
     1
 72
    42
 73
    45
  0
VERTEX
  5
55A
  8
0
 62
     9
 10
0.0
 20
0.0
 30
0.0
 70
   128
 71
     2
 72
    40
 73
    41
  0
VERTEX
  5
55B
  8
0
 62
     9
 10
0.0
 20
0.0
 30
0.0
 70
   128
 71
    51
 72
    50
 73
    49
  0
VERTEX
  5
55C
  8
0
 62
     9
 10
0.0
 20
0.0
 30
0.0
 70
   128
 71
    53
 72
    52
 73
    49
  0
VERTEX
  5
55D
  8
0
 62
     9
 10
0.0
 20
0.0
 30
0.0
 70
   128
 71
    55
 72
    54
 73
    52
  0
VERTEX
  5
55E
  8
0
 62
     9
 10
0.0
 20
0.0
 30
0.0
 70
   128
 71
    56
 72
    35
 73
    52
  0
VERTEX
  5
55F
  8
0
 62
     9
 10
0.0
 20
0.0
 30
0.0
 70
   128
 71
    52
 72
    54
 73
    56
  0
VERTEX
  5
560
  8
0
 62
     9
 10
0.0
 20
0.0
 30
0.0
 70
   128
 71
    52
 72
    57
 73
    55
  0
VERTEX
  5
561
  8
0
 62
     9
 10
0.0
 20
0.0
 30
0.0
 70
   128
 71
    52
 72
    53
 73
    57
  0
VERTEX
  5
562
  8
0
 62
     9
 10
0.0
 20
0.0
 30
0.0
 70
   128
 71
    49
 72
    58
 73
    53
  0
VERTEX
  5
563
  8
0
 62
     9
 10
0.0
 20
0.0
 30
0.0
 70
   128
 71
    49
 72
    50
 73
    58
  0
VERTEX
  5
564
  8
0
 62
     9
 10
0.0
 20
0.0
 30
0.0
 70
   128
 71
    61
 72
    60
 73
    59
  0
VERTEX
  5
565
  8
0
 62
     9
 10
0.0
 20
0.0
 30
0.0
 70
   128
 71
    60
 72
    62
 73
    59
  0
VERTEX
  5
566
  8
0
 62
     9
 10
0.0
 20
0.0
 30
0.0
 70
   128
 71
    64
 72
    63
 73
    59
  0
VERTEX
  5
567
  8
0
 62
     9
 10
0.0
 20
0.0
 30
0.0
 70
   128
 71
    63
 72
    51
 73
    49
  0
VERTEX
  5
568
  8
0
 62
     9
 10
0.0
 20
0.0
 30
0.0
 70
   128
 71
    49
 72
    59
 73
    63
  0
VERTEX
  5
569
  8
0
 62
     9
 10
0.0
 20
0.0
 30
0.0
 70
   128
 71
    59
 72
    62
 73
    64
  0
VERTEX
  5
56A
  8
0
 62
     9
 10
0.0
 20
0.0
 30
0.0
 70
   128
 71
    66
 72
    65
 73
    11
  0
VERTEX
  5
56B
  8
0
 62
     9
 10
0.0
 20
0.0
 30
0.0
 70
   128
 71
    65
 72
    67
 73
    11
  0
VERTEX
  5
56C
  8
0
 62
     9
 10
0.0
 20
0.0
 30
0.0
 70
   128
 71
    67
 72
    68
 73
    11
  0
VERTEX
  5
56D
  8
0
 62
     9
 10
0.0
 20
0.0
 30
0.0
 70
   128
 71
    68
 72
    69
 73
    11
  0
VERTEX
  5
56E
  8
0
 62
     9
 10
0.0
 20
0.0
 30
0.0
 70
   128
 71
    71
 72
    70
 73
    11
  0
VERTEX
  5
56F
  8
0
 62
     9
 10
0.0
 20
0.0
 30
0.0
 70
   128
 71
    11
 72
    69
 73
    71
  0
VERTEX
  5
570
  8
0
 62
     9
 10
0.0
 20
0.0
 30
0.0
 70
   128
 71
    72
 72
     5
 73
    11
  0
VERTEX
  5
571
  8
0
 62
     9
 10
0.0
 20
0.0
 30
0.0
 70
   128
 71
    11
 72
    70
 73
    72
  0
VERTEX
  5
572
  8
0
 62
     9
 10
0.0
 20
0.0
 30
0.0
 70
   128
 71
    74
 72
    73
 73
     5
  0
VERTEX
  5
573
  8
0
 62
     9
 10
0.0
 20
0.0
 30
0.0
 70
   128
 71
    76
 72
    75
 73
     5
  0
VERTEX
  5
574
  8
0
 62
     9
 10
0.0
 20
0.0
 30
0.0
 70
   128
 71
    77
 72
    59
 73
     5
  0
VERTEX
  5
575
  8
0
 62
     9
 10
0.0
 20
0.0
 30
0.0
 70
   128
 71
     5
 72
    78
 73
    77
  0
VERTEX
  5
576
  8
0
 62
     9
 10
0.0
 20
0.0
 30
0.0
 70
   128
 71
     5
 72
    75
 73
    78
  0
VERTEX
  5
577
  8
0
 62
     9
 10
0.0
 20
0.0
 30
0.0
 70
   128
 71
     5
 72
    73
 73
    76
  0
VERTEX
  5
578
  8
0
 62
     9
 10
0.0
 20
0.0
 30
0.0
 70
   128
 71
     5
 72
    79
 73
    74
  0
VERTEX
  5
579
  8
0
 62
     9
 10
0.0
 20
0.0
 30
0.0
 70
   128
 71
     5
 72
    72
 73
    79
  0
VERTEX
  5
57A
  8
0
 62
     9
 10
0.0
 20
0.0
 30
0.0
 70
   128
 71
    81
 72
    80
 73
    29
  0
VERTEX
  5
57B
  8
0
 62
     9
 10
0.0
 20
0.0
 30
0.0
 70
   128
 71
    82
 72
    66
 73
    80
  0
VERTEX
  5
57C
  8
0
 62
     9
 10
0.0
 20
0.0
 30
0.0
 70
   128
 71
    80
 72
    83
 73
    82
  0
VERTEX
  5
57D
  8
0
 62
     9
 10
0.0
 20
0.0
 30
0.0
 70
   128
 71
    80
 72
    84
 73
    83
  0
VERTEX
  5
57E
  8
0
 62
     9
 10
0.0
 20
0.0
 30
0.0
 70
   128
 71
    80
 72
    85
 73
    84
  0
VERTEX
  5
57F
  8
0
 62
     9
 10
0.0
 20
0.0
 30
0.0
 70
   128
 71
    80
 72
    81
 73
    85
  0
VERTEX
  5
580
  8
0
 62
     9
 10
0.0
 20
0.0
 30
0.0
 70
   128
 71
    29
 72
    32
 73
    81
  0
VERTEX
  5
581
  8
0
 62
     9
 10
0.0
 20
0.0
 30
0.0
 70
   128
 71
    11
 72
    80
 73
    66
  0
VERTEX
  5
582
  8
0
 62
     9
 10
0.0
 20
0.0
 30
0.0
 70
   128
 71
    59
 72
    77
 73
    61
  0
VERTEX
  5
583
  8
0
 62
     9
 10
0.0
 20
0.0
 30
0.0
 70
   128
 71
     2
 72
    52
 73
    35
  0
VERTEX
  5
584
  8
0
 62
     9
 10
0.0
 20
0.0
 30
0.0
 70
   128
 71
    25
 72
    46
 73
    33
  0
VERTEX
  5
585
  8
0
 62
     9
 10
0.0
 20
0.0
 30
0.0
 70
   128
 71
    23
 72
    86
 73
    24
  0
VERTEX
  5
586
  8
0
 62
     9
 10
0.0
 20
0.0
 30
0.0
 70
   128
 71
    21
 72
    16
 73
    17
  0
VERTEX
  5
587
  8
0
 62
     9
 10
0.0
 20
0.0
 30
0.0
 70
   128
 71
    16
 72
    87
 73
    18
  0
VERTEX
  5
588
  8
0
 62
     9
 10
0.0
 20
0.0
 30
0.0
 70
   128
 71
    14
 72
    20
 73
    15
  0
VERTEX
  5
589
  8
0
 62
     9
 10
0.0
 20
0.0
 30
0.0
 70
   128
 71
    13
 72
    88
 73
     4
  0
VERTEX
  5
58A
  8
0
 62
     9
 10
0.0
 20
0.0
 30
0.0
 70
   128
 71
     4
 72
    88
 73
     6
  0
VERTEX
  5
58B
  8
0
 62
     9
 10
0.0
 20
0.0
 30
0.0
 70
   128
 71
     1
 72
    23
 73
     3
  0
SEQEND
  5
58C
  8
0
 62
     9
  0
ENDBLK
  5
58F
  8
0
  0
BLOCK
  8
0
  2
E3_NODE_49_
 70
     0
 10
0.0
 20
0.0
 30
0.0
  3
E3_NODE_49_
  1

  0
POLYLINE
  5
591
  8
0
 62
     9
 66
     1
 10
0.0
 20
0.0
 30
0.0
 70
    64
 71
    12
 72
    10
  0
VERTEX
  5
592
  8
0
 10
-18.0
 20
39.4379997253418
 30
17.8169994354248
 70
   192
  0
VERTEX
  5
593
  8
0
 10
-18.0
 20
49.47700119018555
 30
16.37299919128418
 70
   192
  0
VERTEX
  5
594
  8
0
 10
-18.0
 20
57.14300155639648
 30
9.732000350952148
 70
   192
  0
VERTEX
  5
595
  8
0
 10
-18.0
 20
60.0
 30
0.0
 70
   192
  0
VERTEX
  5
596
  8
0
 10
-18.0
 20
24.72900009155273
 30
5.071000099182129
 70
   192
  0
VERTEX
  5
597
  8
0
 10
-18.0
 20
30.21299934387207
 30
13.60299968719482
 70
   192
  0
VERTEX
  5
598
  8
0
 10
-18.0
 20
49.47700119018555
 30
-16.37299919128418
 70
   192
  0
VERTEX
  5
599
  8
0
 10
-18.0
 20
39.4379997253418
 30
-17.8169994354248
 70
   192
  0
VERTEX
  5
59A
  8
0
 10
-18.0
 20
30.21299934387207
 30
-13.60299968719482
 70
   192
  0
VERTEX
  5
59B
  8
0
 10
-18.0
 20
24.72900009155273
 30
-5.071000099182129
 70
   192
  0
VERTEX
  5
59C
  8
0
 10
-18.0
 20
57.14300155639648
 30
-9.732000350952148
 70
   192
  0
VERTEX
  5
59D
  8
0
 10
-18.0
 20
24.11100006103516
 30
2.0
 70
   192
  0
VERTEX
  5
59E
  8
0
 62
     9
 10
0.0
 20
0.0
 30
0.0
 70
   128
 71
     3
 72
     2
 73
     1
  0
VERTEX
  5
59F
  8
0
 62
     9
 10
0.0
 20
0.0
 30
0.0
 70
   128
 71
     6
 72
     5
 73
     4
  0
VERTEX
  5
5A0
  8
0
 62
     9
 10
0.0
 20
0.0
 30
0.0
 70
   128
 71
     9
 72
     8
 73
     7
  0
VERTEX
  5
5A1
  8
0
 62
     9
 10
0.0
 20
0.0
 30
0.0
 70
   128
 71
    11
 72
     4
 73
    10
  0
VERTEX
  5
5A2
  8
0
 62
     9
 10
0.0
 20
0.0
 30
0.0
 70
   128
 71
     4
 72
     1
 73
     6
  0
VERTEX
  5
5A3
  8
0
 62
     9
 10
0.0
 20
0.0
 30
0.0
 70
   128
 71
    10
 72
     7
 73
    11
  0
VERTEX
  5
5A4
  8
0
 62
     9
 10
0.0
 20
0.0
 30
0.0
 70
   128
 71
     5
 72
    12
 73
     4
  0
VERTEX
  5
5A5
  8
0
 62
     9
 10
0.0
 20
0.0
 30
0.0
 70
   128
 71
     7
 72
    10
 73
     9
  0
VERTEX
  5
5A6
  8
0
 62
     9
 10
0.0
 20
0.0
 30
0.0
 70
   128
 71
     4
 72
    12
 73
    10
  0
VERTEX
  5
5A7
  8
0
 62
     9
 10
0.0
 20
0.0
 30
0.0
 70
   128
 71
     1
 72
     4
 73
     3
  0
SEQEND
  5
5A8
  8
0
 62
     9
  0
ENDBLK
  5
5AB
  8
0
  0
BLOCK
  8
0
  2
E3_NODE_50_
 70
     0
 10
0.0
 20
0.0
 30
0.0
  3
E3_NODE_50_
  1

  0
POLYLINE
  5
5AD
  8
0
 62
     9
 66
     1
 10
0.0
 20
0.0
 30
0.0
 70
    64
 71
    66
 72
    66
  0
VERTEX
  5
5AE
  8
0
 10
12.94400024414062
 20
75.0
 30
-9.404999732971191
 70
   192
  0
VERTEX
  5
5AF
  8
0
 10
14.125
 20
58.35599899291992
 30
-7.515999794006348
 70
   192
  0
VERTEX
  5
5B0
  8
0
 10
13.73099994659424
 20
58.01699829101562
 30
-8.213000297546387
 70
   192
  0
VERTEX
  5
5B1
  8
0
 10
15.39099979400635
 20
59.46099853515625
 30
-4.372000217437744
 70
   192
  0
VERTEX
  5
5B2
  8
0
 10
15.65900039672852
 20
59.69699859619141
 30
-3.286999940872192
 70
   192
  0
VERTEX
  5
5B3
  8
0
 10
16.0
 20
75.0
 30
0.0
 70
   192
  0
VERTEX
  5
5B4
  8
0
 10
16.0
 20
60.0
 30
0.0
 70
   192
  0
VERTEX
  5
5B5
  8
0
 10
4.943999767303467
 20
75.0
 30
-15.21700000762939
 70
   192
  0
VERTEX
  5
5B6
  8
0
 10
7.135000228881836
 20
52.90399932861328
 30
-14.32100009918213
 70
   192
  0
VERTEX
  5
5B7
  8
0
 10
5.464000225067139
 20
51.89199829101562
 30
-15.03800010681152
 70
   192
  0
VERTEX
  5
5B8
  8
0
 10
10.1850004196167
 20
55.10499954223633
 30
-12.34000015258789
 70
   192
  0
VERTEX
  5
5B9
  8
0
 10
11.54199981689453
 20
56.18500137329102
 30
-11.08100032806396
 70
   192
  0
VERTEX
  5
5BA
  8
0
 10
12.86699962615967
 20
57.29399871826172
 30
-9.345999717712402
 70
   192
  0
VERTEX
  5
5BB
  8
0
 10
12.60499954223633
 20
57.07500076293945
 30
-9.687999725341797
 70
   192
  0
VERTEX
  5
5BC
  8
0
 10
-4.943999767303467
 20
75.0
 30
-15.21700000762939
 70
   192
  0
VERTEX
  5
5BD
  8
0
 10
2.621000051498413
 20
50.65299987792969
 30
-15.78400039672852
 70
   192
  0
VERTEX
  5
5BE
  8
0
 10
0.0060000000521541
 20
50.24599838256836
 30
-16.0
 70
   192
  0
VERTEX
  5
5BF
  8
0
 10
-2.617000102996826
 20
50.6510009765625
 30
-15.78499984741211
 70
   192
  0
VERTEX
  5
5C0
  8
0
 10
4.934000015258789
 20
51.6609992980957
 30
-15.17700004577637
 70
   192
  0
VERTEX
  5
5C1
  8
0
 10
-12.61999988555908
 20
57.08599853515625
 30
-9.694000244140625
 70
   192
  0
VERTEX
  5
5C2
  8
0
 10
-12.89099979400635
 20
57.3120002746582
 30
-9.361000061035156
 70
   192
  0
VERTEX
  5
5C3
  8
0
 10
-11.22200012207031
 20
55.92599868774414
 30
-11.4040002822876
 70
   192
  0
VERTEX
  5
5C4
  8
0
 10
-4.932000160217285
 20
51.66899871826172
 30
-15.17000007629395
 70
   192
  0
VERTEX
  5
5C5
  8
0
 10
-5.553999900817871
 20
51.94200134277344
 30
-15.00500011444092
 70
   192
  0
VERTEX
  5
5C6
  8
0
 10
-6.170000076293945
 20
52.29899978637695
 30
-14.76299953460693
 70
   192
  0
VERTEX
  5
5C7
  8
0
 10
-9.440999984741211
 20
54.53499984741211
 30
-12.91800022125244
 70
   192
  0
VERTEX
  5
5C8
  8
0
 10
-16.0
 20
75.0
 30
0.0
 70
   192
  0
VERTEX
  5
5C9
  8
0
 10
-12.94400024414062
 20
75.0
 30
-9.404999732971191
 70
   192
  0
VERTEX
  5
5CA
  8
0
 10
-15.68000030517578
 20
59.71699905395508
 30
-3.181999921798706
 70
   192
  0
VERTEX
  5
5CB
  8
0
 10
-15.99100017547607
 20
59.99200057983398
 30
0.0010000000474975
 70
   192
  0
VERTEX
  5
5CC
  8
0
 10
-14.25100040435791
 20
58.46500015258789
 30
-7.27299976348877
 70
   192
  0
VERTEX
  5
5CD
  8
0
 10
-15.44400024414062
 20
59.50699996948242
 30
-4.182000160217285
 70
   192
  0
VERTEX
  5
5CE
  8
0
 10
-13.41499996185303
 20
57.74700164794922
 30
-8.720000267028809
 70
   192
  0
VERTEX
  5
5CF
  8
0
 10
-12.94400024414062
 20
75.0
 30
9.404999732971191
 70
   192
  0
VERTEX
  5
5D0
  8
0
 10
-13.6560001373291
 20
57.95299911499023
 30
8.336999893188477
 70
   192
  0
VERTEX
  5
5D1
  8
0
 10
-13.35700035095215
 20
57.69699859619141
 30
8.809000015258789
 70
   192
  0
VERTEX
  5
5D2
  8
0
 10
-15.11400032043457
 20
59.21699905395508
 30
5.25
 70
   192
  0
VERTEX
  5
5D3
  8
0
 10
-15.32699966430664
 20
59.40499877929688
 30
4.591000080108643
 70
   192
  0
VERTEX
  5
5D4
  8
0
 10
-15.94400024414062
 20
59.95000076293945
 30
1.337000012397766
 70
   192
  0
VERTEX
  5
5D5
  8
0
 10
-16.0
 20
60.0
 30
0.0930000022053719
 70
   192
  0
VERTEX
  5
5D6
  8
0
 10
-4.943999767303467
 20
75.0
 30
15.21700000762939
 70
   192
  0
VERTEX
  5
5D7
  8
0
 10
-9.491999626159668
 20
54.57300186157227
 30
12.88099956512451
 70
   192
  0
VERTEX
  5
5D8
  8
0
 10
-6.510000228881836
 20
52.50600051879883
 30
14.61600017547607
 70
   192
  0
VERTEX
  5
5D9
  8
0
 10
-11.01500034332275
 20
55.7599983215332
 30
11.60499954223633
 70
   192
  0
VERTEX
  5
5DA
  8
0
 10
-12.89299964904785
 20
57.31399917602539
 30
9.362000465393066
 70
   192
  0
VERTEX
  5
5DB
  8
0
 10
-12.61699962615967
 20
57.08499908447266
 30
9.692000389099121
 70
   192
  0
VERTEX
  5
5DC
  8
0
 10
0.0
 20
75.0
 30
16.0
 70
   192
  0
VERTEX
  5
5DD
  8
0
 10
-4.361000061035156
 20
51.32799911499023
 30
15.39400005340576
 70
   192
  0
VERTEX
  5
5DE
  8
0
 10
-1.629999995231628
 20
50.40599822998047
 30
15.91699981689453
 70
   192
  0
VERTEX
  5
5DF
  8
0
 10
-4.933000087738037
 20
51.64199829101562
 30
15.1870002746582
 70
   192
  0
VERTEX
  5
5E0
  8
0
 10
4.320000171661377
 20
51.30899810791016
 30
15.4060001373291
 70
   192
  0
VERTEX
  5
5E1
  8
0
 10
4.922999858856201
 20
51.65900039672852
 30
15.16300010681152
 70
   192
  0
VERTEX
  5
5E2
  8
0
 10
1.330000042915344
 20
50.35300064086914
 30
15.94499969482422
 70
   192
  0
VERTEX
  5
5E3
  8
0
 10
0.9760000109672546
 20
50.30400085449219
 30
15.97000026702881
 70
   192
  0
VERTEX
  5
5E4
  8
0
 10
4.943999767303467
 20
75.0
 30
15.21700000762939
 70
   192
  0
VERTEX
  5
5E5
  8
0
 10
12.77400016784668
 20
57.20399856567383
 30
9.635000228881836
 70
   192
  0
VERTEX
  5
5E6
  8
0
 10
12.92099952697754
 20
57.33000183105469
 30
9.390000343322754
 70
   192
  0
VERTEX
  5
5E7
  8
0
 10
11.61200046539307
 20
56.24200057983398
 30
11.00800037384033
 70
   192
  0
VERTEX
  5
5E8
  8
0
 10
12.69400024414062
 20
57.13800048828125
 30
9.729000091552734
 70
   192
  0
VERTEX
  5
5E9
  8
0
 10
7.551000118255615
 20
53.18099975585938
 30
14.10599994659424
 70
   192
  0
VERTEX
  5
5EA
  8
0
 10
8.829999923706055
 20
54.08200073242188
 30
13.3430004119873
 70
   192
  0
VERTEX
  5
5EB
  8
0
 10
12.94400024414062
 20
75.0
 30
9.404999732971191
 70
   192
  0
VERTEX
  5
5EC
  8
0
 10
15.82499980926514
 20
59.84400177001953
 30
2.361000061035156
 70
   192
  0
VERTEX
  5
5ED
  8
0
 10
15.93200016021729
 20
59.93999862670898
 30
1.472000002861023
 70
   192
  0
VERTEX
  5
5EE
  8
0
 10
15.00800037384033
 20
59.12400054931641
 30
5.546000003814697
 70
   192
  0
VERTEX
  5
5EF
  8
0
 10
14.51399993896484
 20
58.69300079345703
 30
6.732999801635742
 70
   192
  0
VERTEX
  5
5F0
  8
0
 62
     9
 10
0.0
 20
0.0
 30
0.0
 70
   128
 71
     3
 72
     2
 73
     1
  0
VERTEX
  5
5F1
  8
0
 62
     9
 10
0.0
 20
0.0
 30
0.0
 70
   128
 71
     2
 72
     4
 73
     1
  0
VERTEX
  5
5F2
  8
0
 62
     9
 10
0.0
 20
0.0
 30
0.0
 70
   128
 71
     4
 72
     5
 73
     1
  0
VERTEX
  5
5F3
  8
0
 62
     9
 10
0.0
 20
0.0
 30
0.0
 70
   128
 71
     5
 72
     7
 73
     6
  0
VERTEX
  5
5F4
  8
0
 62
     9
 10
0.0
 20
0.0
 30
0.0
 70
   128
 71
     6
 72
     1
 73
     5
  0
VERTEX
  5
5F5
  8
0
 62
     9
 10
0.0
 20
0.0
 30
0.0
 70
   128
 71
    10
 72
     9
 73
     8
  0
VERTEX
  5
5F6
  8
0
 62
     9
 10
0.0
 20
0.0
 30
0.0
 70
   128
 71
     9
 72
    11
 73
     8
  0
VERTEX
  5
5F7
  8
0
 62
     9
 10
0.0
 20
0.0
 30
0.0
 70
   128
 71
    11
 72
    12
 73
     8
  0
VERTEX
  5
5F8
  8
0
 62
     9
 10
0.0
 20
0.0
 30
0.0
 70
   128
 71
    13
 72
     1
 73
     8
  0
VERTEX
  5
5F9
  8
0
 62
     9
 10
0.0
 20
0.0
 30
0.0
 70
   128
 71
     8
 72
    14
 73
    13
  0
VERTEX
  5
5FA
  8
0
 62
     9
 10
0.0
 20
0.0
 30
0.0
 70
   128
 71
     8
 72
    12
 73
    14
  0
VERTEX
  5
5FB
  8
0
 62
     9
 10
0.0
 20
0.0
 30
0.0
 70
   128
 71
    17
 72
    16
 73
    15
  0
VERTEX
  5
5FC
  8
0
 62
     9
 10
0.0
 20
0.0
 30
0.0
 70
   128
 71
    15
 72
    18
 73
    17
  0
VERTEX
  5
5FD
  8
0
 62
     9
 10
0.0
 20
0.0
 30
0.0
 70
   128
 71
    19
 72
     8
 73
    15
  0
VERTEX
  5
5FE
  8
0
 62
     9
 10
0.0
 20
0.0
 30
0.0
 70
   128
 71
    15
 72
    16
 73
    19
  0
VERTEX
  5
5FF
  8
0
 62
     9
 10
0.0
 20
0.0
 30
0.0
 70
   128
 71
    21
 72
    20
 73
    15
  0
VERTEX
  5
600
  8
0
 62
     9
 10
0.0
 20
0.0
 30
0.0
 70
   128
 71
    20
 72
    22
 73
    15
  0
VERTEX
  5
601
  8
0
 62
     9
 10
0.0
 20
0.0
 30
0.0
 70
   128
 71
    24
 72
    23
 73
    15
  0
VERTEX
  5
602
  8
0
 62
     9
 10
0.0
 20
0.0
 30
0.0
 70
   128
 71
    15
 72
    25
 73
    24
  0
VERTEX
  5
603
  8
0
 62
     9
 10
0.0
 20
0.0
 30
0.0
 70
   128
 71
    15
 72
    26
 73
    25
  0
VERTEX
  5
604
  8
0
 62
     9
 10
0.0
 20
0.0
 30
0.0
 70
   128
 71
    15
 72
    22
 73
    26
  0
VERTEX
  5
605
  8
0
 62
     9
 10
0.0
 20
0.0
 30
0.0
 70
   128
 71
    29
 72
    28
 73
    27
  0
VERTEX
  5
606
  8
0
 62
     9
 10
0.0
 20
0.0
 30
0.0
 70
   128
 71
    27
 72
    30
 73
    29
  0
VERTEX
  5
607
  8
0
 62
     9
 10
0.0
 20
0.0
 30
0.0
 70
   128
 71
    32
 72
    31
 73
    28
  0
VERTEX
  5
608
  8
0
 62
     9
 10
0.0
 20
0.0
 30
0.0
 70
   128
 71
    33
 72
    21
 73
    28
  0
VERTEX
  5
609
  8
0
 62
     9
 10
0.0
 20
0.0
 30
0.0
 70
   128
 71
    28
 72
    31
 73
    33
  0
VERTEX
  5
60A
  8
0
 62
     9
 10
0.0
 20
0.0
 30
0.0
 70
   128
 71
    28
 72
    29
 73
    32
  0
VERTEX
  5
60B
  8
0
 62
     9
 10
0.0
 20
0.0
 30
0.0
 70
   128
 71
    36
 72
    35
 73
    34
  0
VERTEX
  5
60C
  8
0
 62
     9
 10
0.0
 20
0.0
 30
0.0
 70
   128
 71
    35
 72
    37
 73
    34
  0
VERTEX
  5
60D
  8
0
 62
     9
 10
0.0
 20
0.0
 30
0.0
 70
   128
 71
    37
 72
    38
 73
    34
  0
VERTEX
  5
60E
  8
0
 62
     9
 10
0.0
 20
0.0
 30
0.0
 70
   128
 71
    39
 72
    27
 73
    34
  0
VERTEX
  5
60F
  8
0
 62
     9
 10
0.0
 20
0.0
 30
0.0
 70
   128
 71
    34
 72
    38
 73
    39
  0
VERTEX
  5
610
  8
0
 62
     9
 10
0.0
 20
0.0
 30
0.0
 70
   128
 71
    39
 72
    40
 73
    27
  0
VERTEX
  5
611
  8
0
 62
     9
 10
0.0
 20
0.0
 30
0.0
 70
   128
 71
    40
 72
    30
 73
    27
  0
VERTEX
  5
612
  8
0
 62
     9
 10
0.0
 20
0.0
 30
0.0
 70
   128
 71
    43
 72
    42
 73
    41
  0
VERTEX
  5
613
  8
0
 62
     9
 10
0.0
 20
0.0
 30
0.0
 70
   128
 71
    42
 72
    44
 73
    41
  0
VERTEX
  5
614
  8
0
 62
     9
 10
0.0
 20
0.0
 30
0.0
 70
   128
 71
    45
 72
    34
 73
    41
  0
VERTEX
  5
615
  8
0
 62
     9
 10
0.0
 20
0.0
 30
0.0
 70
   128
 71
    41
 72
    46
 73
    45
  0
VERTEX
  5
616
  8
0
 62
     9
 10
0.0
 20
0.0
 30
0.0
 70
   128
 71
    41
 72
    44
 73
    46
  0
VERTEX
  5
617
  8
0
 62
     9
 10
0.0
 20
0.0
 30
0.0
 70
   128
 71
    49
 72
    48
 73
    47
  0
VERTEX
  5
618
  8
0
 62
     9
 10
0.0
 20
0.0
 30
0.0
 70
   128
 71
    50
 72
    41
 73
    47
  0
VERTEX
  5
619
  8
0
 62
     9
 10
0.0
 20
0.0
 30
0.0
 70
   128
 71
    47
 72
    48
 73
    50
  0
VERTEX
  5
61A
  8
0
 62
     9
 10
0.0
 20
0.0
 30
0.0
 70
   128
 71
    52
 72
    51
 73
    47
  0
VERTEX
  5
61B
  8
0
 62
     9
 10
0.0
 20
0.0
 30
0.0
 70
   128
 71
    51
 72
    53
 73
    47
  0
VERTEX
  5
61C
  8
0
 62
     9
 10
0.0
 20
0.0
 30
0.0
 70
   128
 71
    53
 72
    54
 73
    47
  0
VERTEX
  5
61D
  8
0
 62
     9
 10
0.0
 20
0.0
 30
0.0
 70
   128
 71
    47
 72
    55
 73
    52
  0
VERTEX
  5
61E
  8
0
 62
     9
 10
0.0
 20
0.0
 30
0.0
 70
   128
 71
    57
 72
    56
 73
    55
  0
VERTEX
  5
61F
  8
0
 62
     9
 10
0.0
 20
0.0
 30
0.0
 70
   128
 71
    59
 72
    58
 73
    55
  0
VERTEX
  5
620
  8
0
 62
     9
 10
0.0
 20
0.0
 30
0.0
 70
   128
 71
    60
 72
    52
 73
    55
  0
VERTEX
  5
621
  8
0
 62
     9
 10
0.0
 20
0.0
 30
0.0
 70
   128
 71
    55
 72
    61
 73
    60
  0
VERTEX
  5
622
  8
0
 62
     9
 10
0.0
 20
0.0
 30
0.0
 70
   128
 71
    55
 72
    58
 73
    61
  0
VERTEX
  5
623
  8
0
 62
     9
 10
0.0
 20
0.0
 30
0.0
 70
   128
 71
    55
 72
    56
 73
    59
  0
VERTEX
  5
624
  8
0
 62
     9
 10
0.0
 20
0.0
 30
0.0
 70
   128
 71
    63
 72
    62
 73
     6
  0
VERTEX
  5
625
  8
0
 62
     9
 10
0.0
 20
0.0
 30
0.0
 70
   128
 71
     6
 72
    64
 73
    63
  0
VERTEX
  5
626
  8
0
 62
     9
 10
0.0
 20
0.0
 30
0.0
 70
   128
 71
    63
 72
    65
 73
    62
  0
VERTEX
  5
627
  8
0
 62
     9
 10
0.0
 20
0.0
 30
0.0
 70
   128
 71
    66
 72
    57
 73
    62
  0
VERTEX
  5
628
  8
0
 62
     9
 10
0.0
 20
0.0
 30
0.0
 70
   128
 71
    62
 72
    65
 73
    66
  0
VERTEX
  5
629
  8
0
 62
     9
 10
0.0
 20
0.0
 30
0.0
 70
   128
 71
     6
 72
     7
 73
    64
  0
VERTEX
  5
62A
  8
0
 62
     9
 10
0.0
 20
0.0
 30
0.0
 70
   128
 71
    55
 72
    62
 73
    57
  0
VERTEX
  5
62B
  8
0
 62
     9
 10
0.0
 20
0.0
 30
0.0
 70
   128
 71
    47
 72
    54
 73
    49
  0
VERTEX
  5
62C
  8
0
 62
     9
 10
0.0
 20
0.0
 30
0.0
 70
   128
 71
    41
 72
    50
 73
    43
  0
VERTEX
  5
62D
  8
0
 62
     9
 10
0.0
 20
0.0
 30
0.0
 70
   128
 71
    34
 72
    45
 73
    36
  0
VERTEX
  5
62E
  8
0
 62
     9
 10
0.0
 20
0.0
 30
0.0
 70
   128
 71
    15
 72
    28
 73
    21
  0
VERTEX
  5
62F
  8
0
 62
     9
 10
0.0
 20
0.0
 30
0.0
 70
   128
 71
    15
 72
    23
 73
    18
  0
VERTEX
  5
630
  8
0
 62
     9
 10
0.0
 20
0.0
 30
0.0
 70
   128
 71
     8
 72
    19
 73
    10
  0
VERTEX
  5
631
  8
0
 62
     9
 10
0.0
 20
0.0
 30
0.0
 70
   128
 71
     1
 72
    13
 73
     3
  0
SEQEND
  5
632
  8
0
 62
     9
  0
ENDBLK
  5
635
  8
0
  0
BLOCK
  8
0
  2
E3_NODE_51_
 70
     0
 10
0.0
 20
0.0
 30
0.0
  3
E3_NODE_51_
  1

  0
POLYLINE
  5
637
  8
0
 62
     9
 66
     1
 10
0.0
 20
0.0
 30
0.0
 70
    64
 71
    11
 72
     9
  0
VERTEX
  5
638
  8
0
 10
4.943999767303467
 20
75.0
 30
-15.21700000762939
 70
   192
  0
VERTEX
  5
639
  8
0
 10
-12.94400024414062
 20
75.0
 30
-9.404999732971191
 70
   192
  0
VERTEX
  5
63A
  8
0
 10
-16.0
 20
75.0
 30
0.0
 70
   192
  0
VERTEX
  5
63B
  8
0
 10
4.943999767303467
 20
75.0
 30
15.21700000762939
 70
   192
  0
VERTEX
  5
63C
  8
0
 10
16.0
 20
75.0
 30
0.0
 70
   192
  0
VERTEX
  5
63D
  8
0
 10
12.94400024414062
 20
75.0
 30
-9.404999732971191
 70
   192
  0
VERTEX
  5
63E
  8
0
 10
-4.943999767303467
 20
75.0
 30
-15.21700000762939
 70
   192
  0
VERTEX
  5
63F
  8
0
 10
12.94400024414062
 20
75.0
 30
9.404999732971191
 70
   192
  0
VERTEX
  5
640
  8
0
 10
-12.94400024414062
 20
75.0
 30
9.404999732971191
 70
   192
  0
VERTEX
  5
641
  8
0
 10
0.0
 20
75.0
 30
16.0
 70
   192
  0
VERTEX
  5
642
  8
0
 10
-4.943999767303467
 20
75.0
 30
15.21700000762939
 70
   192
  0
VERTEX
  5
643
  8
0
 62
     9
 10
0.0
 20
0.0
 30
0.0
 70
   128
 71
     3
 72
     2
 73
     1
  0
VERTEX
  5
644
  8
0
 62
     9
 10
0.0
 20
0.0
 30
0.0
 70
   128
 71
     6
 72
     5
 73
     4
  0
VERTEX
  5
645
  8
0
 62
     9
 10
0.0
 20
0.0
 30
0.0
 70
   128
 71
     2
 72
     7
 73
     1
  0
VERTEX
  5
646
  8
0
 62
     9
 10
0.0
 20
0.0
 30
0.0
 70
   128
 71
     5
 72
     8
 73
     4
  0
VERTEX
  5
647
  8
0
 62
     9
 10
0.0
 20
0.0
 30
0.0
 70
   128
 71
     1
 72
     9
 73
     3
  0
VERTEX
  5
648
  8
0
 62
     9
 10
0.0
 20
0.0
 30
0.0
 70
   128
 71
     4
 72
    10
 73
     1
  0
VERTEX
  5
649
  8
0
 62
     9
 10
0.0
 20
0.0
 30
0.0
 70
   128
 71
     1
 72
    11
 73
     9
  0
VERTEX
  5
64A
  8
0
 62
     9
 10
0.0
 20
0.0
 30
0.0
 70
   128
 71
     1
 72
    10
 73
    11
  0
VERTEX
  5
64B
  8
0
 62
     9
 10
0.0
 20
0.0
 30
0.0
 70
   128
 71
     4
 72
     1
 73
     6
  0
SEQEND
  5
64C
  8
0
 62
     9
  0
ENDBLK
  5
64F
  8
0
  0
BLOCK
  8
0
  2
E3_NODE_52_
 70
     0
 10
0.0
 20
0.0
 30
0.0
  3
E3_NODE_52_
  1

  0
POLYLINE
  5
651
  8
0
 62
     9
 66
     1
 10
0.0
 20
0.0
 30
0.0
 70
    64
 71
    16
 72
    14
  0
VERTEX
  5
652
  8
0
 10
-11.0
 20
-18.16300010681152
 30
-51.5
 70
   192
  0
VERTEX
  5
653
  8
0
 10
-11.0
 20
-15.93400001525879
 30
-28.37299919128418
 70
   192
  0
VERTEX
  5
654
  8
0
 10
-11.0
 20
-13.02700042724609
 30
-32.42100143432617
 70
   192
  0
VERTEX
  5
655
  8
0
 10
-11.0
 20
-24.11100006103516
 30
2.0
 70
   192
  0
VERTEX
  5
656
  8
0
 10
-11.0
 20
-18.89800071716309
 30
2.0
 70
   192
  0
VERTEX
  5
657
  8
0
 10
-11.0
 20
-19.07299995422363
 30
0.0
 70
   192
  0
VERTEX
  5
658
  8
0
 10
-11.0
 20
-33.6870002746582
 30
-18.0
 70
   192
  0
VERTEX
  5
659
  8
0
 10
-11.0
 20
-30.21299934387207
 30
-13.60299968719482
 70
   192
  0
VERTEX
  5
65A
  8
0
 10
-11.0
 20
-31.98999977111816
 30
-50.36600112915039
 70
   192
  0
VERTEX
  5
65B
  8
0
 10
-11.0
 20
-22.29299926757812
 30
-56.45500183105469
 70
   192
  0
VERTEX
  5
65C
  8
0
 10
-11.0
 20
-17.97500038146973
 30
-20.9419994354248
 70
   192
  0
VERTEX
  5
65D
  8
0
 10
-11.0
 20
-24.72900009155273
 30
-5.071000099182129
 70
   192
  0
VERTEX
  5
65E
  8
0
 10
-11.0
 20
-42.0
 30
-18.0
 70
   192
  0
VERTEX
  5
65F
  8
0
 10
-11.0
 20
-39.4379997253418
 30
-17.8169994354248
 70
   192
  0
VERTEX
  5
660
  8
0
 10
-11.0
 20
-28.72200012207031
 30
-55.92800140380859
 70
   192
  0
VERTEX
  5
661
  8
0
 10
-11.0
 20
-11.69099998474121
 30
-51.5
 70
   192
  0
VERTEX
  5
662
  8
0
 62
     9
 10
0.0
 20
0.0
 30
0.0
 70
   128
 71
     3
 72
     2
 73
     1
  0
VERTEX
  5
663
  8
0
 62
     9
 10
0.0
 20
0.0
 30
0.0
 70
   128
 71
     6
 72
     5
 73
     4
  0
VERTEX
  5
664
  8
0
 62
     9
 10
0.0
 20
0.0
 30
0.0
 70
   128
 71
     8
 72
     7
 73
     6
  0
VERTEX
  5
665
  8
0
 62
     9
 10
0.0
 20
0.0
 30
0.0
 70
   128
 71
    10
 72
     1
 73
     9
  0
VERTEX
  5
666
  8
0
 62
     9
 10
0.0
 20
0.0
 30
0.0
 70
   128
 71
     2
 72
     7
 73
     1
  0
VERTEX
  5
667
  8
0
 62
     9
 10
0.0
 20
0.0
 30
0.0
 70
   128
 71
    11
 72
     6
 73
     7
  0
VERTEX
  5
668
  8
0
 62
     9
 10
0.0
 20
0.0
 30
0.0
 70
   128
 71
     6
 72
    12
 73
     8
  0
VERTEX
  5
669
  8
0
 62
     9
 10
0.0
 20
0.0
 30
0.0
 70
   128
 71
    14
 72
    13
 73
     7
  0
VERTEX
  5
66A
  8
0
 62
     9
 10
0.0
 20
0.0
 30
0.0
 70
   128
 71
     9
 72
    15
 73
    10
  0
VERTEX
  5
66B
  8
0
 62
     9
 10
0.0
 20
0.0
 30
0.0
 70
   128
 71
     7
 72
     2
 73
    11
  0
VERTEX
  5
66C
  8
0
 62
     9
 10
0.0
 20
0.0
 30
0.0
 70
   128
 71
     7
 72
     8
 73
    14
  0
VERTEX
  5
66D
  8
0
 62
     9
 10
0.0
 20
0.0
 30
0.0
 70
   128
 71
     1
 72
    16
 73
     3
  0
VERTEX
  5
66E
  8
0
 62
     9
 10
0.0
 20
0.0
 30
0.0
 70
   128
 71
     1
 72
     7
 73
     9
  0
VERTEX
  5
66F
  8
0
 62
     9
 10
0.0
 20
0.0
 30
0.0
 70
   128
 71
     4
 72
    12
 73
     6
  0
SEQEND
  5
670
  8
0
 62
     9
  0
ENDBLK
  5
673
  8
0
  0
BLOCK
  8
0
  2
E3_NODE_53_
 70
     0
 10
0.0
 20
0.0
 30
0.0
  3
E3_NODE_53_
  1

  0
POLYLINE
  5
675
  8
0
 62
     9
 66
     1
 10
0.0
 20
0.0
 30
0.0
 70
    64
 71
     4
 72
     2
  0
VERTEX
  5
676
  8
0
 10
-11.0
 20
-18.89800071716309
 30
2.0
 70
   192
  0
VERTEX
  5
677
  8
0
 10
-18.0
 20
-18.89800071716309
 30
2.0
 70
   192
  0
VERTEX
  5
678
  8
0
 10
-18.0
 20
-19.07299995422363
 30
0.0
 70
   192
  0
VERTEX
  5
679
  8
0
 10
-11.0
 20
-19.07299995422363
 30
0.0
 70
   192
  0
VERTEX
  5
67A
  8
0
 62
     9
 10
0.0
 20
0.0
 30
0.0
 70
   128
 71
     3
 72
     2
 73
     1
  0
VERTEX
  5
67B
  8
0
 62
     9
 10
0.0
 20
0.0
 30
0.0
 70
   128
 71
     1
 72
     4
 73
     3
  0
SEQEND
  5
67C
  8
0
 62
     9
  0
ENDBLK
  5
67F
  8
0
  0
BLOCK
  8
0
  2
E3_NODE_54_
 70
     0
 10
0.0
 20
0.0
 30
0.0
  3
E3_NODE_54_
  1

  0
POLYLINE
  5
681
  8
0
 62
     9
 66
     1
 10
0.0
 20
0.0
 30
0.0
 70
    64
 71
     4
 72
     2
  0
VERTEX
  5
682
  8
0
 10
-11.0
 20
-17.97500038146973
 30
-20.9419994354248
 70
   192
  0
VERTEX
  5
683
  8
0
 10
-11.0
 20
-19.07299995422363
 30
0.0
 70
   192
  0
VERTEX
  5
684
  8
0
 10
-18.0
 20
-19.07299995422363
 30
0.0
 70
   192
  0
VERTEX
  5
685
  8
0
 10
-18.0
 20
-17.97500038146973
 30
-20.9419994354248
 70
   192
  0
VERTEX
  5
686
  8
0
 62
     9
 10
0.0
 20
0.0
 30
0.0
 70
   128
 71
     3
 72
     2
 73
     1
  0
VERTEX
  5
687
  8
0
 62
     9
 10
0.0
 20
0.0
 30
0.0
 70
   128
 71
     1
 72
     4
 73
     3
  0
SEQEND
  5
688
  8
0
 62
     9
  0
ENDBLK
  5
68B
  8
0
  0
BLOCK
  8
0
  2
E3_NODE_55_
 70
     0
 10
0.0
 20
0.0
 30
0.0
  3
E3_NODE_55_
  1

  0
POLYLINE
  5
68D
  8
0
 62
     9
 66
     1
 10
0.0
 20
0.0
 30
0.0
 70
    64
 71
    11
 72
     9
  0
VERTEX
  5
68E
  8
0
 10
-11.0
 20
-24.11100006103516
 30
2.0
 70
   192
  0
VERTEX
  5
68F
  8
0
 10
12.5
 20
-24.11100006103516
 30
2.0
 70
   192
  0
VERTEX
  5
690
  8
0
 10
0.0
 20
-16.54899978637695
 30
2.0
 70
   192
  0
VERTEX
  5
691
  8
0
 10
-18.0
 20
-18.89800071716309
 30
2.0
 70
   192
  0
VERTEX
  5
692
  8
0
 10
-9.72700023651123
 20
-13.38899993896484
 30
2.0
 70
   192
  0
VERTEX
  5
693
  8
0
 10
-15.73900032043457
 20
-5.113999843597412
 30
2.0
 70
   192
  0
VERTEX
  5
694
  8
0
 10
9.72700023651123
 20
-13.38899993896484
 30
2.0
 70
   192
  0
VERTEX
  5
695
  8
0
 10
-18.0
 20
-4.0
 30
2.0
 70
   192
  0
VERTEX
  5
696
  8
0
 10
-11.0
 20
-18.89800071716309
 30
2.0
 70
   192
  0
VERTEX
  5
697
  8
0
 10
12.5
 20
-10.8459997177124
 30
2.0
 70
   192
  0
VERTEX
  5
698
  8
0
 10
-16.05900001525879
 20
-4.0
 30
2.0
 70
   192
  0
VERTEX
  5
699
  8
0
 62
     9
 10
0.0
 20
0.0
 30
0.0
 70
   128
 71
     3
 72
     2
 73
     1
  0
VERTEX
  5
69A
  8
0
 62
     9
 10
0.0
 20
0.0
 30
0.0
 70
   128
 71
     6
 72
     5
 73
     4
  0
VERTEX
  5
69B
  8
0
 62
     9
 10
0.0
 20
0.0
 30
0.0
 70
   128
 71
     3
 72
     7
 73
     2
  0
VERTEX
  5
69C
  8
0
 62
     9
 10
0.0
 20
0.0
 30
0.0
 70
   128
 71
     4
 72
     8
 73
     6
  0
VERTEX
  5
69D
  8
0
 62
     9
 10
0.0
 20
0.0
 30
0.0
 70
   128
 71
     9
 72
     4
 73
     5
  0
VERTEX
  5
69E
  8
0
 62
     9
 10
0.0
 20
0.0
 30
0.0
 70
   128
 71
     7
 72
    10
 73
     2
  0
VERTEX
  5
69F
  8
0
 62
     9
 10
0.0
 20
0.0
 30
0.0
 70
   128
 71
     5
 72
     3
 73
     9
  0
VERTEX
  5
6A0
  8
0
 62
     9
 10
0.0
 20
0.0
 30
0.0
 70
   128
 71
     8
 72
    11
 73
     6
  0
VERTEX
  5
6A1
  8
0
 62
     9
 10
0.0
 20
0.0
 30
0.0
 70
   128
 71
     1
 72
     9
 73
     3
  0
SEQEND
  5
6A2
  8
0
 62
     9
  0
ENDBLK
  5
6A5
  8
0
  0
BLOCK
  8
0
  2
E3_NODE_56_
 70
     0
 10
0.0
 20
0.0
 30
0.0
  3
E3_NODE_56_
  1

  0
POLYLINE
  5
6A7
  8
0
 62
     9
 66
     1
 10
0.0
 20
0.0
 30
0.0
 70
    64
 71
    13
 72
    11
  0
VERTEX
  5
6A8
  8
0
 10
-11.0
 20
-17.97500038146973
 30
-20.9419994354248
 70
   192
  0
VERTEX
  5
6A9
  8
0
 10
-18.0
 20
-17.97500038146973
 30
-20.9419994354248
 70
   192
  0
VERTEX
  5
6AA
  8
0
 10
-18.0
 20
-15.93400001525879
 30
-28.37299919128418
 70
   192
  0
VERTEX
  5
6AB
  8
0
 10
-18.0
 20
-10.97299957275391
 30
-34.26900100708008
 70
   192
  0
VERTEX
  5
6AC
  8
0
 10
-15.39599990844727
 20
-6.793000221252441
 30
-36.66899871826172
 70
   192
  0
VERTEX
  5
6AD
  8
0
 10
-15.29300022125244
 20
-6.982999801635742
 30
-36.56900024414062
 70
   192
  0
VERTEX
  5
6AE
  8
0
 10
-13.69799995422363
 20
-9.92300033569336
 30
-35.01800155639648
 70
   192
  0
VERTEX
  5
6AF
  8
0
 10
-18.0
 20
-4.0
 30
-37.54999923706055
 70
   192
  0
VERTEX
  5
6B0
  8
0
 10
-16.29800033569336
 20
-4.0
 30
-37.54999923706055
 70
   192
  0
VERTEX
  5
6B1
  8
0
 10
-12.69999980926514
 20
-11.2480001449585
 30
-34.05300140380859
 70
   192
  0
VERTEX
  5
6B2
  8
0
 10
-11.0
 20
-13.02700042724609
 30
-32.42100143432617
 70
   192
  0
VERTEX
  5
6B3
  8
0
 10
-12.91300010681152
 20
-10.96500015258789
 30
-34.25899887084961
 70
   192
  0
VERTEX
  5
6B4
  8
0
 10
-11.0
 20
-15.93400001525879
 30
-28.37299919128418
 70
   192
  0
VERTEX
  5
6B5
  8
0
 62
     9
 10
0.0
 20
0.0
 30
0.0
 70
   128
 71
     3
 72
     2
 73
     1
  0
VERTEX
  5
6B6
  8
0
 62
     9
 10
0.0
 20
0.0
 30
0.0
 70
   128
 71
     6
 72
     5
 73
     4
  0
VERTEX
  5
6B7
  8
0
 62
     9
 10
0.0
 20
0.0
 30
0.0
 70
   128
 71
     4
 72
     7
 73
     6
  0
VERTEX
  5
6B8
  8
0
 62
     9
 10
0.0
 20
0.0
 30
0.0
 70
   128
 71
     5
 72
     9
 73
     8
  0
VERTEX
  5
6B9
  8
0
 62
     9
 10
0.0
 20
0.0
 30
0.0
 70
   128
 71
     8
 72
     4
 73
     5
  0
VERTEX
  5
6BA
  8
0
 62
     9
 10
0.0
 20
0.0
 30
0.0
 70
   128
 71
    11
 72
    10
 73
     3
  0
VERTEX
  5
6BB
  8
0
 62
     9
 10
0.0
 20
0.0
 30
0.0
 70
   128
 71
    12
 72
     4
 73
     3
  0
VERTEX
  5
6BC
  8
0
 62
     9
 10
0.0
 20
0.0
 30
0.0
 70
   128
 71
     3
 72
    10
 73
    12
  0
VERTEX
  5
6BD
  8
0
 62
     9
 10
0.0
 20
0.0
 30
0.0
 70
   128
 71
     3
 72
    13
 73
    11
  0
VERTEX
  5
6BE
  8
0
 62
     9
 10
0.0
 20
0.0
 30
0.0
 70
   128
 71
     4
 72
    12
 73
     7
  0
VERTEX
  5
6BF
  8
0
 62
     9
 10
0.0
 20
0.0
 30
0.0
 70
   128
 71
     1
 72
    13
 73
     3
  0
SEQEND
  5
6C0
  8
0
 62
     9
  0
ENDBLK
  5
6C3
  8
0
  0
BLOCK
  8
0
  2
E3_NODE_57_
 70
     0
 10
0.0
 20
0.0
 30
0.0
  3
E3_NODE_57_
  1

  0
POLYLINE
  5
6C5
  8
0
 62
     9
 66
     1
 10
0.0
 20
0.0
 30
0.0
 70
    64
 71
     4
 72
     2
  0
VERTEX
  5
6C6
  8
0
 10
-18.0
 20
-4.0
 30
-50.0
 70
   192
  0
VERTEX
  5
6C7
  8
0
 10
-15.6269998550415
 20
-4.0
 30
-50.0
 70
   192
  0
VERTEX
  5
6C8
  8
0
 10
-16.29800033569336
 20
-4.0
 30
-37.54999923706055
 70
   192
  0
VERTEX
  5
6C9
  8
0
 10
-18.0
 20
-4.0
 30
-37.54999923706055
 70
   192
  0
VERTEX
  5
6CA
  8
0
 62
     9
 10
0.0
 20
0.0
 30
0.0
 70
   128
 71
     3
 72
     2
 73
     1
  0
VERTEX
  5
6CB
  8
0
 62
     9
 10
0.0
 20
0.0
 30
0.0
 70
   128
 71
     1
 72
     4
 73
     3
  0
SEQEND
  5
6CC
  8
0
 62
     9
  0
ENDBLK
  5
6CF
  8
0
  0
BLOCK
  8
0
  2
E3_NODE_58_
 70
     0
 10
0.0
 20
0.0
 30
0.0
  3
E3_NODE_58_
  1

  0
POLYLINE
  5
6D1
  8
0
 62
     9
 66
     1
 10
0.0
 20
0.0
 30
0.0
 70
    64
 71
     5
 72
     3
  0
VERTEX
  5
6D2
  8
0
 10
-18.0
 20
-4.0
 30
-50.0
 70
   192
  0
VERTEX
  5
6D3
  8
0
 10
-18.0
 20
4.0
 30
-50.0
 70
   192
  0
VERTEX
  5
6D4
  8
0
 10
-15.96700000762939
 20
2.296000003814697
 30
-50.0
 70
   192
  0
VERTEX
  5
6D5
  8
0
 10
-15.6269998550415
 20
4.0
 30
-50.0
 70
   192
  0
VERTEX
  5
6D6
  8
0
 10
-15.6269998550415
 20
-4.0
 30
-50.0
 70
   192
  0
VERTEX
  5
6D7
  8
0
 62
     9
 10
0.0
 20
0.0
 30
0.0
 70
   128
 71
     3
 72
     2
 73
     1
  0
VERTEX
  5
6D8
  8
0
 62
     9
 10
0.0
 20
0.0
 30
0.0
 70
   128
 71
     3
 72
     4
 73
     2
  0
VERTEX
  5
6D9
  8
0
 62
     9
 10
0.0
 20
0.0
 30
0.0
 70
   128
 71
     1
 72
     5
 73
     3
  0
SEQEND
  5
6DA
  8
0
 62
     9
  0
ENDBLK
  5
6DD
  8
0
  0
BLOCK
  8
0
  2
E3_NODE_59_
 70
     0
 10
0.0
 20
0.0
 30
0.0
  3
E3_NODE_59_
  1

  0
POLYLINE
  5
6DF
  8
0
 62
     9
 66
     1
 10
0.0
 20
0.0
 30
0.0
 70
    64
 71
     4
 72
     2
  0
VERTEX
  5
6E0
  8
0
 10
-18.0
 20
4.0
 30
-50.0
 70
   192
  0
VERTEX
  5
6E1
  8
0
 10
-18.0
 20
4.0
 30
-37.54999923706055
 70
   192
  0
VERTEX
  5
6E2
  8
0
 10
-16.29800033569336
 20
4.0
 30
-37.54999923706055
 70
   192
  0
VERTEX
  5
6E3
  8
0
 10
-15.6269998550415
 20
4.0
 30
-50.0
 70
   192
  0
VERTEX
  5
6E4
  8
0
 62
     9
 10
0.0
 20
0.0
 30
0.0
 70
   128
 71
     3
 72
     2
 73
     1
  0
VERTEX
  5
6E5
  8
0
 62
     9
 10
0.0
 20
0.0
 30
0.0
 70
   128
 71
     1
 72
     4
 73
     3
  0
SEQEND
  5
6E6
  8
0
 62
     9
  0
ENDBLK
  5
6E9
  8
0
  0
BLOCK
  8
0
  2
E3_NODE_60_
 70
     0
 10
0.0
 20
0.0
 30
0.0
  3
E3_NODE_60_
  1

  0
POLYLINE
  5
6EB
  8
0
 62
     9
 66
     1
 10
0.0
 20
0.0
 30
0.0
 70
    64
 71
    70
 72
    70
  0
VERTEX
  5
6EC
  8
0
 10
-16.0
 20
0.0
 30
-52.5
 70
   192
  0
VERTEX
  5
6ED
  8
0
 10
-14.55399990081787
 20
-6.646999835968018
 30
-52.5
 70
   192
  0
VERTEX
  5
6EE
  8
0
 10
-15.6269998550415
 20
-4.0
 30
-50.0
 70
   192
  0
VERTEX
  5
6EF
  8
0
 10
-15.96700000762939
 20
2.296000003814697
 30
-50.0
 70
   192
  0
VERTEX
  5
6F0
  8
0
 10
-15.83699989318848
 20
2.276999950408936
 30
-52.5
 70
   192
  0
VERTEX
  5
6F1
  8
0
 10
-15.39599990844727
 20
-6.793000221252441
 30
-36.66899871826172
 70
   192
  0
VERTEX
  5
6F2
  8
0
 10
-16.29800033569336
 20
-4.0
 30
-37.54999923706055
 70
   192
  0
VERTEX
  5
6F3
  8
0
 10
-15.29300022125244
 20
-6.982999801635742
 30
-36.56900024414062
 70
   192
  0
VERTEX
  5
6F4
  8
0
 10
-12.09200000762939
 20
10.47799968719482
 30
-52.5
 70
   192
  0
VERTEX
  5
6F5
  8
0
 10
-13.47399997711182
 20
10.24300003051758
 30
-34.80099868774414
 70
   192
  0
VERTEX
  5
6F6
  8
0
 10
-12.86600017547607
 20
10.92800045013428
 30
-34.21599960327148
 70
   192
  0
VERTEX
  5
6F7
  8
0
 10
-15.71500015258789
 20
5.973000049591064
 30
-36.97999954223633
 70
   192
  0
VERTEX
  5
6F8
  8
0
 10
-15.6269998550415
 20
4.0
 30
-50.0
 70
   192
  0
VERTEX
  5
6F9
  8
0
 10
-16.29800033569336
 20
4.0
 30
-37.54999923706055
 70
   192
  0
VERTEX
  5
6FA
  8
0
 10
-15.18900012969971
 20
7.269000053405762
 30
-36.46699905395508
 70
   192
  0
VERTEX
  5
6FB
  8
0
 10
-4.507999897003174
 20
15.35200023651123
 30
-52.5
 70
   192
  0
VERTEX
  5
6FC
  8
0
 10
-11.0
 20
11.69099998474121
 30
-51.5
 70
   192
  0
VERTEX
  5
6FD
  8
0
 10
-12.75500011444092
 20
11.05300045013428
 30
-34.10900115966797
 70
   192
  0
VERTEX
  5
6FE
  8
0
 10
-11.0
 20
13.02700042724609
 30
-32.42100143432617
 70
   192
  0
VERTEX
  5
6FF
  8
0
 10
0.0
 20
16.05200004577637
 30
-51.5
 70
   192
  0
VERTEX
  5
700
  8
0
 10
4.776000022888184
 20
16.66300010681152
 30
-26.78499984741211
 70
   192
  0
VERTEX
  5
701
  8
0
 10
4.877999782562256
 20
16.62100028991699
 30
-26.87299919128418
 70
   192
  0
VERTEX
  5
702
  8
0
 10
0.0439999997615814
 20
17.47400093078613
 30
-24.31999969482422
 70
   192
  0
VERTEX
  5
703
  8
0
 10
1.565999984741211
 20
17.38599967956543
 30
-24.66200065612793
 70
   192
  0
VERTEX
  5
704
  8
0
 10
0.0
 20
17.47400093078613
 30
-24.31900024414062
 70
   192
  0
VERTEX
  5
705
  8
0
 10
2.288000106811523
 20
17.28700065612793
 30
-25.01700019836426
 70
   192
  0
VERTEX
  5
706
  8
0
 10
4.651999950408936
 20
16.71500015258789
 30
-26.67799949645996
 70
   192
  0
VERTEX
  5
707
  8
0
 10
-4.521999835968018
 20
15.40200042724609
 30
-51.5
 70
   192
  0
VERTEX
  5
708
  8
0
 10
4.507999897003174
 20
15.35200023651123
 30
-52.5
 70
   192
  0
VERTEX
  5
709
  8
0
 10
9.711999893188477
 20
14.09200000762939
 30
-31.19899940490723
 70
   192
  0
VERTEX
  5
70A
  8
0
 10
12.5
 20
11.48499965667725
 30
-33.86000061035156
 70
   192
  0
VERTEX
  5
70B
  8
0
 10
12.5
 20
10.83800029754639
 30
-42.03900146484375
 70
   192
  0
VERTEX
  5
70C
  8
0
 10
7.341000080108643
 20
15.58699989318848
 30
-29.00300025939941
 70
   192
  0
VERTEX
  5
70D
  8
0
 10
12.09200000762939
 20
10.47799968719482
 30
-52.5
 70
   192
  0
VERTEX
  5
70E
  8
0
 10
15.03499984741211
 20
6.01800012588501
 30
-46.7760009765625
 70
   192
  0
VERTEX
  5
70F
  8
0
 10
15.69499969482422
 20
4.321000099182129
 30
-47.15800094604492
 70
   192
  0
VERTEX
  5
710
  8
0
 10
14.35900020599365
 20
7.75600004196167
 30
-46.38399887084961
 70
   192
  0
VERTEX
  5
711
  8
0
 10
12.5
 20
10.57299995422363
 30
-45.38600158691406
 70
   192
  0
VERTEX
  5
712
  8
0
 10
13.82999992370605
 20
8.692999839782715
 30
-46.09000015258789
 70
   192
  0
VERTEX
  5
713
  8
0
 10
15.83699989318848
 20
2.276999950408936
 30
-52.5
 70
   192
  0
VERTEX
  5
714
  8
0
 10
15.99600028991699
 20
2.970000028610229
 30
-47.3390007019043
 70
   192
  0
VERTEX
  5
715
  8
0
 10
14.55399990081787
 20
-6.646999835968018
 30
-52.5
 70
   192
  0
VERTEX
  5
716
  8
0
 10
15.1540002822876
 20
-5.99399995803833
 30
-46.8390007019043
 70
   192
  0
VERTEX
  5
717
  8
0
 10
15.13799953460693
 20
-6.03000020980835
 30
-46.83000183105469
 70
   192
  0
VERTEX
  5
718
  8
0
 10
16.07299995422363
 20
-2.510999917984009
 30
-47.3849983215332
 70
   192
  0
VERTEX
  5
719
  8
0
 10
16.25
 20
-0.6320000290870667
 30
-47.49300003051758
 70
   192
  0
VERTEX
  5
71A
  8
0
 10
16.04299926757812
 20
2.311000108718872
 30
-47.36700057983398
 70
   192
  0
VERTEX
  5
71B
  8
0
 10
11.5310001373291
 20
-12.52299976348877
 30
-32.92900085449219
 70
   192
  0
VERTEX
  5
71C
  8
0
 10
8.649999618530273
 20
-13.46000003814697
 30
-52.5
 70
   192
  0
VERTEX
  5
71D
  8
0
 10
12.5
 20
-10.57299995422363
 30
-45.38600158691406
 70
   192
  0
VERTEX
  5
71E
  8
0
 10
12.5
 20
-11.48499965667725
 30
-33.86000061035156
 70
   192
  0
VERTEX
  5
71F
  8
0
 10
14.51299953460693
 20
-7.453999996185303
 30
-46.47000122070312
 70
   192
  0
VERTEX
  5
720
  8
0
 10
14.8149995803833
 20
-6.765999794006348
 30
-46.64400100708008
 70
   192
  0
VERTEX
  5
721
  8
0
 10
0.0
 20
-16.05200004577637
 30
-51.5
 70
   192
  0
VERTEX
  5
722
  8
0
 10
2.066999912261963
 20
-17.32099914550781
 30
-24.89699935913086
 70
   192
  0
VERTEX
  5
723
  8
0
 10
0.628000020980835
 20
-17.45999908447266
 30
-24.37700080871582
 70
   192
  0
VERTEX
  5
724
  8
0
 10
4.769999980926514
 20
-16.66600036621094
 30
-26.78700065612793
 70
   192
  0
VERTEX
  5
725
  8
0
 10
5.814000129699707
 20
-16.29400062561035
 30
-27.64900016784668
 70
   192
  0
VERTEX
  5
726
  8
0
 10
4.885000228881836
 20
-16.63899993896484
 30
-26.86700057983398
 70
   192
  0
VERTEX
  5
727
  8
0
 10
9.133999824523926
 20
-14.50699996948242
 30
-30.6560001373291
 70
   192
  0
VERTEX
  5
728
  8
0
 10
9.255999565124512
 20
-14.4060001373291
 30
-30.77199935913086
 70
   192
  0
VERTEX
  5
729
  8
0
 10
0.0
 20
-16.0
 30
-52.5
 70
   192
  0
VERTEX
  5
72A
  8
0
 10
-8.678999900817871
 20
-13.50399971008301
 30
-51.5
 70
   192
  0
VERTEX
  5
72B
  8
0
 10
-8.649999618530273
 20
-13.46000003814697
 30
-52.5
 70
   192
  0
VERTEX
  5
72C
  8
0
 10
-11.0
 20
-11.69099998474121
 30
-51.5
 70
   192
  0
VERTEX
  5
72D
  8
0
 10
-13.69799995422363
 20
-9.92300033569336
 30
-35.01800155639648
 70
   192
  0
VERTEX
  5
72E
  8
0
 10
-12.69999980926514
 20
-11.2480001449585
 30
-34.05300140380859
 70
   192
  0
VERTEX
  5
72F
  8
0
 10
-12.91300010681152
 20
-10.96500015258789
 30
-34.25899887084961
 70
   192
  0
VERTEX
  5
730
  8
0
 10
-11.0
 20
-13.02700042724609
 30
-32.42100143432617
 70
   192
  0
VERTEX
  5
731
  8
0
 10
0.0
 20
-17.47400093078613
 30
-24.31900024414062
 70
   192
  0
VERTEX
  5
732
  8
0
 62
     9
 10
0.0
 20
0.0
 30
0.0
 70
   128
 71
     3
 72
     2
 73
     1
  0
VERTEX
  5
733
  8
0
 62
     9
 10
0.0
 20
0.0
 30
0.0
 70
   128
 71
     1
 72
     5
 73
     4
  0
VERTEX
  5
734
  8
0
 62
     9
 10
0.0
 20
0.0
 30
0.0
 70
   128
 71
     3
 72
     7
 73
     6
  0
VERTEX
  5
735
  8
0
 62
     9
 10
0.0
 20
0.0
 30
0.0
 70
   128
 71
     6
 72
     8
 73
     2
  0
VERTEX
  5
736
  8
0
 62
     9
 10
0.0
 20
0.0
 30
0.0
 70
   128
 71
     6
 72
     2
 73
     3
  0
VERTEX
  5
737
  8
0
 62
     9
 10
0.0
 20
0.0
 30
0.0
 70
   128
 71
    11
 72
    10
 73
     9
  0
VERTEX
  5
738
  8
0
 62
     9
 10
0.0
 20
0.0
 30
0.0
 70
   128
 71
    13
 72
     9
 73
    12
  0
VERTEX
  5
739
  8
0
 62
     9
 10
0.0
 20
0.0
 30
0.0
 70
   128
 71
    12
 72
    14
 73
    13
  0
VERTEX
  5
73A
  8
0
 62
     9
 10
0.0
 20
0.0
 30
0.0
 70
   128
 71
     9
 72
    15
 73
    12
  0
VERTEX
  5
73B
  8
0
 62
     9
 10
0.0
 20
0.0
 30
0.0
 70
   128
 71
     9
 72
    10
 73
    15
  0
VERTEX
  5
73C
  8
0
 62
     9
 10
0.0
 20
0.0
 30
0.0
 70
   128
 71
    13
 72
     4
 73
     5
  0
VERTEX
  5
73D
  8
0
 62
     9
 10
0.0
 20
0.0
 30
0.0
 70
   128
 71
     5
 72
     9
 73
    13
  0
VERTEX
  5
73E
  8
0
 62
     9
 10
0.0
 20
0.0
 30
0.0
 70
   128
 71
    17
 72
     9
 73
    16
  0
VERTEX
  5
73F
  8
0
 62
     9
 10
0.0
 20
0.0
 30
0.0
 70
   128
 71
    17
 72
    19
 73
    18
  0
VERTEX
  5
740
  8
0
 62
     9
 10
0.0
 20
0.0
 30
0.0
 70
   128
 71
    18
 72
     9
 73
    17
  0
VERTEX
  5
741
  8
0
 62
     9
 10
0.0
 20
0.0
 30
0.0
 70
   128
 71
    22
 72
    21
 73
    20
  0
VERTEX
  5
742
  8
0
 62
     9
 10
0.0
 20
0.0
 30
0.0
 70
   128
 71
    24
 72
    23
 73
    20
  0
VERTEX
  5
743
  8
0
 62
     9
 10
0.0
 20
0.0
 30
0.0
 70
   128
 71
    23
 72
    25
 73
    20
  0
VERTEX
  5
744
  8
0
 62
     9
 10
0.0
 20
0.0
 30
0.0
 70
   128
 71
    20
 72
    26
 73
    24
  0
VERTEX
  5
745
  8
0
 62
     9
 10
0.0
 20
0.0
 30
0.0
 70
   128
 71
    20
 72
    27
 73
    26
  0
VERTEX
  5
746
  8
0
 62
     9
 10
0.0
 20
0.0
 30
0.0
 70
   128
 71
    20
 72
    21
 73
    27
  0
VERTEX
  5
747
  8
0
 62
     9
 10
0.0
 20
0.0
 30
0.0
 70
   128
 71
    20
 72
    28
 73
    16
  0
VERTEX
  5
748
  8
0
 62
     9
 10
0.0
 20
0.0
 30
0.0
 70
   128
 71
    16
 72
    29
 73
    20
  0
VERTEX
  5
749
  8
0
 62
     9
 10
0.0
 20
0.0
 30
0.0
 70
   128
 71
    32
 72
    31
 73
    30
  0
VERTEX
  5
74A
  8
0
 62
     9
 10
0.0
 20
0.0
 30
0.0
 70
   128
 71
    30
 72
    29
 73
    32
  0
VERTEX
  5
74B
  8
0
 62
     9
 10
0.0
 20
0.0
 30
0.0
 70
   128
 71
    33
 72
    22
 73
    29
  0
VERTEX
  5
74C
  8
0
 62
     9
 10
0.0
 20
0.0
 30
0.0
 70
   128
 71
    29
 72
    30
 73
    33
  0
VERTEX
  5
74D
  8
0
 62
     9
 10
0.0
 20
0.0
 30
0.0
 70
   128
 71
    36
 72
    35
 73
    34
  0
VERTEX
  5
74E
  8
0
 62
     9
 10
0.0
 20
0.0
 30
0.0
 70
   128
 71
    35
 72
    37
 73
    34
  0
VERTEX
  5
74F
  8
0
 62
     9
 10
0.0
 20
0.0
 30
0.0
 70
   128
 71
    39
 72
    38
 73
    34
  0
VERTEX
  5
750
  8
0
 62
     9
 10
0.0
 20
0.0
 30
0.0
 70
   128
 71
    34
 72
    37
 73
    39
  0
VERTEX
  5
751
  8
0
 62
     9
 10
0.0
 20
0.0
 30
0.0
 70
   128
 71
    34
 72
    40
 73
    36
  0
VERTEX
  5
752
  8
0
 62
     9
 10
0.0
 20
0.0
 30
0.0
 70
   128
 71
    40
 72
    41
 73
    36
  0
VERTEX
  5
753
  8
0
 62
     9
 10
0.0
 20
0.0
 30
0.0
 70
   128
 71
    38
 72
    32
 73
    34
  0
VERTEX
  5
754
  8
0
 62
     9
 10
0.0
 20
0.0
 30
0.0
 70
   128
 71
    44
 72
    43
 73
    42
  0
VERTEX
  5
755
  8
0
 62
     9
 10
0.0
 20
0.0
 30
0.0
 70
   128
 71
    43
 72
    45
 73
    42
  0
VERTEX
  5
756
  8
0
 62
     9
 10
0.0
 20
0.0
 30
0.0
 70
   128
 71
    45
 72
    46
 73
    40
  0
VERTEX
  5
757
  8
0
 62
     9
 10
0.0
 20
0.0
 30
0.0
 70
   128
 71
    40
 72
    42
 73
    45
  0
VERTEX
  5
758
  8
0
 62
     9
 10
0.0
 20
0.0
 30
0.0
 70
   128
 71
    46
 72
    47
 73
    40
  0
VERTEX
  5
759
  8
0
 62
     9
 10
0.0
 20
0.0
 30
0.0
 70
   128
 71
    50
 72
    49
 73
    48
  0
VERTEX
  5
75A
  8
0
 62
     9
 10
0.0
 20
0.0
 30
0.0
 70
   128
 71
    48
 72
    51
 73
    50
  0
VERTEX
  5
75B
  8
0
 62
     9
 10
0.0
 20
0.0
 30
0.0
 70
   128
 71
    52
 72
    42
 73
    49
  0
VERTEX
  5
75C
  8
0
 62
     9
 10
0.0
 20
0.0
 30
0.0
 70
   128
 71
    52
 72
    53
 73
    42
  0
VERTEX
  5
75D
  8
0
 62
     9
 10
0.0
 20
0.0
 30
0.0
 70
   128
 71
    49
 72
    50
 73
    52
  0
VERTEX
  5
75E
  8
0
 62
     9
 10
0.0
 20
0.0
 30
0.0
 70
   128
 71
    56
 72
    55
 73
    54
  0
VERTEX
  5
75F
  8
0
 62
     9
 10
0.0
 20
0.0
 30
0.0
 70
   128
 71
    55
 72
    57
 73
    54
  0
VERTEX
  5
760
  8
0
 62
     9
 10
0.0
 20
0.0
 30
0.0
 70
   128
 71
    59
 72
    58
 73
    54
  0
VERTEX
  5
761
  8
0
 62
     9
 10
0.0
 20
0.0
 30
0.0
 70
   128
 71
    58
 72
    60
 73
    54
  0
VERTEX
  5
762
  8
0
 62
     9
 10
0.0
 20
0.0
 30
0.0
 70
   128
 71
    54
 72
    57
 73
    59
  0
VERTEX
  5
763
  8
0
 62
     9
 10
0.0
 20
0.0
 30
0.0
 70
   128
 71
    61
 72
    49
 73
    54
  0
VERTEX
  5
764
  8
0
 62
     9
 10
0.0
 20
0.0
 30
0.0
 70
   128
 71
    54
 72
    60
 73
    61
  0
VERTEX
  5
765
  8
0
 62
     9
 10
0.0
 20
0.0
 30
0.0
 70
   128
 71
    49
 72
    62
 73
    54
  0
VERTEX
  5
766
  8
0
 62
     9
 10
0.0
 20
0.0
 30
0.0
 70
   128
 71
    64
 72
    63
 73
    54
  0
VERTEX
  5
767
  8
0
 62
     9
 10
0.0
 20
0.0
 30
0.0
 70
   128
 71
     8
 72
    66
 73
    65
  0
VERTEX
  5
768
  8
0
 62
     9
 10
0.0
 20
0.0
 30
0.0
 70
   128
 71
    68
 72
    67
 73
    65
  0
VERTEX
  5
769
  8
0
 62
     9
 10
0.0
 20
0.0
 30
0.0
 70
   128
 71
    67
 72
    69
 73
    65
  0
VERTEX
  5
76A
  8
0
 62
     9
 10
0.0
 20
0.0
 30
0.0
 70
   128
 71
    65
 72
    66
 73
    68
  0
VERTEX
  5
76B
  8
0
 62
     9
 10
0.0
 20
0.0
 30
0.0
 70
   128
 71
    65
 72
    63
 73
    64
  0
VERTEX
  5
76C
  8
0
 62
     9
 10
0.0
 20
0.0
 30
0.0
 70
   128
 71
    64
 72
     2
 73
    65
  0
VERTEX
  5
76D
  8
0
 62
     9
 10
0.0
 20
0.0
 30
0.0
 70
   128
 71
    65
 72
     2
 73
     8
  0
VERTEX
  5
76E
  8
0
 62
     9
 10
0.0
 20
0.0
 30
0.0
 70
   128
 71
    54
 72
    62
 73
    64
  0
VERTEX
  5
76F
  8
0
 62
     9
 10
0.0
 20
0.0
 30
0.0
 70
   128
 71
    54
 72
    70
 73
    56
  0
VERTEX
  5
770
  8
0
 62
     9
 10
0.0
 20
0.0
 30
0.0
 70
   128
 71
    49
 72
    61
 73
    48
  0
VERTEX
  5
771
  8
0
 62
     9
 10
0.0
 20
0.0
 30
0.0
 70
   128
 71
    42
 72
    53
 73
    44
  0
VERTEX
  5
772
  8
0
 62
     9
 10
0.0
 20
0.0
 30
0.0
 70
   128
 71
    40
 72
    47
 73
    41
  0
VERTEX
  5
773
  8
0
 62
     9
 10
0.0
 20
0.0
 30
0.0
 70
   128
 71
    29
 72
    34
 73
    32
  0
VERTEX
  5
774
  8
0
 62
     9
 10
0.0
 20
0.0
 30
0.0
 70
   128
 71
    20
 72
    29
 73
    22
  0
VERTEX
  5
775
  8
0
 62
     9
 10
0.0
 20
0.0
 30
0.0
 70
   128
 71
    16
 72
    28
 73
    17
  0
VERTEX
  5
776
  8
0
 62
     9
 10
0.0
 20
0.0
 30
0.0
 70
   128
 71
     9
 72
    18
 73
    11
  0
VERTEX
  5
777
  8
0
 62
     9
 10
0.0
 20
0.0
 30
0.0
 70
   128
 71
     1
 72
     4
 73
     3
  0
SEQEND
  5
778
  8
0
 62
     9
  0
ENDBLK
  5
77B
  8
0
  0
BLOCK
  8
0
  2
E3_NODE_61_
 70
     0
 10
0.0
 20
0.0
 30
0.0
  3
E3_NODE_61_
  1

  0
POLYLINE
  5
77D
  8
0
 62
     9
 66
     1
 10
0.0
 20
0.0
 30
0.0
 70
    64
 71
    12
 72
    10
  0
VERTEX
  5
77E
  8
0
 10
-14.55399990081787
 20
-6.646999835968018
 30
-52.5
 70
   192
  0
VERTEX
  5
77F
  8
0
 10
8.649999618530273
 20
-13.46000003814697
 30
-52.5
 70
   192
  0
VERTEX
  5
780
  8
0
 10
0.0
 20
-16.0
 30
-52.5
 70
   192
  0
VERTEX
  5
781
  8
0
 10
-15.83699989318848
 20
2.276999950408936
 30
-52.5
 70
   192
  0
VERTEX
  5
782
  8
0
 10
4.507999897003174
 20
15.35200023651123
 30
-52.5
 70
   192
  0
VERTEX
  5
783
  8
0
 10
12.09200000762939
 20
10.47799968719482
 30
-52.5
 70
   192
  0
VERTEX
  5
784
  8
0
 10
-12.09200000762939
 20
10.47799968719482
 30
-52.5
 70
   192
  0
VERTEX
  5
785
  8
0
 10
14.55399990081787
 20
-6.646999835968018
 30
-52.5
 70
   192
  0
VERTEX
  5
786
  8
0
 10
-4.507999897003174
 20
15.35200023651123
 30
-52.5
 70
   192
  0
VERTEX
  5
787
  8
0
 10
15.83699989318848
 20
2.276999950408936
 30
-52.5
 70
   192
  0
VERTEX
  5
788
  8
0
 10
-16.0
 20
0.0
 30
-52.5
 70
   192
  0
VERTEX
  5
789
  8
0
 10
-8.649999618530273
 20
-13.46000003814697
 30
-52.5
 70
   192
  0
VERTEX
  5
78A
  8
0
 62
     9
 10
0.0
 20
0.0
 30
0.0
 70
   128
 71
     3
 72
     2
 73
     1
  0
VERTEX
  5
78B
  8
0
 62
     9
 10
0.0
 20
0.0
 30
0.0
 70
   128
 71
     6
 72
     5
 73
     4
  0
VERTEX
  5
78C
  8
0
 62
     9
 10
0.0
 20
0.0
 30
0.0
 70
   128
 71
     7
 72
     4
 73
     5
  0
VERTEX
  5
78D
  8
0
 62
     9
 10
0.0
 20
0.0
 30
0.0
 70
   128
 71
     2
 72
     8
 73
     1
  0
VERTEX
  5
78E
  8
0
 62
     9
 10
0.0
 20
0.0
 30
0.0
 70
   128
 71
     5
 72
     9
 73
     7
  0
VERTEX
  5
78F
  8
0
 62
     9
 10
0.0
 20
0.0
 30
0.0
 70
   128
 71
     8
 72
    10
 73
     1
  0
VERTEX
  5
790
  8
0
 62
     9
 10
0.0
 20
0.0
 30
0.0
 70
   128
 71
     4
 72
    11
 73
    10
  0
VERTEX
  5
791
  8
0
 62
     9
 10
0.0
 20
0.0
 30
0.0
 70
   128
 71
     1
 72
    12
 73
     3
  0
VERTEX
  5
792
  8
0
 62
     9
 10
0.0
 20
0.0
 30
0.0
 70
   128
 71
    10
 72
    11
 73
     1
  0
VERTEX
  5
793
  8
0
 62
     9
 10
0.0
 20
0.0
 30
0.0
 70
   128
 71
     4
 72
    10
 73
     6
  0
SEQEND
  5
794
  8
0
 62
     9
  0
ENDBLK
  5
797
  8
0
  0
BLOCK
  8
0
  2
E3_NODE_62_
 70
     0
 10
0.0
 20
0.0
 30
0.0
  3
E3_NODE_62_
  1

  0
POLYLINE
  5
799
  8
0
 62
     9
 66
     1
 10
0.0
 20
0.0
 30
0.0
 70
    64
 71
    13
 72
    11
  0
VERTEX
  5
79A
  8
0
 10
-18.0
 20
15.93400001525879
 30
-28.37299919128418
 70
   192
  0
VERTEX
  5
79B
  8
0
 10
-18.0
 20
17.97500038146973
 30
-20.9419994354248
 70
   192
  0
VERTEX
  5
79C
  8
0
 10
-11.0
 20
17.97500038146973
 30
-20.9419994354248
 70
   192
  0
VERTEX
  5
79D
  8
0
 10
-12.75500011444092
 20
11.05300045013428
 30
-34.10900115966797
 70
   192
  0
VERTEX
  5
79E
  8
0
 10
-12.86600017547607
 20
10.92800045013428
 30
-34.21599960327148
 70
   192
  0
VERTEX
  5
79F
  8
0
 10
-11.0
 20
15.93400001525879
 30
-28.37299919128418
 70
   192
  0
VERTEX
  5
7A0
  8
0
 10
-11.0
 20
13.02700042724609
 30
-32.42100143432617
 70
   192
  0
VERTEX
  5
7A1
  8
0
 10
-18.0
 20
4.0
 30
-37.54999923706055
 70
   192
  0
VERTEX
  5
7A2
  8
0
 10
-18.0
 20
10.97299957275391
 30
-34.26900100708008
 70
   192
  0
VERTEX
  5
7A3
  8
0
 10
-15.71500015258789
 20
5.973000049591064
 30
-36.97999954223633
 70
   192
  0
VERTEX
  5
7A4
  8
0
 10
-15.18900012969971
 20
7.269000053405762
 30
-36.46699905395508
 70
   192
  0
VERTEX
  5
7A5
  8
0
 10
-13.47399997711182
 20
10.24300003051758
 30
-34.80099868774414
 70
   192
  0
VERTEX
  5
7A6
  8
0
 10
-16.29800033569336
 20
4.0
 30
-37.54999923706055
 70
   192
  0
VERTEX
  5
7A7
  8
0
 62
     9
 10
0.0
 20
0.0
 30
0.0
 70
   128
 71
     3
 72
     2
 73
     1
  0
VERTEX
  5
7A8
  8
0
 62
     9
 10
0.0
 20
0.0
 30
0.0
 70
   128
 71
     5
 72
     4
 73
     1
  0
VERTEX
  5
7A9
  8
0
 62
     9
 10
0.0
 20
0.0
 30
0.0
 70
   128
 71
     7
 72
     6
 73
     1
  0
VERTEX
  5
7AA
  8
0
 62
     9
 10
0.0
 20
0.0
 30
0.0
 70
   128
 71
     1
 72
     4
 73
     7
  0
VERTEX
  5
7AB
  8
0
 62
     9
 10
0.0
 20
0.0
 30
0.0
 70
   128
 71
    10
 72
     9
 73
     8
  0
VERTEX
  5
7AC
  8
0
 62
     9
 10
0.0
 20
0.0
 30
0.0
 70
   128
 71
    10
 72
    11
 73
     9
  0
VERTEX
  5
7AD
  8
0
 62
     9
 10
0.0
 20
0.0
 30
0.0
 70
   128
 71
    11
 72
    12
 73
     9
  0
VERTEX
  5
7AE
  8
0
 62
     9
 10
0.0
 20
0.0
 30
0.0
 70
   128
 71
    12
 72
     5
 73
     9
  0
VERTEX
  5
7AF
  8
0
 62
     9
 10
0.0
 20
0.0
 30
0.0
 70
   128
 71
     8
 72
    13
 73
    10
  0
VERTEX
  5
7B0
  8
0
 62
     9
 10
0.0
 20
0.0
 30
0.0
 70
   128
 71
     1
 72
     9
 73
     5
  0
VERTEX
  5
7B1
  8
0
 62
     9
 10
0.0
 20
0.0
 30
0.0
 70
   128
 71
     1
 72
     6
 73
     3
  0
SEQEND
  5
7B2
  8
0
 62
     9
  0
ENDBLK
  5
7B5
  8
0
  0
BLOCK
  8
0
  2
E3_NODE_63_
 70
     0
 10
0.0
 20
0.0
 30
0.0
  3
E3_NODE_63_
  1

  0
POLYLINE
  5
7B7
  8
0
 62
     9
 66
     1
 10
0.0
 20
0.0
 30
0.0
 70
    64
 71
    16
 72
    14
  0
VERTEX
  5
7B8
  8
0
 10
-11.0
 20
18.16300010681152
 30
-51.5
 70
   192
  0
VERTEX
  5
7B9
  8
0
 10
-11.0
 20
11.69099998474121
 30
-51.5
 70
   192
  0
VERTEX
  5
7BA
  8
0
 10
-11.0
 20
13.02700042724609
 30
-32.42100143432617
 70
   192
  0
VERTEX
  5
7BB
  8
0
 10
-11.0
 20
33.6870002746582
 30
-18.0
 70
   192
  0
VERTEX
  5
7BC
  8
0
 10
-11.0
 20
15.93400001525879
 30
-28.37299919128418
 70
   192
  0
VERTEX
  5
7BD
  8
0
 10
-11.0
 20
17.97500038146973
 30
-20.9419994354248
 70
   192
  0
VERTEX
  5
7BE
  8
0
 10
-11.0
 20
31.98999977111816
 30
-50.36600112915039
 70
   192
  0
VERTEX
  5
7BF
  8
0
 10
-11.0
 20
28.72200012207031
 30
-55.92800140380859
 70
   192
  0
VERTEX
  5
7C0
  8
0
 10
-11.0
 20
19.07299995422363
 30
0.0
 70
   192
  0
VERTEX
  5
7C1
  8
0
 10
-11.0
 20
24.72900009155273
 30
-5.071000099182129
 70
   192
  0
VERTEX
  5
7C2
  8
0
 10
-11.0
 20
30.21299934387207
 30
-13.60299968719482
 70
   192
  0
VERTEX
  5
7C3
  8
0
 10
-11.0
 20
24.11100006103516
 30
2.0
 70
   192
  0
VERTEX
  5
7C4
  8
0
 10
-11.0
 20
39.4379997253418
 30
-17.8169994354248
 70
   192
  0
VERTEX
  5
7C5
  8
0
 10
-11.0
 20
18.89800071716309
 30
2.0
 70
   192
  0
VERTEX
  5
7C6
  8
0
 10
-11.0
 20
22.29299926757812
 30
-56.45500183105469
 70
   192
  0
VERTEX
  5
7C7
  8
0
 10
-11.0
 20
42.0
 30
-18.0
 70
   192
  0
VERTEX
  5
7C8
  8
0
 62
     9
 10
0.0
 20
0.0
 30
0.0
 70
   128
 71
     3
 72
     2
 73
     1
  0
VERTEX
  5
7C9
  8
0
 62
     9
 10
0.0
 20
0.0
 30
0.0
 70
   128
 71
     6
 72
     5
 73
     4
  0
VERTEX
  5
7CA
  8
0
 62
     9
 10
0.0
 20
0.0
 30
0.0
 70
   128
 71
     1
 72
     5
 73
     3
  0
VERTEX
  5
7CB
  8
0
 62
     9
 10
0.0
 20
0.0
 30
0.0
 70
   128
 71
     8
 72
     7
 73
     1
  0
VERTEX
  5
7CC
  8
0
 62
     9
 10
0.0
 20
0.0
 30
0.0
 70
   128
 71
    11
 72
    10
 73
     9
  0
VERTEX
  5
7CD
  8
0
 62
     9
 10
0.0
 20
0.0
 30
0.0
 70
   128
 71
     9
 72
    10
 73
    12
  0
VERTEX
  5
7CE
  8
0
 62
     9
 10
0.0
 20
0.0
 30
0.0
 70
   128
 71
     1
 72
     4
 73
     5
  0
VERTEX
  5
7CF
  8
0
 62
     9
 10
0.0
 20
0.0
 30
0.0
 70
   128
 71
     7
 72
     4
 73
     1
  0
VERTEX
  5
7D0
  8
0
 62
     9
 10
0.0
 20
0.0
 30
0.0
 70
   128
 71
    13
 72
    11
 73
     4
  0
VERTEX
  5
7D1
  8
0
 62
     9
 10
0.0
 20
0.0
 30
0.0
 70
   128
 71
    12
 72
    14
 73
     9
  0
VERTEX
  5
7D2
  8
0
 62
     9
 10
0.0
 20
0.0
 30
0.0
 70
   128
 71
     1
 72
    15
 73
     8
  0
VERTEX
  5
7D3
  8
0
 62
     9
 10
0.0
 20
0.0
 30
0.0
 70
   128
 71
     9
 72
     4
 73
    11
  0
VERTEX
  5
7D4
  8
0
 62
     9
 10
0.0
 20
0.0
 30
0.0
 70
   128
 71
     4
 72
    16
 73
    13
  0
VERTEX
  5
7D5
  8
0
 62
     9
 10
0.0
 20
0.0
 30
0.0
 70
   128
 71
     4
 72
     9
 73
     6
  0
SEQEND
  5
7D6
  8
0
 62
     9
  0
ENDBLK
  5
7D9
  8
0
  0
BLOCK
  8
0
  2
E3_NODE_64_
 70
     0
 10
0.0
 20
0.0
 30
0.0
  3
E3_NODE_64_
  1

  0
POLYLINE
  5
7DB
  8
0
 62
     9
 66
     1
 10
0.0
 20
0.0
 30
0.0
 70
    64
 71
     4
 72
     2
  0
VERTEX
  5
7DC
  8
0
 10
-11.0
 20
18.89800071716309
 30
2.0
 70
   192
  0
VERTEX
  5
7DD
  8
0
 10
-11.0
 20
19.07299995422363
 30
0.0
 70
   192
  0
VERTEX
  5
7DE
  8
0
 10
-18.0
 20
19.07299995422363
 30
0.0
 70
   192
  0
VERTEX
  5
7DF
  8
0
 10
-18.0
 20
18.89800071716309
 30
2.0
 70
   192
  0
VERTEX
  5
7E0
  8
0
 62
     9
 10
0.0
 20
0.0
 30
0.0
 70
   128
 71
     3
 72
     2
 73
     1
  0
VERTEX
  5
7E1
  8
0
 62
     9
 10
0.0
 20
0.0
 30
0.0
 70
   128
 71
     1
 72
     4
 73
     3
  0
SEQEND
  5
7E2
  8
0
 62
     9
  0
ENDBLK
  5
7E5
  8
0
  0
BLOCK
  8
0
  2
E3_NODE_65_
 70
     0
 10
0.0
 20
0.0
 30
0.0
  3
E3_NODE_65_
  1

  0
POLYLINE
  5
7E7
  8
0
 62
     9
 66
     1
 10
0.0
 20
0.0
 30
0.0
 70
    64
 71
     4
 72
     2
  0
VERTEX
  5
7E8
  8
0
 10
-18.0
 20
17.97500038146973
 30
-20.9419994354248
 70
   192
  0
VERTEX
  5
7E9
  8
0
 10
-18.0
 20
19.07299995422363
 30
0.0
 70
   192
  0
VERTEX
  5
7EA
  8
0
 10
-11.0
 20
19.07299995422363
 30
0.0
 70
   192
  0
VERTEX
  5
7EB
  8
0
 10
-11.0
 20
17.97500038146973
 30
-20.9419994354248
 70
   192
  0
VERTEX
  5
7EC
  8
0
 62
     9
 10
0.0
 20
0.0
 30
0.0
 70
   128
 71
     3
 72
     2
 73
     1
  0
VERTEX
  5
7ED
  8
0
 62
     9
 10
0.0
 20
0.0
 30
0.0
 70
   128
 71
     1
 72
     4
 73
     3
  0
SEQEND
  5
7EE
  8
0
 62
     9
  0
ENDBLK
  5
7F1
  8
0
  0
BLOCK
  8
0
  2
E3_NODE_66_
 70
     0
 10
0.0
 20
0.0
 30
0.0
  3
E3_NODE_66_
  1

  0
POLYLINE
  5
7F3
  8
0
 62
     9
 66
     1
 10
0.0
 20
0.0
 30
0.0
 70
    64
 71
    11
 72
     9
  0
VERTEX
  5
7F4
  8
0
 10
-11.0
 20
18.89800071716309
 30
2.0
 70
   192
  0
VERTEX
  5
7F5
  8
0
 10
-9.72700023651123
 20
13.38899993896484
 30
2.0
 70
   192
  0
VERTEX
  5
7F6
  8
0
 10
0.0
 20
16.54899978637695
 30
2.0
 70
   192
  0
VERTEX
  5
7F7
  8
0
 10
12.5
 20
24.11100006103516
 30
2.0
 70
   192
  0
VERTEX
  5
7F8
  8
0
 10
9.72700023651123
 20
13.38899993896484
 30
2.0
 70
   192
  0
VERTEX
  5
7F9
  8
0
 10
-18.0
 20
18.89800071716309
 30
2.0
 70
   192
  0
VERTEX
  5
7FA
  8
0
 10
-18.0
 20
4.0
 30
2.0
 70
   192
  0
VERTEX
  5
7FB
  8
0
 10
-15.73900032043457
 20
5.113999843597412
 30
2.0
 70
   192
  0
VERTEX
  5
7FC
  8
0
 10
-16.05900001525879
 20
4.0
 30
2.0
 70
   192
  0
VERTEX
  5
7FD
  8
0
 10
-11.0
 20
24.11100006103516
 30
2.0
 70
   192
  0
VERTEX
  5
7FE
  8
0
 10
12.5
 20
10.8459997177124
 30
2.0
 70
   192
  0
VERTEX
  5
7FF
  8
0
 62
     9
 10
0.0
 20
0.0
 30
0.0
 70
   128
 71
     3
 72
     2
 73
     1
  0
VERTEX
  5
800
  8
0
 62
     9
 10
0.0
 20
0.0
 30
0.0
 70
   128
 71
     5
 72
     3
 73
     4
  0
VERTEX
  5
801
  8
0
 62
     9
 10
0.0
 20
0.0
 30
0.0
 70
   128
 71
     1
 72
     4
 73
     3
  0
VERTEX
  5
802
  8
0
 62
     9
 10
0.0
 20
0.0
 30
0.0
 70
   128
 71
     8
 72
     7
 73
     6
  0
VERTEX
  5
803
  8
0
 62
     9
 10
0.0
 20
0.0
 30
0.0
 70
   128
 71
     2
 72
     6
 73
     1
  0
VERTEX
  5
804
  8
0
 62
     9
 10
0.0
 20
0.0
 30
0.0
 70
   128
 71
     8
 72
     9
 73
     7
  0
VERTEX
  5
805
  8
0
 62
     9
 10
0.0
 20
0.0
 30
0.0
 70
   128
 71
     6
 72
     2
 73
     8
  0
VERTEX
  5
806
  8
0
 62
     9
 10
0.0
 20
0.0
 30
0.0
 70
   128
 71
     1
 72
    10
 73
     4
  0
VERTEX
  5
807
  8
0
 62
     9
 10
0.0
 20
0.0
 30
0.0
 70
   128
 71
     4
 72
    11
 73
     5
  0
SEQEND
  5
808
  8
0
 62
     9
  0
ENDBLK
  5
80B
  8
0
  0
BLOCK
  8
0
  2
E3_NODE_67_
 70
     0
 10
0.0
 20
0.0
 30
0.0
  3
E3_NODE_67_
  1

  0
POLYLINE
  5
80D
  8
0
 62
     9
 66
     1
 10
0.0
 20
0.0
 30
0.0
 70
    64
 71
    18
 72
    16
  0
VERTEX
  5
80E
  8
0
 10
-18.0
 20
10.97299957275391
 30
-34.26900100708008
 70
   192
  0
VERTEX
  5
80F
  8
0
 10
-18.0
 20
4.0
 30
-37.54999923706055
 70
   192
  0
VERTEX
  5
810
  8
0
 10
-18.0
 20
-17.97500038146973
 30
-20.9419994354248
 70
   192
  0
VERTEX
  5
811
  8
0
 10
-18.0
 20
-4.0
 30
-37.54999923706055
 70
   192
  0
VERTEX
  5
812
  8
0
 10
-18.0
 20
-10.97299957275391
 30
-34.26900100708008
 70
   192
  0
VERTEX
  5
813
  8
0
 10
-18.0
 20
-19.07299995422363
 30
0.0
 70
   192
  0
VERTEX
  5
814
  8
0
 10
-18.0
 20
15.93400001525879
 30
-28.37299919128418
 70
   192
  0
VERTEX
  5
815
  8
0
 10
-18.0
 20
-4.0
 30
2.0
 70
   192
  0
VERTEX
  5
816
  8
0
 10
-18.0
 20
4.0
 30
2.0
 70
   192
  0
VERTEX
  5
817
  8
0
 10
-18.0
 20
18.89800071716309
 30
2.0
 70
   192
  0
VERTEX
  5
818
  8
0
 10
-18.0
 20
19.07299995422363
 30
0.0
 70
   192
  0
VERTEX
  5
819
  8
0
 10
-18.0
 20
-15.93400001525879
 30
-28.37299919128418
 70
   192
  0
VERTEX
  5
81A
  8
0
 10
-18.0
 20
4.0
 30
-50.0
 70
   192
  0
VERTEX
  5
81B
  8
0
 10
-18.0
 20
-4.0
 30
-50.0
 70
   192
  0
VERTEX
  5
81C
  8
0
 10
-18.0
 20
17.97500038146973
 30
-20.9419994354248
 70
   192
  0
VERTEX
  5
81D
  8
0
 10
-18.0
 20
-4.0
 30
10.0
 70
   192
  0
VERTEX
  5
81E
  8
0
 10
-18.0
 20
4.0
 30
10.0
 70
   192
  0
VERTEX
  5
81F
  8
0
 10
-18.0
 20
-18.89800071716309
 30
2.0
 70
   192
  0
VERTEX
  5
820
  8
0
 62
     9
 10
0.0
 20
0.0
 30
0.0
 70
   128
 71
     3
 72
     2
 73
     1
  0
VERTEX
  5
821
  8
0
 62
     9
 10
0.0
 20
0.0
 30
0.0
 70
   128
 71
     5
 72
     4
 73
     2
  0
VERTEX
  5
822
  8
0
 62
     9
 10
0.0
 20
0.0
 30
0.0
 70
   128
 71
     1
 72
     7
 73
     6
  0
VERTEX
  5
823
  8
0
 62
     9
 10
0.0
 20
0.0
 30
0.0
 70
   128
 71
     8
 72
     6
 73
     7
  0
VERTEX
  5
824
  8
0
 62
     9
 10
0.0
 20
0.0
 30
0.0
 70
   128
 71
    11
 72
    10
 73
     9
  0
VERTEX
  5
825
  8
0
 62
     9
 10
0.0
 20
0.0
 30
0.0
 70
   128
 71
     2
 72
    12
 73
     5
  0
VERTEX
  5
826
  8
0
 62
     9
 10
0.0
 20
0.0
 30
0.0
 70
   128
 71
    14
 72
    13
 73
     2
  0
VERTEX
  5
827
  8
0
 62
     9
 10
0.0
 20
0.0
 30
0.0
 70
   128
 71
     7
 72
    15
 73
     8
  0
VERTEX
  5
828
  8
0
 62
     9
 10
0.0
 20
0.0
 30
0.0
 70
   128
 71
     9
 72
     8
 73
    15
  0
VERTEX
  5
829
  8
0
 62
     9
 10
0.0
 20
0.0
 30
0.0
 70
   128
 71
     9
 72
    17
 73
    16
  0
VERTEX
  5
82A
  8
0
 62
     9
 10
0.0
 20
0.0
 30
0.0
 70
   128
 71
     2
 72
     4
 73
    14
  0
VERTEX
  5
82B
  8
0
 62
     9
 10
0.0
 20
0.0
 30
0.0
 70
   128
 71
     1
 72
     6
 73
     3
  0
VERTEX
  5
82C
  8
0
 62
     9
 10
0.0
 20
0.0
 30
0.0
 70
   128
 71
    16
 72
     8
 73
     9
  0
VERTEX
  5
82D
  8
0
 62
     9
 10
0.0
 20
0.0
 30
0.0
 70
   128
 71
     8
 72
    18
 73
     6
  0
VERTEX
  5
82E
  8
0
 62
     9
 10
0.0
 20
0.0
 30
0.0
 70
   128
 71
     2
 72
     3
 73
    12
  0
VERTEX
  5
82F
  8
0
 62
     9
 10
0.0
 20
0.0
 30
0.0
 70
   128
 71
     9
 72
    15
 73
    11
  0
SEQEND
  5
830
  8
0
 62
     9
  0
ENDBLK
  5
833
  8
0
  0
BLOCK
  8
0
  2
E3_NODE_68_
 70
     0
 10
0.0
 20
0.0
 30
0.0
  3
E3_NODE_68_
  1

  0
POLYLINE
  5
835
  8
0
 62
     9
 66
     1
 10
0.0
 20
0.0
 30
0.0
 70
    64
 71
     4
 72
     2
  0
VERTEX
  5
836
  8
0
 10
-18.0
 20
-4.0
 30
10.0
 70
   192
  0
VERTEX
  5
837
  8
0
 10
-15.6269998550415
 20
-4.0
 30
10.0
 70
   192
  0
VERTEX
  5
838
  8
0
 10
-15.6269998550415
 20
4.0
 30
10.0
 70
   192
  0
VERTEX
  5
839
  8
0
 10
-18.0
 20
4.0
 30
10.0
 70
   192
  0
VERTEX
  5
83A
  8
0
 62
     9
 10
0.0
 20
0.0
 30
0.0
 70
   128
 71
     3
 72
     2
 73
     1
  0
VERTEX
  5
83B
  8
0
 62
     9
 10
0.0
 20
0.0
 30
0.0
 70
   128
 71
     1
 72
     4
 73
     3
  0
SEQEND
  5
83C
  8
0
 62
     9
  0
ENDBLK
  5
83F
  8
0
  0
BLOCK
  8
0
  2
E3_NODE_69_
 70
     0
 10
0.0
 20
0.0
 30
0.0
  3
E3_NODE_69_
  1

  0
POLYLINE
  5
841
  8
0
 62
     9
 66
     1
 10
0.0
 20
0.0
 30
0.0
 70
    64
 71
     5
 72
     3
  0
VERTEX
  5
842
  8
0
 10
-18.0
 20
-4.0
 30
2.0
 70
   192
  0
VERTEX
  5
843
  8
0
 10
-16.05900001525879
 20
-4.0
 30
2.0
 70
   192
  0
VERTEX
  5
844
  8
0
 10
-15.68099975585938
 20
-4.0
 30
9.00100040435791
 70
   192
  0
VERTEX
  5
845
  8
0
 10
-18.0
 20
-4.0
 30
10.0
 70
   192
  0
VERTEX
  5
846
  8
0
 10
-15.6269998550415
 20
-4.0
 30
10.0
 70
   192
  0
VERTEX
  5
847
  8
0
 62
     9
 10
0.0
 20
0.0
 30
0.0
 70
   128
 71
     3
 72
     2
 73
     1
  0
VERTEX
  5
848
  8
0
 62
     9
 10
0.0
 20
0.0
 30
0.0
 70
   128
 71
     1
 72
     4
 73
     3
  0
VERTEX
  5
849
  8
0
 62
     9
 10
0.0
 20
0.0
 30
0.0
 70
   128
 71
     4
 72
     5
 73
     3
  0
SEQEND
  5
84A
  8
0
 62
     9
  0
ENDBLK
  5
84D
  8
0
  0
BLOCK
  8
0
  2
E3_NODE_70_
 70
     0
 10
0.0
 20
0.0
 30
0.0
  3
E3_NODE_70_
  1

  0
POLYLINE
  5
84F
  8
0
 62
     9
 66
     1
 10
0.0
 20
0.0
 30
0.0
 70
    64
 71
     5
 72
     3
  0
VERTEX
  5
850
  8
0
 10
-18.0
 20
4.0
 30
2.0
 70
   192
  0
VERTEX
  5
851
  8
0
 10
-18.0
 20
4.0
 30
10.0
 70
   192
  0
VERTEX
  5
852
  8
0
 10
-15.68099975585938
 20
4.0
 30
9.00100040435791
 70
   192
  0
VERTEX
  5
853
  8
0
 10
-15.6269998550415
 20
4.0
 30
10.0
 70
   192
  0
VERTEX
  5
854
  8
0
 10
-16.05900001525879
 20
4.0
 30
2.0
 70
   192
  0
VERTEX
  5
855
  8
0
 62
     9
 10
0.0
 20
0.0
 30
0.0
 70
   128
 71
     3
 72
     2
 73
     1
  0
VERTEX
  5
856
  8
0
 62
     9
 10
0.0
 20
0.0
 30
0.0
 70
   128
 71
     3
 72
     4
 73
     2
  0
VERTEX
  5
857
  8
0
 62
     9
 10
0.0
 20
0.0
 30
0.0
 70
   128
 71
     1
 72
     5
 73
     3
  0
SEQEND
  5
858
  8
0
 62
     9
  0
ENDBLK
  5
85B
  8
0
  0
BLOCK
  8
0
  2
E3_NODE_71_
 70
     0
 10
0.0
 20
0.0
 30
0.0
  3
E3_NODE_71_
  1

  0
POLYLINE
  5
85D
  8
0
 62
     9
 66
     1
 10
0.0
 20
0.0
 30
0.0
 70
    64
 71
    37
 72
    37
  0
VERTEX
  5
85E
  8
0
 10
9.72700023651123
 20
13.38899993896484
 30
2.0
 70
   192
  0
VERTEX
  5
85F
  8
0
 10
0.0
 20
16.54899978637695
 30
2.0
 70
   192
  0
VERTEX
  5
860
  8
0
 10
0.0
 20
16.0
 30
12.5
 70
   192
  0
VERTEX
  5
861
  8
0
 10
0.0
 20
-16.54899978637695
 30
2.0
 70
   192
  0
VERTEX
  5
862
  8
0
 10
9.72700023651123
 20
-13.38899993896484
 30
2.0
 70
   192
  0
VERTEX
  5
863
  8
0
 10
9.404999732971191
 20
-12.94400024414062
 30
12.5
 70
   192
  0
VERTEX
  5
864
  8
0
 10
-9.72700023651123
 20
-13.38899993896484
 30
2.0
 70
   192
  0
VERTEX
  5
865
  8
0
 10
0.0
 20
-16.0
 30
12.5
 70
   192
  0
VERTEX
  5
866
  8
0
 10
-15.73900032043457
 20
-5.113999843597412
 30
2.0
 70
   192
  0
VERTEX
  5
867
  8
0
 10
-9.404999732971191
 20
-12.94400024414062
 30
12.5
 70
   192
  0
VERTEX
  5
868
  8
0
 10
-9.72700023651123
 20
13.38899993896484
 30
2.0
 70
   192
  0
VERTEX
  5
869
  8
0
 10
-15.73900032043457
 20
5.113999843597412
 30
2.0
 70
   192
  0
VERTEX
  5
86A
  8
0
 10
-15.21700000762939
 20
4.943999767303467
 30
12.5
 70
   192
  0
VERTEX
  5
86B
  8
0
 10
-9.404999732971191
 20
12.94400024414062
 30
12.5
 70
   192
  0
VERTEX
  5
86C
  8
0
 10
15.21700000762939
 20
-4.943999767303467
 30
12.5
 70
   192
  0
VERTEX
  5
86D
  8
0
 10
12.5
 20
-10.34700012207031
 30
8.164999961853027
 70
   192
  0
VERTEX
  5
86E
  8
0
 10
15.03800010681152
 20
-6.288000106811523
 30
6.771999835968018
 70
   192
  0
VERTEX
  5
86F
  8
0
 10
12.5
 20
-10.8459997177124
 30
2.0
 70
   192
  0
VERTEX
  5
870
  8
0
 10
15.21700000762939
 20
4.943999767303467
 30
12.5
 70
   192
  0
VERTEX
  5
871
  8
0
 10
16.25
 20
0.6320000290870667
 30
7.493000030517578
 70
   192
  0
VERTEX
  5
872
  8
0
 10
16.07299995422363
 20
2.510999917984009
 30
7.385000228881836
 70
   192
  0
VERTEX
  5
873
  8
0
 10
15.99600028991699
 20
-2.970000028610229
 30
7.339000225067139
 70
   192
  0
VERTEX
  5
874
  8
0
 10
15.46100044250488
 20
-5.02299976348877
 30
7.019999980926514
 70
   192
  0
VERTEX
  5
875
  8
0
 10
15.69499969482422
 20
-4.321000099182129
 30
7.157999992370605
 70
   192
  0
VERTEX
  5
876
  8
0
 10
9.404999732971191
 20
12.94400024414062
 30
12.5
 70
   192
  0
VERTEX
  5
877
  8
0
 10
12.5
 20
10.34700012207031
 30
8.164999961853027
 70
   192
  0
VERTEX
  5
878
  8
0
 10
15.03800010681152
 20
6.288000106811523
 30
6.771999835968018
 70
   192
  0
VERTEX
  5
879
  8
0
 10
15.1540002822876
 20
5.99399995803833
 30
6.839000225067139
 70
   192
  0
VERTEX
  5
87A
  8
0
 10
15.41300010681152
 20
5.013000011444092
 30
6.993000030517578
 70
   192
  0
VERTEX
  5
87B
  8
0
 10
-15.21700000762939
 20
-4.943999767303467
 30
12.5
 70
   192
  0
VERTEX
  5
87C
  8
0
 10
-15.68099975585938
 20
-4.0
 30
9.00100040435791
 70
   192
  0
VERTEX
  5
87D
  8
0
 10
-15.6269998550415
 20
-4.0
 30
10.0
 70
   192
  0
VERTEX
  5
87E
  8
0
 10
-15.6269998550415
 20
4.0
 30
10.0
 70
   192
  0
VERTEX
  5
87F
  8
0
 10
-16.05900001525879
 20
4.0
 30
2.0
 70
   192
  0
VERTEX
  5
880
  8
0
 10
-15.68099975585938
 20
4.0
 30
9.00100040435791
 70
   192
  0
VERTEX
  5
881
  8
0
 10
-16.05900001525879
 20
-4.0
 30
2.0
 70
   192
  0
VERTEX
  5
882
  8
0
 10
12.5
 20
10.8459997177124
 30
2.0
 70
   192
  0
VERTEX
  5
883
  8
0
 62
     9
 10
0.0
 20
0.0
 30
0.0
 70
   128
 71
     3
 72
     2
 73
     1
  0
VERTEX
  5
884
  8
0
 62
     9
 10
0.0
 20
0.0
 30
0.0
 70
   128
 71
     6
 72
     5
 73
     4
  0
VERTEX
  5
885
  8
0
 62
     9
 10
0.0
 20
0.0
 30
0.0
 70
   128
 71
     8
 72
     4
 73
     7
  0
VERTEX
  5
886
  8
0
 62
     9
 10
0.0
 20
0.0
 30
0.0
 70
   128
 71
    10
 72
     7
 73
     9
  0
VERTEX
  5
887
  8
0
 62
     9
 10
0.0
 20
0.0
 30
0.0
 70
   128
 71
    13
 72
    12
 73
    11
  0
VERTEX
  5
888
  8
0
 62
     9
 10
0.0
 20
0.0
 30
0.0
 70
   128
 71
    14
 72
    11
 73
     2
  0
VERTEX
  5
889
  8
0
 62
     9
 10
0.0
 20
0.0
 30
0.0
 70
   128
 71
    16
 72
     6
 73
    15
  0
VERTEX
  5
88A
  8
0
 62
     9
 10
0.0
 20
0.0
 30
0.0
 70
   128
 71
    15
 72
    17
 73
    16
  0
VERTEX
  5
88B
  8
0
 62
     9
 10
0.0
 20
0.0
 30
0.0
 70
   128
 71
    16
 72
    18
 73
     5
  0
VERTEX
  5
88C
  8
0
 62
     9
 10
0.0
 20
0.0
 30
0.0
 70
   128
 71
     5
 72
     6
 73
    16
  0
VERTEX
  5
88D
  8
0
 62
     9
 10
0.0
 20
0.0
 30
0.0
 70
   128
 71
    21
 72
    20
 73
    19
  0
VERTEX
  5
88E
  8
0
 62
     9
 10
0.0
 20
0.0
 30
0.0
 70
   128
 71
    20
 72
    22
 73
    15
  0
VERTEX
  5
88F
  8
0
 62
     9
 10
0.0
 20
0.0
 30
0.0
 70
   128
 71
    24
 72
    23
 73
    15
  0
VERTEX
  5
890
  8
0
 62
     9
 10
0.0
 20
0.0
 30
0.0
 70
   128
 71
    15
 72
    22
 73
    24
  0
VERTEX
  5
891
  8
0
 62
     9
 10
0.0
 20
0.0
 30
0.0
 70
   128
 71
    15
 72
    19
 73
    20
  0
VERTEX
  5
892
  8
0
 62
     9
 10
0.0
 20
0.0
 30
0.0
 70
   128
 71
    26
 72
    25
 73
     1
  0
VERTEX
  5
893
  8
0
 62
     9
 10
0.0
 20
0.0
 30
0.0
 70
   128
 71
    26
 72
    27
 73
    19
  0
VERTEX
  5
894
  8
0
 62
     9
 10
0.0
 20
0.0
 30
0.0
 70
   128
 71
    27
 72
    28
 73
    19
  0
VERTEX
  5
895
  8
0
 62
     9
 10
0.0
 20
0.0
 30
0.0
 70
   128
 71
    28
 72
    29
 73
    19
  0
VERTEX
  5
896
  8
0
 62
     9
 10
0.0
 20
0.0
 30
0.0
 70
   128
 71
    19
 72
    25
 73
    26
  0
VERTEX
  5
897
  8
0
 62
     9
 10
0.0
 20
0.0
 30
0.0
 70
   128
 71
    31
 72
    30
 73
     9
  0
VERTEX
  5
898
  8
0
 62
     9
 10
0.0
 20
0.0
 30
0.0
 70
   128
 71
    31
 72
    32
 73
    30
  0
VERTEX
  5
899
  8
0
 62
     9
 10
0.0
 20
0.0
 30
0.0
 70
   128
 71
    33
 72
    13
 73
    30
  0
VERTEX
  5
89A
  8
0
 62
     9
 10
0.0
 20
0.0
 30
0.0
 70
   128
 71
    35
 72
    34
 73
    12
  0
VERTEX
  5
89B
  8
0
 62
     9
 10
0.0
 20
0.0
 30
0.0
 70
   128
 71
    12
 72
    13
 73
    35
  0
VERTEX
  5
89C
  8
0
 62
     9
 10
0.0
 20
0.0
 30
0.0
 70
   128
 71
    13
 72
    33
 73
    35
  0
VERTEX
  5
89D
  8
0
 62
     9
 10
0.0
 20
0.0
 30
0.0
 70
   128
 71
    30
 72
    32
 73
    33
  0
VERTEX
  5
89E
  8
0
 62
     9
 10
0.0
 20
0.0
 30
0.0
 70
   128
 71
     9
 72
    36
 73
    31
  0
VERTEX
  5
89F
  8
0
 62
     9
 10
0.0
 20
0.0
 30
0.0
 70
   128
 71
     1
 72
    37
 73
    26
  0
VERTEX
  5
8A0
  8
0
 62
     9
 10
0.0
 20
0.0
 30
0.0
 70
   128
 71
    19
 72
    29
 73
    21
  0
VERTEX
  5
8A1
  8
0
 62
     9
 10
0.0
 20
0.0
 30
0.0
 70
   128
 71
    15
 72
    23
 73
    17
  0
VERTEX
  5
8A2
  8
0
 62
     9
 10
0.0
 20
0.0
 30
0.0
 70
   128
 71
     2
 72
     3
 73
    14
  0
VERTEX
  5
8A3
  8
0
 62
     9
 10
0.0
 20
0.0
 30
0.0
 70
   128
 71
    11
 72
    14
 73
    13
  0
VERTEX
  5
8A4
  8
0
 62
     9
 10
0.0
 20
0.0
 30
0.0
 70
   128
 71
     9
 72
    30
 73
    10
  0
VERTEX
  5
8A5
  8
0
 62
     9
 10
0.0
 20
0.0
 30
0.0
 70
   128
 71
     7
 72
    10
 73
     8
  0
VERTEX
  5
8A6
  8
0
 62
     9
 10
0.0
 20
0.0
 30
0.0
 70
   128
 71
     4
 72
     8
 73
     6
  0
VERTEX
  5
8A7
  8
0
 62
     9
 10
0.0
 20
0.0
 30
0.0
 70
   128
 71
     1
 72
    25
 73
     3
  0
SEQEND
  5
8A8
  8
0
 62
     9
  0
ENDBLK
  5
8AB
  8
0
  0
BLOCK
  8
0
  2
E3_NODE_72_
 70
     0
 10
0.0
 20
0.0
 30
0.0
  3
E3_NODE_72_
  1

  0
POLYLINE
  5
8AD
  8
0
 62
     9
 66
     1
 10
0.0
 20
0.0
 30
0.0
 70
    64
 71
    10
 72
     8
  0
VERTEX
  5
8AE
  8
0
 10
9.404999732971191
 20
-12.94400024414062
 30
12.5
 70
   192
  0
VERTEX
  5
8AF
  8
0
 10
-15.21700000762939
 20
-4.943999767303467
 30
12.5
 70
   192
  0
VERTEX
  5
8B0
  8
0
 10
-9.404999732971191
 20
-12.94400024414062
 30
12.5
 70
   192
  0
VERTEX
  5
8B1
  8
0
 10
-9.404999732971191
 20
12.94400024414062
 30
12.5
 70
   192
  0
VERTEX
  5
8B2
  8
0
 10
15.21700000762939
 20
4.943999767303467
 30
12.5
 70
   192
  0
VERTEX
  5
8B3
  8
0
 10
9.404999732971191
 20
12.94400024414062
 30
12.5
 70
   192
  0
VERTEX
  5
8B4
  8
0
 10
15.21700000762939
 20
-4.943999767303467
 30
12.5
 70
   192
  0
VERTEX
  5
8B5
  8
0
 10
-15.21700000762939
 20
4.943999767303467
 30
12.5
 70
   192
  0
VERTEX
  5
8B6
  8
0
 10
0.0
 20
-16.0
 30
12.5
 70
   192
  0
VERTEX
  5
8B7
  8
0
 10
0.0
 20
16.0
 30
12.5
 70
   192
  0
VERTEX
  5
8B8
  8
0
 62
     9
 10
0.0
 20
0.0
 30
0.0
 70
   128
 71
     3
 72
     2
 73
     1
  0
VERTEX
  5
8B9
  8
0
 62
     9
 10
0.0
 20
0.0
 30
0.0
 70
   128
 71
     6
 72
     5
 73
     4
  0
VERTEX
  5
8BA
  8
0
 62
     9
 10
0.0
 20
0.0
 30
0.0
 70
   128
 71
     7
 72
     1
 73
     4
  0
VERTEX
  5
8BB
  8
0
 62
     9
 10
0.0
 20
0.0
 30
0.0
 70
   128
 71
     2
 72
     8
 73
     1
  0
VERTEX
  5
8BC
  8
0
 62
     9
 10
0.0
 20
0.0
 30
0.0
 70
   128
 71
     4
 72
     5
 73
     7
  0
VERTEX
  5
8BD
  8
0
 62
     9
 10
0.0
 20
0.0
 30
0.0
 70
   128
 71
     8
 72
     4
 73
     1
  0
VERTEX
  5
8BE
  8
0
 62
     9
 10
0.0
 20
0.0
 30
0.0
 70
   128
 71
     1
 72
     9
 73
     3
  0
VERTEX
  5
8BF
  8
0
 62
     9
 10
0.0
 20
0.0
 30
0.0
 70
   128
 71
     4
 72
    10
 73
     6
  0
SEQEND
  5
8C0
  8
0
 62
     9
  0
ENDBLK
  5
8C3
  8
0
  0
BLOCK
  8
0
  2
E3_NODE_73_
 70
     0
 10
0.0
 20
0.0
 30
0.0
  3
E3_NODE_73_
  1

  0
POLYLINE
  5
8C5
  8
0
 62
     9
 66
     1
 10
0.0
 20
0.0
 30
0.0
 70
    64
 71
     6
 72
     4
  0
VERTEX
  5
8C6
  8
0
 10
41.5
 20
-37.79999923706055
 30
-20.0
 70
   192
  0
VERTEX
  5
8C7
  8
0
 10
41.5
 20
-40.04999923706055
 30
-16.10300064086914
 70
   192
  0
VERTEX
  5
8C8
  8
0
 10
41.5
 20
-44.54999923706055
 30
-16.10300064086914
 70
   192
  0
VERTEX
  5
8C9
  8
0
 10
41.5
 20
-46.79999923706055
 30
-20.0
 70
   192
  0
VERTEX
  5
8CA
  8
0
 10
41.5
 20
-44.54999923706055
 30
-23.89699935913086
 70
   192
  0
VERTEX
  5
8CB
  8
0
 10
41.5
 20
-40.04999923706055
 30
-23.89699935913086
 70
   192
  0
VERTEX
  5
8CC
  8
0
 62
     9
 10
0.0
 20
0.0
 30
0.0
 70
   128
 71
     3
 72
     2
 73
     1
  0
VERTEX
  5
8CD
  8
0
 62
     9
 10
0.0
 20
0.0
 30
0.0
 70
   128
 71
     6
 72
     5
 73
     4
  0
VERTEX
  5
8CE
  8
0
 62
     9
 10
0.0
 20
0.0
 30
0.0
 70
   128
 71
     4
 72
     1
 73
     6
  0
VERTEX
  5
8CF
  8
0
 62
     9
 10
0.0
 20
0.0
 30
0.0
 70
   128
 71
     1
 72
     4
 73
     3
  0
SEQEND
  5
8D0
  8
0
 62
     9
  0
ENDBLK
  5
8D3
  8
0
  0
BLOCK
  8
0
  2
E3_NODE_74_
 70
     0
 10
0.0
 20
0.0
 30
0.0
  3
E3_NODE_74_
  1

  0
POLYLINE
  5
8D5
  8
0
 62
     9
 66
     1
 10
0.0
 20
0.0
 30
0.0
 70
    64
 71
    12
 72
    12
  0
VERTEX
  5
8D6
  8
0
 10
41.5
 20
-44.54999923706055
 30
-16.10300064086914
 70
   192
  0
VERTEX
  5
8D7
  8
0
 10
40.5
 20
-44.54999923706055
 30
-16.10300064086914
 70
   192
  0
VERTEX
  5
8D8
  8
0
 10
40.5
 20
-46.79999923706055
 30
-20.0
 70
   192
  0
VERTEX
  5
8D9
  8
0
 10
41.5
 20
-40.04999923706055
 30
-16.10300064086914
 70
   192
  0
VERTEX
  5
8DA
  8
0
 10
40.5
 20
-40.04999923706055
 30
-16.10300064086914
 70
   192
  0
VERTEX
  5
8DB
  8
0
 10
41.5
 20
-37.79999923706055
 30
-20.0
 70
   192
  0
VERTEX
  5
8DC
  8
0
 10
40.5
 20
-37.79999923706055
 30
-20.0
 70
   192
  0
VERTEX
  5
8DD
  8
0
 10
41.5
 20
-40.04999923706055
 30
-23.89699935913086
 70
   192
  0
VERTEX
  5
8DE
  8
0
 10
40.5
 20
-40.04999923706055
 30
-23.89699935913086
 70
   192
  0
VERTEX
  5
8DF
  8
0
 10
41.5
 20
-44.54999923706055
 30
-23.89699935913086
 70
   192
  0
VERTEX
  5
8E0
  8
0
 10
40.5
 20
-44.54999923706055
 30
-23.89699935913086
 70
   192
  0
VERTEX
  5
8E1
  8
0
 10
41.5
 20
-46.79999923706055
 30
-20.0
 70
   192
  0
VERTEX
  5
8E2
  8
0
 62
     9
 10
0.0
 20
0.0
 30
0.0
 70
   128
 71
     3
 72
     2
 73
     1
  0
VERTEX
  5
8E3
  8
0
 62
     9
 10
0.0
 20
0.0
 30
0.0
 70
   128
 71
     2
 72
     5
 73
     4
  0
VERTEX
  5
8E4
  8
0
 62
     9
 10
0.0
 20
0.0
 30
0.0
 70
   128
 71
     5
 72
     7
 73
     6
  0
VERTEX
  5
8E5
  8
0
 62
     9
 10
0.0
 20
0.0
 30
0.0
 70
   128
 71
     7
 72
     9
 73
     8
  0
VERTEX
  5
8E6
  8
0
 62
     9
 10
0.0
 20
0.0
 30
0.0
 70
   128
 71
     9
 72
    11
 73
    10
  0
VERTEX
  5
8E7
  8
0
 62
     9
 10
0.0
 20
0.0
 30
0.0
 70
   128
 71
    11
 72
     3
 73
    12
  0
VERTEX
  5
8E8
  8
0
 62
     9
 10
0.0
 20
0.0
 30
0.0
 70
   128
 71
    12
 72
    10
 73
    11
  0
VERTEX
  5
8E9
  8
0
 62
     9
 10
0.0
 20
0.0
 30
0.0
 70
   128
 71
    10
 72
     8
 73
     9
  0
VERTEX
  5
8EA
  8
0
 62
     9
 10
0.0
 20
0.0
 30
0.0
 70
   128
 71
     8
 72
     6
 73
     7
  0
VERTEX
  5
8EB
  8
0
 62
     9
 10
0.0
 20
0.0
 30
0.0
 70
   128
 71
     6
 72
     4
 73
     5
  0
VERTEX
  5
8EC
  8
0
 62
     9
 10
0.0
 20
0.0
 30
0.0
 70
   128
 71
     4
 72
     1
 73
     2
  0
VERTEX
  5
8ED
  8
0
 62
     9
 10
0.0
 20
0.0
 30
0.0
 70
   128
 71
     1
 72
    12
 73
     3
  0
SEQEND
  5
8EE
  8
0
 62
     9
  0
ENDBLK
  5
8F1
  8
0
  0
BLOCK
  8
0
  2
E3_NODE_75_
 70
     0
 10
0.0
 20
0.0
 30
0.0
  3
E3_NODE_75_
  1

  0
POLYLINE
  5
8F3
  8
0
 62
     9
 66
     1
 10
0.0
 20
0.0
 30
0.0
 70
    64
 71
    44
 72
    48
  0
VERTEX
  5
8F4
  8
0
 10
40.5
 20
40.04999923706055
 30
-16.10300064086914
 70
   192
  0
VERTEX
  5
8F5
  8
0
 10
40.5
 20
53.37699890136719
 30
16.18600082397461
 70
   192
  0
VERTEX
  5
8F6
  8
0
 10
40.5
 20
50.5
 30
17.07999992370605
 70
   192
  0
VERTEX
  5
8F7
  8
0
 10
40.5
 20
44.54999923706055
 30
-16.10300064086914
 70
   192
  0
VERTEX
  5
8F8
  8
0
 10
40.5
 20
55.24300003051758
 30
13.81999969482422
 70
   192
  0
VERTEX
  5
8F9
  8
0
 10
40.5
 20
-40.04999923706055
 30
-23.89699935913086
 70
   192
  0
VERTEX
  5
8FA
  8
0
 10
40.5
 20
-53.5099983215332
 30
-62.09199905395508
 70
   192
  0
VERTEX
  5
8FB
  8
0
 10
40.5
 20
-50.5
 30
-63.08000183105469
 70
   192
  0
VERTEX
  5
8FC
  8
0
 10
40.5
 20
-44.54999923706055
 30
-23.89699935913086
 70
   192
  0
VERTEX
  5
8FD
  8
0
 10
40.5
 20
-55.3489990234375
 30
-59.51300048828125
 70
   192
  0
VERTEX
  5
8FE
  8
0
 10
40.5
 20
-40.04999923706055
 30
-16.10300064086914
 70
   192
  0
VERTEX
  5
8FF
  8
0
 10
40.5
 20
-53.37699890136719
 30
16.18600082397461
 70
   192
  0
VERTEX
  5
900
  8
0
 10
40.5
 20
-55.24300003051758
 30
13.81999969482422
 70
   192
  0
VERTEX
  5
901
  8
0
 10
40.5
 20
-19.26499938964844
 30
4.157000064849854
 70
   192
  0
VERTEX
  5
902
  8
0
 10
40.5
 20
-50.5
 30
17.07999992370605
 70
   192
  0
VERTEX
  5
903
  8
0
 10
40.5
 20
-27.83799934387207
 30
-33.40599822998047
 70
   192
  0
VERTEX
  5
904
  8
0
 10
40.5
 20
-30.89800071716309
 30
-20.0
 70
   192
  0
VERTEX
  5
905
  8
0
 10
40.5
 20
-37.79999923706055
 30
-20.0
 70
   192
  0
VERTEX
  5
906
  8
0
 10
40.5
 20
6.875
 30
10.1230001449585
 70
   192
  0
VERTEX
  5
907
  8
0
 10
40.5
 20
19.26499938964844
 30
4.157000064849854
 70
   192
  0
VERTEX
  5
908
  8
0
 10
40.5
 20
-6.875
 30
10.1230001449585
 70
   192
  0
VERTEX
  5
909
  8
0
 10
40.5
 20
-6.875
 30
-50.12300109863281
 70
   192
  0
VERTEX
  5
90A
  8
0
 10
40.5
 20
-19.26499938964844
 30
-44.15700149536133
 70
   192
  0
VERTEX
  5
90B
  8
0
 10
40.5
 20
-27.83799934387207
 30
-6.593999862670898
 70
   192
  0
VERTEX
  5
90C
  8
0
 10
40.5
 20
65.0479965209961
 30
-11.73099994659424
 70
   192
  0
VERTEX
  5
90D
  8
0
 10
40.5
 20
46.79999923706055
 30
-20.0
 70
   192
  0
VERTEX
  5
90E
  8
0
 10
40.5
 20
-44.54999923706055
 30
-16.10300064086914
 70
   192
  0
VERTEX
  5
90F
  8
0
 10
40.5
 20
66.56800079345703
 30
-19.26199913024902
 70
   192
  0
VERTEX
  5
910
  8
0
 10
40.5
 20
-65.0479965209961
 30
-11.73099994659424
 70
   192
  0
VERTEX
  5
911
  8
0
 10
40.5
 20
-66.56800079345703
 30
-19.26199913024902
 70
   192
  0
VERTEX
  5
912
  8
0
 10
40.5
 20
-46.79999923706055
 30
-20.0
 70
   192
  0
VERTEX
  5
913
  8
0
 10
40.5
 20
-65.53199768066406
 30
-26.87400054931641
 70
   192
  0
VERTEX
  5
914
  8
0
 10
40.5
 20
40.04999923706055
 30
-23.89699935913086
 70
   192
  0
VERTEX
  5
915
  8
0
 10
40.5
 20
53.5099983215332
 30
-62.09199905395508
 70
   192
  0
VERTEX
  5
916
  8
0
 10
40.5
 20
55.3489990234375
 30
-59.51300048828125
 70
   192
  0
VERTEX
  5
917
  8
0
 10
40.5
 20
65.53199768066406
 30
-26.87400054931641
 70
   192
  0
VERTEX
  5
918
  8
0
 10
40.5
 20
50.5
 30
-63.08000183105469
 70
   192
  0
VERTEX
  5
919
  8
0
 10
40.5
 20
44.54999923706055
 30
-23.89699935913086
 70
   192
  0
VERTEX
  5
91A
  8
0
 10
40.5
 20
27.83799934387207
 30
-6.593999862670898
 70
   192
  0
VERTEX
  5
91B
  8
0
 10
40.5
 20
30.89800071716309
 30
-20.0
 70
   192
  0
VERTEX
  5
91C
  8
0
 10
40.5
 20
37.79999923706055
 30
-20.0
 70
   192
  0
VERTEX
  5
91D
  8
0
 10
40.5
 20
27.83799934387207
 30
-33.40599822998047
 70
   192
  0
VERTEX
  5
91E
  8
0
 10
40.5
 20
6.875
 30
-50.12300109863281
 70
   192
  0
VERTEX
  5
91F
  8
0
 10
40.5
 20
19.26499938964844
 30
-44.15700149536133
 70
   192
  0
VERTEX
  5
920
  8
0
 62
     9
 10
0.0
 20
0.0
 30
0.0
 70
   128
 71
     3
 72
     2
 73
     1
  0
VERTEX
  5
921
  8
0
 62
     9
 10
0.0
 20
0.0
 30
0.0
 70
   128
 71
     5
 72
     4
 73
     1
  0
VERTEX
  5
922
  8
0
 62
     9
 10
0.0
 20
0.0
 30
0.0
 70
   128
 71
     8
 72
     7
 73
     6
  0
VERTEX
  5
923
  8
0
 62
     9
 10
0.0
 20
0.0
 30
0.0
 70
   128
 71
    10
 72
     9
 73
     6
  0
VERTEX
  5
924
  8
0
 62
     9
 10
0.0
 20
0.0
 30
0.0
 70
   128
 71
     1
 72
     2
 73
     5
  0
VERTEX
  5
925
  8
0
 62
     9
 10
0.0
 20
0.0
 30
0.0
 70
   128
 71
    13
 72
    12
 73
    11
  0
VERTEX
  5
926
  8
0
 62
     9
 10
0.0
 20
0.0
 30
0.0
 70
   128
 71
    15
 72
    14
 73
    11
  0
VERTEX
  5
927
  8
0
 62
     9
 10
0.0
 20
0.0
 30
0.0
 70
   128
 71
     6
 72
     7
 73
    10
  0
VERTEX
  5
928
  8
0
 62
     9
 10
0.0
 20
0.0
 30
0.0
 70
   128
 71
    18
 72
    17
 73
    16
  0
VERTEX
  5
929
  8
0
 62
     9
 10
0.0
 20
0.0
 30
0.0
 70
   128
 71
    20
 72
    19
 73
     3
  0
VERTEX
  5
92A
  8
0
 62
     9
 10
0.0
 20
0.0
 30
0.0
 70
   128
 71
    21
 72
    15
 73
     3
  0
VERTEX
  5
92B
  8
0
 62
     9
 10
0.0
 20
0.0
 30
0.0
 70
   128
 71
    11
 72
    12
 73
    15
  0
VERTEX
  5
92C
  8
0
 62
     9
 10
0.0
 20
0.0
 30
0.0
 70
   128
 71
    23
 72
    22
 73
     8
  0
VERTEX
  5
92D
  8
0
 62
     9
 10
0.0
 20
0.0
 30
0.0
 70
   128
 71
    16
 72
    23
 73
     6
  0
VERTEX
  5
92E
  8
0
 62
     9
 10
0.0
 20
0.0
 30
0.0
 70
   128
 71
    18
 72
    11
 73
    24
  0
VERTEX
  5
92F
  8
0
 62
     9
 10
0.0
 20
0.0
 30
0.0
 70
   128
 71
    26
 72
     4
 73
    25
  0
VERTEX
  5
930
  8
0
 62
     9
 10
0.0
 20
0.0
 30
0.0
 70
   128
 71
     3
 72
    19
 73
    21
  0
VERTEX
  5
931
  8
0
 62
     9
 10
0.0
 20
0.0
 30
0.0
 70
   128
 71
    11
 72
    27
 73
    13
  0
VERTEX
  5
932
  8
0
 62
     9
 10
0.0
 20
0.0
 30
0.0
 70
   128
 71
    16
 72
     6
 73
    18
  0
VERTEX
  5
933
  8
0
 62
     9
 10
0.0
 20
0.0
 30
0.0
 70
   128
 71
    24
 72
    17
 73
    18
  0
VERTEX
  5
934
  8
0
 62
     9
 10
0.0
 20
0.0
 30
0.0
 70
   128
 71
    25
 72
    28
 73
    26
  0
VERTEX
  5
935
  8
0
 62
     9
 10
0.0
 20
0.0
 30
0.0
 70
   128
 71
    15
 72
    21
 73
    14
  0
VERTEX
  5
936
  8
0
 62
     9
 10
0.0
 20
0.0
 30
0.0
 70
   128
 71
    31
 72
    30
 73
    29
  0
VERTEX
  5
937
  8
0
 62
     9
 10
0.0
 20
0.0
 30
0.0
 70
   128
 71
    31
 72
     9
 73
    32
  0
VERTEX
  5
938
  8
0
 62
     9
 10
0.0
 20
0.0
 30
0.0
 70
   128
 71
    35
 72
    34
 73
    33
  0
VERTEX
  5
939
  8
0
 62
     9
 10
0.0
 20
0.0
 30
0.0
 70
   128
 71
    26
 72
    28
 73
    36
  0
VERTEX
  5
93A
  8
0
 62
     9
 10
0.0
 20
0.0
 30
0.0
 70
   128
 71
    11
 72
    14
 73
    24
  0
VERTEX
  5
93B
  8
0
 62
     9
 10
0.0
 20
0.0
 30
0.0
 70
   128
 71
     1
 72
    20
 73
     3
  0
VERTEX
  5
93C
  8
0
 62
     9
 10
0.0
 20
0.0
 30
0.0
 70
   128
 71
    29
 72
    13
 73
    27
  0
VERTEX
  5
93D
  8
0
 62
     9
 10
0.0
 20
0.0
 30
0.0
 70
   128
 71
    32
 72
    30
 73
    31
  0
VERTEX
  5
93E
  8
0
 62
     9
 10
0.0
 20
0.0
 30
0.0
 70
   128
 71
    34
 72
    37
 73
    33
  0
VERTEX
  5
93F
  8
0
 62
     9
 10
0.0
 20
0.0
 30
0.0
 70
   128
 71
    36
 72
    35
 73
    38
  0
VERTEX
  5
940
  8
0
 62
     9
 10
0.0
 20
0.0
 30
0.0
 70
   128
 71
     4
 72
     5
 73
    25
  0
VERTEX
  5
941
  8
0
 62
     9
 10
0.0
 20
0.0
 30
0.0
 70
   128
 71
     9
 72
    10
 73
    32
  0
VERTEX
  5
942
  8
0
 62
     9
 10
0.0
 20
0.0
 30
0.0
 70
   128
 71
    41
 72
    40
 73
    39
  0
VERTEX
  5
943
  8
0
 62
     9
 10
0.0
 20
0.0
 30
0.0
 70
   128
 71
    41
 72
    33
 73
    42
  0
VERTEX
  5
944
  8
0
 62
     9
 10
0.0
 20
0.0
 30
0.0
 70
   128
 71
    36
 72
    38
 73
    26
  0
VERTEX
  5
945
  8
0
 62
     9
 10
0.0
 20
0.0
 30
0.0
 70
   128
 71
    29
 72
    27
 73
    31
  0
VERTEX
  5
946
  8
0
 62
     9
 10
0.0
 20
0.0
 30
0.0
 70
   128
 71
    39
 72
    20
 73
     1
  0
VERTEX
  5
947
  8
0
 62
     9
 10
0.0
 20
0.0
 30
0.0
 70
   128
 71
    42
 72
    40
 73
    41
  0
VERTEX
  5
948
  8
0
 62
     9
 10
0.0
 20
0.0
 30
0.0
 70
   128
 71
    43
 72
    37
 73
     8
  0
VERTEX
  5
949
  8
0
 62
     9
 10
0.0
 20
0.0
 30
0.0
 70
   128
 71
    44
 72
    33
 73
    37
  0
VERTEX
  5
94A
  8
0
 62
     9
 10
0.0
 20
0.0
 30
0.0
 70
   128
 71
     6
 72
    23
 73
     8
  0
VERTEX
  5
94B
  8
0
 62
     9
 10
0.0
 20
0.0
 30
0.0
 70
   128
 71
    33
 72
    44
 73
    42
  0
VERTEX
  5
94C
  8
0
 62
     9
 10
0.0
 20
0.0
 30
0.0
 70
   128
 71
    37
 72
    43
 73
    44
  0
VERTEX
  5
94D
  8
0
 62
     9
 10
0.0
 20
0.0
 30
0.0
 70
   128
 71
    39
 72
     1
 73
    41
  0
VERTEX
  5
94E
  8
0
 62
     9
 10
0.0
 20
0.0
 30
0.0
 70
   128
 71
    33
 72
    38
 73
    35
  0
VERTEX
  5
94F
  8
0
 62
     9
 10
0.0
 20
0.0
 30
0.0
 70
   128
 71
     8
 72
    22
 73
    43
  0
SEQEND
  5
950
  8
0
 62
     9
  0
ENDBLK
  5
953
  8
0
  0
BLOCK
  8
0
  2
E3_NODE_76_
 70
     0
 10
0.0
 20
0.0
 30
0.0
  3
E3_NODE_76_
  1

  0
POLYLINE
  5
955
  8
0
 62
     9
 66
     1
 10
0.0
 20
0.0
 30
0.0
 70
    64
 71
     4
 72
     2
  0
VERTEX
  5
956
  8
0
 10
64.5
 20
-67.00800323486328
 30
-10.97900009155273
 70
   192
  0
VERTEX
  5
957
  8
0
 10
40.5
 20
-65.0479965209961
 30
-11.73099994659424
 70
   192
  0
VERTEX
  5
958
  8
0
 10
40.5
 20
-55.24300003051758
 30
13.81999969482422
 70
   192
  0
VERTEX
  5
959
  8
0
 10
64.5
 20
-57.20299911499023
 30
14.57199954986572
 70
   192
  0
VERTEX
  5
95A
  8
0
 62
     9
 10
0.0
 20
0.0
 30
0.0
 70
   128
 71
     3
 72
     2
 73
     1
  0
VERTEX
  5
95B
  8
0
 62
     9
 10
0.0
 20
0.0
 30
0.0
 70
   128
 71
     1
 72
     4
 73
     3
  0
SEQEND
  5
95C
  8
0
 62
     9
  0
ENDBLK
  5
95F
  8
0
  0
BLOCK
  8
0
  2
E3_NODE_77_
 70
     0
 10
0.0
 20
0.0
 30
0.0
  3
E3_NODE_77_
  1

  0
POLYLINE
  5
961
  8
0
 62
     9
 66
     1
 10
0.0
 20
0.0
 30
0.0
 70
    64
 71
     6
 72
     4
  0
VERTEX
  5
962
  8
0
 10
64.5
 20
-68.66699981689453
 30
-19.19400024414062
 70
   192
  0
VERTEX
  5
963
  8
0
 10
40.5
 20
-66.56800079345703
 30
-19.26199913024902
 70
   192
  0
VERTEX
  5
964
  8
0
 10
40.5
 20
-65.0479965209961
 30
-11.73099994659424
 70
   192
  0
VERTEX
  5
965
  8
0
 10
64.5
 20
-67.53700256347656
 30
-27.49900054931641
 70
   192
  0
VERTEX
  5
966
  8
0
 10
40.5
 20
-65.53199768066406
 30
-26.87400054931641
 70
   192
  0
VERTEX
  5
967
  8
0
 10
64.5
 20
-67.00800323486328
 30
-10.97900009155273
 70
   192
  0
VERTEX
  5
968
  8
0
 62
     9
 10
0.0
 20
0.0
 30
0.0
 70
   128
 71
     3
 72
     2
 73
     1
  0
VERTEX
  5
969
  8
0
 62
     9
 10
0.0
 20
0.0
 30
0.0
 70
   128
 71
     5
 72
     4
 73
     1
  0
VERTEX
  5
96A
  8
0
 62
     9
 10
0.0
 20
0.0
 30
0.0
 70
   128
 71
     1
 72
     2
 73
     5
  0
VERTEX
  5
96B
  8
0
 62
     9
 10
0.0
 20
0.0
 30
0.0
 70
   128
 71
     1
 72
     6
 73
     3
  0
SEQEND
  5
96C
  8
0
 62
     9
  0
ENDBLK
  5
96F
  8
0
  0
BLOCK
  8
0
  2
E3_NODE_78_
 70
     0
 10
0.0
 20
0.0
 30
0.0
  3
E3_NODE_78_
  1

  0
POLYLINE
  5
971
  8
0
 62
     9
 66
     1
 10
0.0
 20
0.0
 30
0.0
 70
    64
 71
     4
 72
     2
  0
VERTEX
  5
972
  8
0
 10
64.5
 20
-67.53700256347656
 30
-27.49900054931641
 70
   192
  0
VERTEX
  5
973
  8
0
 10
64.5
 20
-57.35400009155273
 30
-60.13800048828125
 70
   192
  0
VERTEX
  5
974
  8
0
 10
40.5
 20
-55.3489990234375
 30
-59.51300048828125
 70
   192
  0
VERTEX
  5
975
  8
0
 10
40.5
 20
-65.53199768066406
 30
-26.87400054931641
 70
   192
  0
VERTEX
  5
976
  8
0
 62
     9
 10
0.0
 20
0.0
 30
0.0
 70
   128
 71
     3
 72
     2
 73
     1
  0
VERTEX
  5
977
  8
0
 62
     9
 10
0.0
 20
0.0
 30
0.0
 70
   128
 71
     1
 72
     4
 73
     3
  0
SEQEND
  5
978
  8
0
 62
     9
  0
ENDBLK
  5
97B
  8
0
  0
BLOCK
  8
0
  2
E3_NODE_79_
 70
     0
 10
0.0
 20
0.0
 30
0.0
  3
E3_NODE_79_
  1

  0
POLYLINE
  5
97D
  8
0
 62
     9
 66
     1
 10
0.0
 20
0.0
 30
0.0
 70
    64
 71
     6
 72
     4
  0
VERTEX
  5
97E
  8
0
 10
64.5
 20
-57.35400009155273
 30
-60.13800048828125
 70
   192
  0
VERTEX
  5
97F
  8
0
 10
64.5
 20
-54.75400161743164
 30
-63.78400039672852
 70
   192
  0
VERTEX
  5
980
  8
0
 10
40.5
 20
-53.5099983215332
 30
-62.09199905395508
 70
   192
  0
VERTEX
  5
981
  8
0
 10
64.5
 20
-50.5
 30
-65.18000030517578
 70
   192
  0
VERTEX
  5
982
  8
0
 10
40.5
 20
-50.5
 30
-63.08000183105469
 70
   192
  0
VERTEX
  5
983
  8
0
 10
40.5
 20
-55.3489990234375
 30
-59.51300048828125
 70
   192
  0
VERTEX
  5
984
  8
0
 62
     9
 10
0.0
 20
0.0
 30
0.0
 70
   128
 71
     3
 72
     2
 73
     1
  0
VERTEX
  5
985
  8
0
 62
     9
 10
0.0
 20
0.0
 30
0.0
 70
   128
 71
     5
 72
     4
 73
     2
  0
VERTEX
  5
986
  8
0
 62
     9
 10
0.0
 20
0.0
 30
0.0
 70
   128
 71
     2
 72
     3
 73
     5
  0
VERTEX
  5
987
  8
0
 62
     9
 10
0.0
 20
0.0
 30
0.0
 70
   128
 71
     1
 72
     6
 73
     3
  0
SEQEND
  5
988
  8
0
 62
     9
  0
ENDBLK
  5
98B
  8
0
  0
BLOCK
  8
0
  2
E3_NODE_80_
 70
     0
 10
0.0
 20
0.0
 30
0.0
  3
E3_NODE_80_
  1

  0
POLYLINE
  5
98D
  8
0
 62
     9
 66
     1
 10
0.0
 20
0.0
 30
0.0
 70
    64
 71
     4
 72
     2
  0
VERTEX
  5
98E
  8
0
 10
64.5
 20
50.5
 30
-65.18000030517578
 70
   192
  0
VERTEX
  5
98F
  8
0
 10
40.5
 20
50.5
 30
-63.08000183105469
 70
   192
  0
VERTEX
  5
990
  8
0
 10
40.5
 20
-50.5
 30
-63.08000183105469
 70
   192
  0
VERTEX
  5
991
  8
0
 10
64.5
 20
-50.5
 30
-65.18000030517578
 70
   192
  0
VERTEX
  5
992
  8
0
 62
     9
 10
0.0
 20
0.0
 30
0.0
 70
   128
 71
     3
 72
     2
 73
     1
  0
VERTEX
  5
993
  8
0
 62
     9
 10
0.0
 20
0.0
 30
0.0
 70
   128
 71
     1
 72
     4
 73
     3
  0
SEQEND
  5
994
  8
0
 62
     9
  0
ENDBLK
  5
997
  8
0
  0
BLOCK
  8
0
  2
E3_NODE_81_
 70
     0
 10
0.0
 20
0.0
 30
0.0
  3
E3_NODE_81_
  1

  0
POLYLINE
  5
999
  8
0
 62
     9
 66
     1
 10
0.0
 20
0.0
 30
0.0
 70
    64
 71
     6
 72
     4
  0
VERTEX
  5
99A
  8
0
 10
64.5
 20
54.75400161743164
 30
-63.78400039672852
 70
   192
  0
VERTEX
  5
99B
  8
0
 10
40.5
 20
53.5099983215332
 30
-62.09199905395508
 70
   192
  0
VERTEX
  5
99C
  8
0
 10
40.5
 20
50.5
 30
-63.08000183105469
 70
   192
  0
VERTEX
  5
99D
  8
0
 10
64.5
 20
57.35400009155273
 30
-60.13800048828125
 70
   192
  0
VERTEX
  5
99E
  8
0
 10
40.5
 20
55.3489990234375
 30
-59.51300048828125
 70
   192
  0
VERTEX
  5
99F
  8
0
 10
64.5
 20
50.5
 30
-65.18000030517578
 70
   192
  0
VERTEX
  5
9A0
  8
0
 62
     9
 10
0.0
 20
0.0
 30
0.0
 70
   128
 71
     3
 72
     2
 73
     1
  0
VERTEX
  5
9A1
  8
0
 62
     9
 10
0.0
 20
0.0
 30
0.0
 70
   128
 71
     2
 72
     5
 73
     4
  0
VERTEX
  5
9A2
  8
0
 62
     9
 10
0.0
 20
0.0
 30
0.0
 70
   128
 71
     4
 72
     1
 73
     2
  0
VERTEX
  5
9A3
  8
0
 62
     9
 10
0.0
 20
0.0
 30
0.0
 70
   128
 71
     1
 72
     6
 73
     3
  0
SEQEND
  5
9A4
  8
0
 62
     9
  0
ENDBLK
  5
9A7
  8
0
  0
BLOCK
  8
0
  2
E3_NODE_82_
 70
     0
 10
0.0
 20
0.0
 30
0.0
  3
E3_NODE_82_
  1

  0
POLYLINE
  5
9A9
  8
0
 62
     9
 66
     1
 10
0.0
 20
0.0
 30
0.0
 70
    64
 71
     4
 72
     2
  0
VERTEX
  5
9AA
  8
0
 10
64.5
 20
57.35400009155273
 30
-60.13800048828125
 70
   192
  0
VERTEX
  5
9AB
  8
0
 10
64.5
 20
67.53700256347656
 30
-27.49900054931641
 70
   192
  0
VERTEX
  5
9AC
  8
0
 10
40.5
 20
65.53199768066406
 30
-26.87400054931641
 70
   192
  0
VERTEX
  5
9AD
  8
0
 10
40.5
 20
55.3489990234375
 30
-59.51300048828125
 70
   192
  0
VERTEX
  5
9AE
  8
0
 62
     9
 10
0.0
 20
0.0
 30
0.0
 70
   128
 71
     3
 72
     2
 73
     1
  0
VERTEX
  5
9AF
  8
0
 62
     9
 10
0.0
 20
0.0
 30
0.0
 70
   128
 71
     1
 72
     4
 73
     3
  0
SEQEND
  5
9B0
  8
0
 62
     9
  0
ENDBLK
  5
9B3
  8
0
  0
BLOCK
  8
0
  2
E3_NODE_83_
 70
     0
 10
0.0
 20
0.0
 30
0.0
  3
E3_NODE_83_
  1

  0
POLYLINE
  5
9B5
  8
0
 62
     9
 66
     1
 10
0.0
 20
0.0
 30
0.0
 70
    64
 71
     6
 72
     4
  0
VERTEX
  5
9B6
  8
0
 10
64.5
 20
67.53700256347656
 30
-27.49900054931641
 70
   192
  0
VERTEX
  5
9B7
  8
0
 10
64.5
 20
68.66699981689453
 30
-19.19400024414062
 70
   192
  0
VERTEX
  5
9B8
  8
0
 10
40.5
 20
66.56800079345703
 30
-19.26199913024902
 70
   192
  0
VERTEX
  5
9B9
  8
0
 10
64.5
 20
67.00800323486328
 30
-10.97900009155273
 70
   192
  0
VERTEX
  5
9BA
  8
0
 10
40.5
 20
65.0479965209961
 30
-11.73099994659424
 70
   192
  0
VERTEX
  5
9BB
  8
0
 10
40.5
 20
65.53199768066406
 30
-26.87400054931641
 70
   192
  0
VERTEX
  5
9BC
  8
0
 62
     9
 10
0.0
 20
0.0
 30
0.0
 70
   128
 71
     3
 72
     2
 73
     1
  0
VERTEX
  5
9BD
  8
0
 62
     9
 10
0.0
 20
0.0
 30
0.0
 70
   128
 71
     3
 72
     5
 73
     4
  0
VERTEX
  5
9BE
  8
0
 62
     9
 10
0.0
 20
0.0
 30
0.0
 70
   128
 71
     4
 72
     2
 73
     3
  0
VERTEX
  5
9BF
  8
0
 62
     9
 10
0.0
 20
0.0
 30
0.0
 70
   128
 71
     1
 72
     6
 73
     3
  0
SEQEND
  5
9C0
  8
0
 62
     9
  0
ENDBLK
  5
9C3
  8
0
  0
BLOCK
  8
0
  2
E3_NODE_84_
 70
     0
 10
0.0
 20
0.0
 30
0.0
  3
E3_NODE_84_
  1

  0
POLYLINE
  5
9C5
  8
0
 62
     9
 66
     1
 10
0.0
 20
0.0
 30
0.0
 70
    64
 71
     4
 72
     2
  0
VERTEX
  5
9C6
  8
0
 10
64.5
 20
67.00800323486328
 30
-10.97900009155273
 70
   192
  0
VERTEX
  5
9C7
  8
0
 10
64.5
 20
57.20299911499023
 30
14.57199954986572
 70
   192
  0
VERTEX
  5
9C8
  8
0
 10
40.5
 20
55.24300003051758
 30
13.81999969482422
 70
   192
  0
VERTEX
  5
9C9
  8
0
 10
40.5
 20
65.0479965209961
 30
-11.73099994659424
 70
   192
  0
VERTEX
  5
9CA
  8
0
 62
     9
 10
0.0
 20
0.0
 30
0.0
 70
   128
 71
     3
 72
     2
 73
     1
  0
VERTEX
  5
9CB
  8
0
 62
     9
 10
0.0
 20
0.0
 30
0.0
 70
   128
 71
     1
 72
     4
 73
     3
  0
SEQEND
  5
9CC
  8
0
 62
     9
  0
ENDBLK
  5
9CF
  8
0
  0
BLOCK
  8
0
  2
E3_NODE_85_
 70
     0
 10
0.0
 20
0.0
 30
0.0
  3
E3_NODE_85_
  1

  0
POLYLINE
  5
9D1
  8
0
 62
     9
 66
     1
 10
0.0
 20
0.0
 30
0.0
 70
    64
 71
     6
 72
     4
  0
VERTEX
  5
9D2
  8
0
 10
64.5
 20
54.56700134277344
 30
17.91699981689453
 70
   192
  0
VERTEX
  5
9D3
  8
0
 10
40.5
 20
53.37699890136719
 30
16.18600082397461
 70
   192
  0
VERTEX
  5
9D4
  8
0
 10
40.5
 20
55.24300003051758
 30
13.81999969482422
 70
   192
  0
VERTEX
  5
9D5
  8
0
 10
64.5
 20
50.5
 30
19.18000030517578
 70
   192
  0
VERTEX
  5
9D6
  8
0
 10
40.5
 20
50.5
 30
17.07999992370605
 70
   192
  0
VERTEX
  5
9D7
  8
0
 10
64.5
 20
57.20299911499023
 30
14.57199954986572
 70
   192
  0
VERTEX
  5
9D8
  8
0
 62
     9
 10
0.0
 20
0.0
 30
0.0
 70
   128
 71
     3
 72
     2
 73
     1
  0
VERTEX
  5
9D9
  8
0
 62
     9
 10
0.0
 20
0.0
 30
0.0
 70
   128
 71
     2
 72
     5
 73
     4
  0
VERTEX
  5
9DA
  8
0
 62
     9
 10
0.0
 20
0.0
 30
0.0
 70
   128
 71
     4
 72
     1
 73
     2
  0
VERTEX
  5
9DB
  8
0
 62
     9
 10
0.0
 20
0.0
 30
0.0
 70
   128
 71
     1
 72
     6
 73
     3
  0
SEQEND
  5
9DC
  8
0
 62
     9
  0
ENDBLK
  5
9DF
  8
0
  0
BLOCK
  8
0
  2
E3_NODE_86_
 70
     0
 10
0.0
 20
0.0
 30
0.0
  3
E3_NODE_86_
  1

  0
POLYLINE
  5
9E1
  8
0
 62
     9
 66
     1
 10
0.0
 20
0.0
 30
0.0
 70
    64
 71
     4
 72
     2
  0
VERTEX
  5
9E2
  8
0
 10
40.5
 20
50.5
 30
17.07999992370605
 70
   192
  0
VERTEX
  5
9E3
  8
0
 10
64.5
 20
50.5
 30
19.18000030517578
 70
   192
  0
VERTEX
  5
9E4
  8
0
 10
64.5
 20
-50.5
 30
19.18000030517578
 70
   192
  0
VERTEX
  5
9E5
  8
0
 10
40.5
 20
-50.5
 30
17.07999992370605
 70
   192
  0
VERTEX
  5
9E6
  8
0
 62
     9
 10
0.0
 20
0.0
 30
0.0
 70
   128
 71
     3
 72
     2
 73
     1
  0
VERTEX
  5
9E7
  8
0
 62
     9
 10
0.0
 20
0.0
 30
0.0
 70
   128
 71
     1
 72
     4
 73
     3
  0
SEQEND
  5
9E8
  8
0
 62
     9
  0
ENDBLK
  5
9EB
  8
0
  0
BLOCK
  8
0
  2
E3_NODE_87_
 70
     0
 10
0.0
 20
0.0
 30
0.0
  3
E3_NODE_87_
  1

  0
POLYLINE
  5
9ED
  8
0
 62
     9
 66
     1
 10
0.0
 20
0.0
 30
0.0
 70
    64
 71
     6
 72
     4
  0
VERTEX
  5
9EE
  8
0
 10
64.5
 20
-54.56700134277344
 30
17.91699981689453
 70
   192
  0
VERTEX
  5
9EF
  8
0
 10
40.5
 20
-53.37699890136719
 30
16.18600082397461
 70
   192
  0
VERTEX
  5
9F0
  8
0
 10
40.5
 20
-50.5
 30
17.07999992370605
 70
   192
  0
VERTEX
  5
9F1
  8
0
 10
64.5
 20
-57.20299911499023
 30
14.57199954986572
 70
   192
  0
VERTEX
  5
9F2
  8
0
 10
40.5
 20
-55.24300003051758
 30
13.81999969482422
 70
   192
  0
VERTEX
  5
9F3
  8
0
 10
64.5
 20
-50.5
 30
19.18000030517578
 70
   192
  0
VERTEX
  5
9F4
  8
0
 62
     9
 10
0.0
 20
0.0
 30
0.0
 70
   128
 71
     3
 72
     2
 73
     1
  0
VERTEX
  5
9F5
  8
0
 62
     9
 10
0.0
 20
0.0
 30
0.0
 70
   128
 71
     5
 72
     4
 73
     1
  0
VERTEX
  5
9F6
  8
0
 62
     9
 10
0.0
 20
0.0
 30
0.0
 70
   128
 71
     1
 72
     2
 73
     5
  0
VERTEX
  5
9F7
  8
0
 62
     9
 10
0.0
 20
0.0
 30
0.0
 70
   128
 71
     1
 72
     6
 73
     3
  0
SEQEND
  5
9F8
  8
0
 62
     9
  0
ENDBLK
  5
9FB
  8
0
  0
BLOCK
  8
0
  2
E3_NODE_88_
 70
     0
 10
0.0
 20
0.0
 30
0.0
  3
E3_NODE_88_
  1

  0
POLYLINE
  5
9FD
  8
0
 62
     9
 66
     1
 10
0.0
 20
0.0
 30
0.0
 70
    64
 71
    12
 72
    12
  0
VERTEX
  5
9FE
  8
0
 10
41.5
 20
40.04999923706055
 30
-16.10300064086914
 70
   192
  0
VERTEX
  5
9FF
  8
0
 10
40.5
 20
40.04999923706055
 30
-16.10300064086914
 70
   192
  0
VERTEX
  5
A00
  8
0
 10
40.5
 20
37.79999923706055
 30
-20.0
 70
   192
  0
VERTEX
  5
A01
  8
0
 10
41.5
 20
44.54999923706055
 30
-16.10300064086914
 70
   192
  0
VERTEX
  5
A02
  8
0
 10
40.5
 20
44.54999923706055
 30
-16.10300064086914
 70
   192
  0
VERTEX
  5
A03
  8
0
 10
41.5
 20
46.79999923706055
 30
-20.0
 70
   192
  0
VERTEX
  5
A04
  8
0
 10
40.5
 20
46.79999923706055
 30
-20.0
 70
   192
  0
VERTEX
  5
A05
  8
0
 10
41.5
 20
44.54999923706055
 30
-23.89699935913086
 70
   192
  0
VERTEX
  5
A06
  8
0
 10
40.5
 20
44.54999923706055
 30
-23.89699935913086
 70
   192
  0
VERTEX
  5
A07
  8
0
 10
41.5
 20
40.04999923706055
 30
-23.89699935913086
 70
   192
  0
VERTEX
  5
A08
  8
0
 10
40.5
 20
40.04999923706055
 30
-23.89699935913086
 70
   192
  0
VERTEX
  5
A09
  8
0
 10
41.5
 20
37.79999923706055
 30
-20.0
 70
   192
  0
VERTEX
  5
A0A
  8
0
 62
     9
 10
0.0
 20
0.0
 30
0.0
 70
   128
 71
     3
 72
     2
 73
     1
  0
VERTEX
  5
A0B
  8
0
 62
     9
 10
0.0
 20
0.0
 30
0.0
 70
   128
 71
     2
 72
     5
 73
     4
  0
VERTEX
  5
A0C
  8
0
 62
     9
 10
0.0
 20
0.0
 30
0.0
 70
   128
 71
     5
 72
     7
 73
     6
  0
VERTEX
  5
A0D
  8
0
 62
     9
 10
0.0
 20
0.0
 30
0.0
 70
   128
 71
     7
 72
     9
 73
     8
  0
VERTEX
  5
A0E
  8
0
 62
     9
 10
0.0
 20
0.0
 30
0.0
 70
   128
 71
     9
 72
    11
 73
    10
  0
VERTEX
  5
A0F
  8
0
 62
     9
 10
0.0
 20
0.0
 30
0.0
 70
   128
 71
    11
 72
     3
 73
    12
  0
VERTEX
  5
A10
  8
0
 62
     9
 10
0.0
 20
0.0
 30
0.0
 70
   128
 71
    12
 72
    10
 73
    11
  0
VERTEX
  5
A11
  8
0
 62
     9
 10
0.0
 20
0.0
 30
0.0
 70
   128
 71
    10
 72
     8
 73
     9
  0
VERTEX
  5
A12
  8
0
 62
     9
 10
0.0
 20
0.0
 30
0.0
 70
   128
 71
     8
 72
     6
 73
     7
  0
VERTEX
  5
A13
  8
0
 62
     9
 10
0.0
 20
0.0
 30
0.0
 70
   128
 71
     6
 72
     4
 73
     5
  0
VERTEX
  5
A14
  8
0
 62
     9
 10
0.0
 20
0.0
 30
0.0
 70
   128
 71
     4
 72
     1
 73
     2
  0
VERTEX
  5
A15
  8
0
 62
     9
 10
0.0
 20
0.0
 30
0.0
 70
   128
 71
     1
 72
    12
 73
     3
  0
SEQEND
  5
A16
  8
0
 62
     9
  0
ENDBLK
  5
A19
  8
0
  0
BLOCK
  8
0
  2
E3_NODE_89_
 70
     0
 10
0.0
 20
0.0
 30
0.0
  3
E3_NODE_89_
  1

  0
POLYLINE
  5
A1B
  8
0
 62
     9
 66
     1
 10
0.0
 20
0.0
 30
0.0
 70
    64
 71
     6
 72
     4
  0
VERTEX
  5
A1C
  8
0
 10
41.5
 20
46.79999923706055
 30
-20.0
 70
   192
  0
VERTEX
  5
A1D
  8
0
 10
41.5
 20
44.54999923706055
 30
-16.10300064086914
 70
   192
  0
VERTEX
  5
A1E
  8
0
 10
41.5
 20
40.04999923706055
 30
-16.10300064086914
 70
   192
  0
VERTEX
  5
A1F
  8
0
 10
41.5
 20
37.79999923706055
 30
-20.0
 70
   192
  0
VERTEX
  5
A20
  8
0
 10
41.5
 20
40.04999923706055
 30
-23.89699935913086
 70
   192
  0
VERTEX
  5
A21
  8
0
 10
41.5
 20
44.54999923706055
 30
-23.89699935913086
 70
   192
  0
VERTEX
  5
A22
  8
0
 62
     9
 10
0.0
 20
0.0
 30
0.0
 70
   128
 71
     3
 72
     2
 73
     1
  0
VERTEX
  5
A23
  8
0
 62
     9
 10
0.0
 20
0.0
 30
0.0
 70
   128
 71
     6
 72
     5
 73
     4
  0
VERTEX
  5
A24
  8
0
 62
     9
 10
0.0
 20
0.0
 30
0.0
 70
   128
 71
     4
 72
     1
 73
     6
  0
VERTEX
  5
A25
  8
0
 62
     9
 10
0.0
 20
0.0
 30
0.0
 70
   128
 71
     1
 72
     4
 73
     3
  0
SEQEND
  5
A26
  8
0
 62
     9
  0
ENDBLK
  5
A29
  8
0
  0
BLOCK
  8
0
  2
E3_NODE_90_
 70
     0
 10
0.0
 20
0.0
 30
0.0
  3
E3_NODE_90_
  1

  0
POLYLINE
  5
A2B
  8
0
 62
     9
 66
     1
 10
0.0
 20
0.0
 30
0.0
 70
    64
 71
    28
 72
    28
  0
VERTEX
  5
A2C
  8
0
 10
40.5
 20
-30.89800071716309
 30
-20.0
 70
   192
  0
VERTEX
  5
A2D
  8
0
 10
136.5
 20
-25.86700057983398
 30
-20.0
 70
   192
  0
VERTEX
  5
A2E
  8
0
 10
136.5
 20
-23.30500030517578
 30
-8.777000427246094
 70
   192
  0
VERTEX
  5
A2F
  8
0
 10
40.5
 20
-27.83799934387207
 30
-6.593999862670898
 70
   192
  0
VERTEX
  5
A30
  8
0
 10
136.5
 20
-16.12800025939941
 30
0.2230000048875809
 70
   192
  0
VERTEX
  5
A31
  8
0
 10
40.5
 20
-19.26499938964844
 30
4.157000064849854
 70
   192
  0
VERTEX
  5
A32
  8
0
 10
136.5
 20
-5.75600004196167
 30
5.217999935150146
 70
   192
  0
VERTEX
  5
A33
  8
0
 10
40.5
 20
6.875
 30
10.1230001449585
 70
   192
  0
VERTEX
  5
A34
  8
0
 10
40.5
 20
-6.875
 30
10.1230001449585
 70
   192
  0
VERTEX
  5
A35
  8
0
 10
136.5
 20
5.75600004196167
 30
5.217999935150146
 70
   192
  0
VERTEX
  5
A36
  8
0
 10
136.5
 20
16.12800025939941
 30
0.2230000048875809
 70
   192
  0
VERTEX
  5
A37
  8
0
 10
40.5
 20
27.83799934387207
 30
-6.593999862670898
 70
   192
  0
VERTEX
  5
A38
  8
0
 10
40.5
 20
19.26499938964844
 30
4.157000064849854
 70
   192
  0
VERTEX
  5
A39
  8
0
 10
40.5
 20
30.89800071716309
 30
-20.0
 70
   192
  0
VERTEX
  5
A3A
  8
0
 10
136.5
 20
23.30500030517578
 30
-8.777000427246094
 70
   192
  0
VERTEX
  5
A3B
  8
0
 10
40.5
 20
27.83799934387207
 30
-33.40599822998047
 70
   192
  0
VERTEX
  5
A3C
  8
0
 10
136.5
 20
25.86700057983398
 30
-20.0
 70
   192
  0
VERTEX
  5
A3D
  8
0
 10
40.5
 20
19.26499938964844
 30
-44.15700149536133
 70
   192
  0
VERTEX
  5
A3E
  8
0
 10
136.5
 20
23.30500030517578
 30
-31.22299957275391
 70
   192
  0
VERTEX
  5
A3F
  8
0
 10
40.5
 20
6.875
 30
-50.12300109863281
 70
   192
  0
VERTEX
  5
A40
  8
0
 10
136.5
 20
16.12800025939941
 30
-40.22299957275391
 70
   192
  0
VERTEX
  5
A41
  8
0
 10
136.5
 20
5.75600004196167
 30
-45.21799850463867
 70
   192
  0
VERTEX
  5
A42
  8
0
 10
136.5
 20
-5.75600004196167
 30
-45.21799850463867
 70
   192
  0
VERTEX
  5
A43
  8
0
 10
40.5
 20
-19.26499938964844
 30
-44.15700149536133
 70
   192
  0
VERTEX
  5
A44
  8
0
 10
40.5
 20
-6.875
 30
-50.12300109863281
 70
   192
  0
VERTEX
  5
A45
  8
0
 10
136.5
 20
-16.12800025939941
 30
-40.22299957275391
 70
   192
  0
VERTEX
  5
A46
  8
0
 10
136.5
 20
-23.30500030517578
 30
-31.22299957275391
 70
   192
  0
VERTEX
  5
A47
  8
0
 10
40.5
 20
-27.83799934387207
 30
-33.40599822998047
 70
   192
  0
VERTEX
  5
A48
  8
0
 62
     9
 10
0.0
 20
0.0
 30
0.0
 70
   128
 71
     3
 72
     2
 73
     1
  0
VERTEX
  5
A49
  8
0
 62
     9
 10
0.0
 20
0.0
 30
0.0
 70
   128
 71
     5
 72
     3
 73
     4
  0
VERTEX
  5
A4A
  8
0
 62
     9
 10
0.0
 20
0.0
 30
0.0
 70
   128
 71
     7
 72
     5
 73
     6
  0
VERTEX
  5
A4B
  8
0
 62
     9
 10
0.0
 20
0.0
 30
0.0
 70
   128
 71
     7
 72
     9
 73
     8
  0
VERTEX
  5
A4C
  8
0
 62
     9
 10
0.0
 20
0.0
 30
0.0
 70
   128
 71
    11
 72
    10
 73
     8
  0
VERTEX
  5
A4D
  8
0
 62
     9
 10
0.0
 20
0.0
 30
0.0
 70
   128
 71
    11
 72
    13
 73
    12
  0
VERTEX
  5
A4E
  8
0
 62
     9
 10
0.0
 20
0.0
 30
0.0
 70
   128
 71
    15
 72
    12
 73
    14
  0
VERTEX
  5
A4F
  8
0
 62
     9
 10
0.0
 20
0.0
 30
0.0
 70
   128
 71
    17
 72
    14
 73
    16
  0
VERTEX
  5
A50
  8
0
 62
     9
 10
0.0
 20
0.0
 30
0.0
 70
   128
 71
    19
 72
    16
 73
    18
  0
VERTEX
  5
A51
  8
0
 62
     9
 10
0.0
 20
0.0
 30
0.0
 70
   128
 71
    21
 72
    18
 73
    20
  0
VERTEX
  5
A52
  8
0
 62
     9
 10
0.0
 20
0.0
 30
0.0
 70
   128
 71
    23
 72
    22
 73
    20
  0
VERTEX
  5
A53
  8
0
 62
     9
 10
0.0
 20
0.0
 30
0.0
 70
   128
 71
    23
 72
    25
 73
    24
  0
VERTEX
  5
A54
  8
0
 62
     9
 10
0.0
 20
0.0
 30
0.0
 70
   128
 71
    27
 72
    26
 73
    24
  0
VERTEX
  5
A55
  8
0
 62
     9
 10
0.0
 20
0.0
 30
0.0
 70
   128
 71
     2
 72
    27
 73
    28
  0
VERTEX
  5
A56
  8
0
 62
     9
 10
0.0
 20
0.0
 30
0.0
 70
   128
 71
    28
 72
     1
 73
     2
  0
VERTEX
  5
A57
  8
0
 62
     9
 10
0.0
 20
0.0
 30
0.0
 70
   128
 71
    24
 72
    28
 73
    27
  0
VERTEX
  5
A58
  8
0
 62
     9
 10
0.0
 20
0.0
 30
0.0
 70
   128
 71
    24
 72
    26
 73
    23
  0
VERTEX
  5
A59
  8
0
 62
     9
 10
0.0
 20
0.0
 30
0.0
 70
   128
 71
    20
 72
    25
 73
    23
  0
VERTEX
  5
A5A
  8
0
 62
     9
 10
0.0
 20
0.0
 30
0.0
 70
   128
 71
    20
 72
    22
 73
    21
  0
VERTEX
  5
A5B
  8
0
 62
     9
 10
0.0
 20
0.0
 30
0.0
 70
   128
 71
    18
 72
    21
 73
    19
  0
VERTEX
  5
A5C
  8
0
 62
     9
 10
0.0
 20
0.0
 30
0.0
 70
   128
 71
    16
 72
    19
 73
    17
  0
VERTEX
  5
A5D
  8
0
 62
     9
 10
0.0
 20
0.0
 30
0.0
 70
   128
 71
    14
 72
    17
 73
    15
  0
VERTEX
  5
A5E
  8
0
 62
     9
 10
0.0
 20
0.0
 30
0.0
 70
   128
 71
    12
 72
    15
 73
    11
  0
VERTEX
  5
A5F
  8
0
 62
     9
 10
0.0
 20
0.0
 30
0.0
 70
   128
 71
     8
 72
    13
 73
    11
  0
VERTEX
  5
A60
  8
0
 62
     9
 10
0.0
 20
0.0
 30
0.0
 70
   128
 71
     8
 72
    10
 73
     7
  0
VERTEX
  5
A61
  8
0
 62
     9
 10
0.0
 20
0.0
 30
0.0
 70
   128
 71
     6
 72
     9
 73
     7
  0
VERTEX
  5
A62
  8
0
 62
     9
 10
0.0
 20
0.0
 30
0.0
 70
   128
 71
     4
 72
     6
 73
     5
  0
VERTEX
  5
A63
  8
0
 62
     9
 10
0.0
 20
0.0
 30
0.0
 70
   128
 71
     1
 72
     4
 73
     3
  0
SEQEND
  5
A64
  8
0
 62
     9
  0
ENDBLK
  5
A67
  8
0
  0
BLOCK
  8
0
  2
E3_NODE_91_
 70
     0
 10
0.0
 20
0.0
 30
0.0
  3
E3_NODE_91_
  1

  0
POLYLINE
  5
A69
  8
0
 62
     9
 66
     1
 10
0.0
 20
0.0
 30
0.0
 70
    64
 71
    22
 72
    24
  0
VERTEX
  5
A6A
  8
0
 10
136.5
 20
23.30500030517578
 30
-31.22299957275391
 70
   192
  0
VERTEX
  5
A6B
  8
0
 10
136.5
 20
19.5
 30
-25.0
 70
   192
  0
VERTEX
  5
A6C
  8
0
 10
136.5
 20
17.0
 30
-27.5
 70
   192
  0
VERTEX
  5
A6D
  8
0
 10
136.5
 20
17.0
 30
-22.5
 70
   192
  0
VERTEX
  5
A6E
  8
0
 10
136.5
 20
25.86700057983398
 30
-20.0
 70
   192
  0
VERTEX
  5
A6F
  8
0
 10
136.5
 20
-5.75600004196167
 30
5.217999935150146
 70
   192
  0
VERTEX
  5
A70
  8
0
 10
136.5
 20
-16.12800025939941
 30
0.2230000048875809
 70
   192
  0
VERTEX
  5
A71
  8
0
 10
136.5
 20
-17.0
 30
-22.5
 70
   192
  0
VERTEX
  5
A72
  8
0
 10
136.5
 20
5.75600004196167
 30
5.217999935150146
 70
   192
  0
VERTEX
  5
A73
  8
0
 10
136.5
 20
14.5
 30
-25.0
 70
   192
  0
VERTEX
  5
A74
  8
0
 10
136.5
 20
23.30500030517578
 30
-8.777000427246094
 70
   192
  0
VERTEX
  5
A75
  8
0
 10
136.5
 20
-14.5
 30
-25.0
 70
   192
  0
VERTEX
  5
A76
  8
0
 10
136.5
 20
-23.30500030517578
 30
-8.777000427246094
 70
   192
  0
VERTEX
  5
A77
  8
0
 10
136.5
 20
-25.86700057983398
 30
-20.0
 70
   192
  0
VERTEX
  5
A78
  8
0
 10
136.5
 20
-23.30500030517578
 30
-31.22299957275391
 70
   192
  0
VERTEX
  5
A79
  8
0
 10
136.5
 20
-16.12800025939941
 30
-40.22299957275391
 70
   192
  0
VERTEX
  5
A7A
  8
0
 10
136.5
 20
-17.0
 30
-27.5
 70
   192
  0
VERTEX
  5
A7B
  8
0
 10
136.5
 20
5.75600004196167
 30
-45.21799850463867
 70
   192
  0
VERTEX
  5
A7C
  8
0
 10
136.5
 20
16.12800025939941
 30
-40.22299957275391
 70
   192
  0
VERTEX
  5
A7D
  8
0
 10
136.5
 20
-5.75600004196167
 30
-45.21799850463867
 70
   192
  0
VERTEX
  5
A7E
  8
0
 10
136.5
 20
16.12800025939941
 30
0.2230000048875809
 70
   192
  0
VERTEX
  5
A7F
  8
0
 10
136.5
 20
-19.5
 30
-25.0
 70
   192
  0
VERTEX
  5
A80
  8
0
 62
     9
 10
0.0
 20
0.0
 30
0.0
 70
   128
 71
     3
 72
     2
 73
     1
  0
VERTEX
  5
A81
  8
0
 62
     9
 10
0.0
 20
0.0
 30
0.0
 70
   128
 71
     5
 72
     2
 73
     4
  0
VERTEX
  5
A82
  8
0
 62
     9
 10
0.0
 20
0.0
 30
0.0
 70
   128
 71
     8
 72
     7
 73
     6
  0
VERTEX
  5
A83
  8
0
 62
     9
 10
0.0
 20
0.0
 30
0.0
 70
   128
 71
     4
 72
    10
 73
     9
  0
VERTEX
  5
A84
  8
0
 62
     9
 10
0.0
 20
0.0
 30
0.0
 70
   128
 71
     2
 72
     5
 73
     1
  0
VERTEX
  5
A85
  8
0
 62
     9
 10
0.0
 20
0.0
 30
0.0
 70
   128
 71
     4
 72
    11
 73
     5
  0
VERTEX
  5
A86
  8
0
 62
     9
 10
0.0
 20
0.0
 30
0.0
 70
   128
 71
     6
 72
     9
 73
    12
  0
VERTEX
  5
A87
  8
0
 62
     9
 10
0.0
 20
0.0
 30
0.0
 70
   128
 71
    10
 72
    12
 73
     9
  0
VERTEX
  5
A88
  8
0
 62
     9
 10
0.0
 20
0.0
 30
0.0
 70
   128
 71
    14
 72
    13
 73
     8
  0
VERTEX
  5
A89
  8
0
 62
     9
 10
0.0
 20
0.0
 30
0.0
 70
   128
 71
    17
 72
    16
 73
    15
  0
VERTEX
  5
A8A
  8
0
 62
     9
 10
0.0
 20
0.0
 30
0.0
 70
   128
 71
     3
 72
    19
 73
    18
  0
VERTEX
  5
A8B
  8
0
 62
     9
 10
0.0
 20
0.0
 30
0.0
 70
   128
 71
    17
 72
    12
 73
    20
  0
VERTEX
  5
A8C
  8
0
 62
     9
 10
0.0
 20
0.0
 30
0.0
 70
   128
 71
     4
 72
    21
 73
    11
  0
VERTEX
  5
A8D
  8
0
 62
     9
 10
0.0
 20
0.0
 30
0.0
 70
   128
 71
     9
 72
    21
 73
     4
  0
VERTEX
  5
A8E
  8
0
 62
     9
 10
0.0
 20
0.0
 30
0.0
 70
   128
 71
    13
 72
     7
 73
     8
  0
VERTEX
  5
A8F
  8
0
 62
     9
 10
0.0
 20
0.0
 30
0.0
 70
   128
 71
    15
 72
    22
 73
    17
  0
VERTEX
  5
A90
  8
0
 62
     9
 10
0.0
 20
0.0
 30
0.0
 70
   128
 71
    18
 72
    20
 73
    10
  0
VERTEX
  5
A91
  8
0
 62
     9
 10
0.0
 20
0.0
 30
0.0
 70
   128
 71
    12
 72
    10
 73
    20
  0
VERTEX
  5
A92
  8
0
 62
     9
 10
0.0
 20
0.0
 30
0.0
 70
   128
 71
     6
 72
    12
 73
     8
  0
VERTEX
  5
A93
  8
0
 62
     9
 10
0.0
 20
0.0
 30
0.0
 70
   128
 71
    15
 72
    14
 73
    22
  0
VERTEX
  5
A94
  8
0
 62
     9
 10
0.0
 20
0.0
 30
0.0
 70
   128
 71
    20
 72
    16
 73
    17
  0
VERTEX
  5
A95
  8
0
 62
     9
 10
0.0
 20
0.0
 30
0.0
 70
   128
 71
     8
 72
    22
 73
    14
  0
VERTEX
  5
A96
  8
0
 62
     9
 10
0.0
 20
0.0
 30
0.0
 70
   128
 71
     1
 72
    19
 73
     3
  0
VERTEX
  5
A97
  8
0
 62
     9
 10
0.0
 20
0.0
 30
0.0
 70
   128
 71
    18
 72
    10
 73
     3
  0
SEQEND
  5
A98
  8
0
 62
     9
  0
ENDBLK
  5
A9B
  8
0
  0
BLOCK
  8
0
  2
E3_NODE_92_
 70
     0
 10
0.0
 20
0.0
 30
0.0
  3
E3_NODE_92_
  1

  0
POLYLINE
  5
A9D
  8
0
 62
     9
 66
     1
 10
0.0
 20
0.0
 30
0.0
 70
    64
 71
     8
 72
     8
  0
VERTEX
  5
A9E
  8
0
 10
141.5
 20
-17.0
 30
-22.5
 70
   192
  0
VERTEX
  5
A9F
  8
0
 10
136.5
 20
-17.0
 30
-22.5
 70
   192
  0
VERTEX
  5
AA0
  8
0
 10
136.5
 20
-19.5
 30
-25.0
 70
   192
  0
VERTEX
  5
AA1
  8
0
 10
136.5
 20
-14.5
 30
-25.0
 70
   192
  0
VERTEX
  5
AA2
  8
0
 10
136.5
 20
-17.0
 30
-27.5
 70
   192
  0
VERTEX
  5
AA3
  8
0
 10
141.5
 20
-14.5
 30
-25.0
 70
   192
  0
VERTEX
  5
AA4
  8
0
 10
141.5
 20
-19.5
 30
-25.0
 70
   192
  0
VERTEX
  5
AA5
  8
0
 10
141.5
 20
-17.0
 30
-27.5
 70
   192
  0
VERTEX
  5
AA6
  8
0
 62
     9
 10
0.0
 20
0.0
 30
0.0
 70
   128
 71
     3
 72
     2
 73
     1
  0
VERTEX
  5
AA7
  8
0
 62
     9
 10
0.0
 20
0.0
 30
0.0
 70
   128
 71
     1
 72
     2
 73
     4
  0
VERTEX
  5
AA8
  8
0
 62
     9
 10
0.0
 20
0.0
 30
0.0
 70
   128
 71
     6
 72
     4
 73
     5
  0
VERTEX
  5
AA9
  8
0
 62
     9
 10
0.0
 20
0.0
 30
0.0
 70
   128
 71
     5
 72
     3
 73
     7
  0
VERTEX
  5
AAA
  8
0
 62
     9
 10
0.0
 20
0.0
 30
0.0
 70
   128
 71
     7
 72
     8
 73
     5
  0
VERTEX
  5
AAB
  8
0
 62
     9
 10
0.0
 20
0.0
 30
0.0
 70
   128
 71
     5
 72
     8
 73
     6
  0
VERTEX
  5
AAC
  8
0
 62
     9
 10
0.0
 20
0.0
 30
0.0
 70
   128
 71
     4
 72
     6
 73
     1
  0
VERTEX
  5
AAD
  8
0
 62
     9
 10
0.0
 20
0.0
 30
0.0
 70
   128
 71
     1
 72
     7
 73
     3
  0
SEQEND
  5
AAE
  8
0
 62
     9
  0
ENDBLK
  5
AB1
  8
0
  0
BLOCK
  8
0
  2
E3_NODE_93_
 70
     0
 10
0.0
 20
0.0
 30
0.0
  3
E3_NODE_93_
  1

  0
POLYLINE
  5
AB3
  8
0
 62
     9
 66
     1
 10
0.0
 20
0.0
 30
0.0
 70
    64
 71
     4
 72
     2
  0
VERTEX
  5
AB4
  8
0
 10
141.5
 20
-17.0
 30
-27.5
 70
   192
  0
VERTEX
  5
AB5
  8
0
 10
141.5
 20
-14.5
 30
-25.0
 70
   192
  0
VERTEX
  5
AB6
  8
0
 10
141.5
 20
-17.0
 30
-22.5
 70
   192
  0
VERTEX
  5
AB7
  8
0
 10
141.5
 20
-19.5
 30
-25.0
 70
   192
  0
VERTEX
  5
AB8
  8
0
 62
     9
 10
0.0
 20
0.0
 30
0.0
 70
   128
 71
     3
 72
     2
 73
     1
  0
VERTEX
  5
AB9
  8
0
 62
     9
 10
0.0
 20
0.0
 30
0.0
 70
   128
 71
     1
 72
     4
 73
     3
  0
SEQEND
  5
ABA
  8
0
 62
     9
  0
ENDBLK
  5
ABD
  8
0
  0
BLOCK
  8
0
  2
E3_NODE_94_
 70
     0
 10
0.0
 20
0.0
 30
0.0
  3
E3_NODE_94_
  1

  0
POLYLINE
  5
ABF
  8
0
 62
     9
 66
     1
 10
0.0
 20
0.0
 30
0.0
 70
    64
 71
     8
 72
     8
  0
VERTEX
  5
AC0
  8
0
 10
141.5
 20
17.0
 30
-22.5
 70
   192
  0
VERTEX
  5
AC1
  8
0
 10
136.5
 20
17.0
 30
-22.5
 70
   192
  0
VERTEX
  5
AC2
  8
0
 10
136.5
 20
14.5
 30
-25.0
 70
   192
  0
VERTEX
  5
AC3
  8
0
 10
136.5
 20
19.5
 30
-25.0
 70
   192
  0
VERTEX
  5
AC4
  8
0
 10
136.5
 20
17.0
 30
-27.5
 70
   192
  0
VERTEX
  5
AC5
  8
0
 10
141.5
 20
19.5
 30
-25.0
 70
   192
  0
VERTEX
  5
AC6
  8
0
 10
141.5
 20
14.5
 30
-25.0
 70
   192
  0
VERTEX
  5
AC7
  8
0
 10
141.5
 20
17.0
 30
-27.5
 70
   192
  0
VERTEX
  5
AC8
  8
0
 62
     9
 10
0.0
 20
0.0
 30
0.0
 70
   128
 71
     3
 72
     2
 73
     1
  0
VERTEX
  5
AC9
  8
0
 62
     9
 10
0.0
 20
0.0
 30
0.0
 70
   128
 71
     1
 72
     2
 73
     4
  0
VERTEX
  5
ACA
  8
0
 62
     9
 10
0.0
 20
0.0
 30
0.0
 70
   128
 71
     6
 72
     4
 73
     5
  0
VERTEX
  5
ACB
  8
0
 62
     9
 10
0.0
 20
0.0
 30
0.0
 70
   128
 71
     5
 72
     3
 73
     7
  0
VERTEX
  5
ACC
  8
0
 62
     9
 10
0.0
 20
0.0
 30
0.0
 70
   128
 71
     7
 72
     8
 73
     5
  0
VERTEX
  5
ACD
  8
0
 62
     9
 10
0.0
 20
0.0
 30
0.0
 70
   128
 71
     5
 72
     8
 73
     6
  0
VERTEX
  5
ACE
  8
0
 62
     9
 10
0.0
 20
0.0
 30
0.0
 70
   128
 71
     4
 72
     6
 73
     1
  0
VERTEX
  5
ACF
  8
0
 62
     9
 10
0.0
 20
0.0
 30
0.0
 70
   128
 71
     1
 72
     7
 73
     3
  0
SEQEND
  5
AD0
  8
0
 62
     9
  0
ENDBLK
  5
AD3
  8
0
  0
BLOCK
  8
0
  2
E3_NODE_95_
 70
     0
 10
0.0
 20
0.0
 30
0.0
  3
E3_NODE_95_
  1

  0
POLYLINE
  5
AD5
  8
0
 62
     9
 66
     1
 10
0.0
 20
0.0
 30
0.0
 70
    64
 71
     4
 72
     2
  0
VERTEX
  5
AD6
  8
0
 10
141.5
 20
17.0
 30
-27.5
 70
   192
  0
VERTEX
  5
AD7
  8
0
 10
141.5
 20
19.5
 30
-25.0
 70
   192
  0
VERTEX
  5
AD8
  8
0
 10
141.5
 20
17.0
 30
-22.5
 70
   192
  0
VERTEX
  5
AD9
  8
0
 10
141.5
 20
14.5
 30
-25.0
 70
   192
  0
VERTEX
  5
ADA
  8
0
 62
     9
 10
0.0
 20
0.0
 30
0.0
 70
   128
 71
     3
 72
     2
 73
     1
  0
VERTEX
  5
ADB
  8
0
 62
     9
 10
0.0
 20
0.0
 30
0.0
 70
   128
 71
     1
 72
     4
 73
     3
  0
SEQEND
  5
ADC
  8
0
 62
     9
  0
ENDBLK
  5
ADF
  8
0
  0
BLOCK
  8
0
  2
E3_NODE_96_
 70
     0
 10
0.0
 20
0.0
 30
0.0
  3
E3_NODE_96_
  1

  0
POLYLINE
  5
AE1
  8
0
 62
     9
 66
     1
 10
0.0
 20
0.0
 30
0.0
 70
    64
 71
    36
 72
    36
  0
VERTEX
  5
AE2
  8
0
 10
64.5
 20
-57.20299911499023
 30
14.57199954986572
 70
   192
  0
VERTEX
  5
AE3
  8
0
 10
64.5
 20
-59.07699966430664
 30
15.29199981689453
 70
   192
  0
VERTEX
  5
AE4
  8
0
 10
64.5
 20
-68.88200378417969
 30
-10.26000022888184
 70
   192
  0
VERTEX
  5
AE5
  8
0
 10
64.5
 20
-70.6729965209961
 30
-19.1299991607666
 70
   192
  0
VERTEX
  5
AE6
  8
0
 10
64.5
 20
-68.66699981689453
 30
-19.19400024414062
 70
   192
  0
VERTEX
  5
AE7
  8
0
 10
64.5
 20
-67.00800323486328
 30
-10.97900009155273
 70
   192
  0
VERTEX
  5
AE8
  8
0
 10
64.5
 20
-69.4530029296875
 30
-28.09700012207031
 70
   192
  0
VERTEX
  5
AE9
  8
0
 10
64.5
 20
-67.53700256347656
 30
-27.49900054931641
 70
   192
  0
VERTEX
  5
AEA
  8
0
 10
64.5
 20
-59.27000045776367
 30
-60.73600006103516
 70
   192
  0
VERTEX
  5
AEB
  8
0
 10
64.5
 20
-57.35400009155273
 30
-60.13800048828125
 70
   192
  0
VERTEX
  5
AEC
  8
0
 10
64.5
 20
69.4530029296875
 30
-28.09700012207031
 70
   192
  0
VERTEX
  5
AED
  8
0
 10
64.5
 20
67.53700256347656
 30
-27.49900054931641
 70
   192
  0
VERTEX
  5
AEE
  8
0
 10
64.5
 20
57.35400009155273
 30
-60.13800048828125
 70
   192
  0
VERTEX
  5
AEF
  8
0
 10
64.5
 20
70.6729965209961
 30
-19.1299991607666
 70
   192
  0
VERTEX
  5
AF0
  8
0
 10
64.5
 20
68.66699981689453
 30
-19.19400024414062
 70
   192
  0
VERTEX
  5
AF1
  8
0
 10
64.5
 20
68.88200378417969
 30
-10.26000022888184
 70
   192
  0
VERTEX
  5
AF2
  8
0
 10
64.5
 20
67.00800323486328
 30
-10.97900009155273
 70
   192
  0
VERTEX
  5
AF3
  8
0
 10
64.5
 20
57.20299911499023
 30
14.57199954986572
 70
   192
  0
VERTEX
  5
AF4
  8
0
 10
64.5
 20
50.5
 30
19.18000030517578
 70
   192
  0
VERTEX
  5
AF5
  8
0
 10
64.5
 20
50.5
 30
21.1870002746582
 70
   192
  0
VERTEX
  5
AF6
  8
0
 10
64.5
 20
-50.5
 30
21.1870002746582
 70
   192
  0
VERTEX
  5
AF7
  8
0
 10
64.5
 20
-55.70399856567383
 30
19.57099914550781
 70
   192
  0
VERTEX
  5
AF8
  8
0
 10
64.5
 20
-54.56700134277344
 30
17.91699981689453
 70
   192
  0
VERTEX
  5
AF9
  8
0
 10
64.5
 20
-50.5
 30
19.18000030517578
 70
   192
  0
VERTEX
  5
AFA
  8
0
 10
64.5
 20
-55.94400024414062
 30
-65.4010009765625
 70
   192
  0
VERTEX
  5
AFB
  8
0
 10
64.5
 20
-54.75400161743164
 30
-63.78400039672852
 70
   192
  0
VERTEX
  5
AFC
  8
0
 10
64.5
 20
59.27000045776367
 30
-60.73600006103516
 70
   192
  0
VERTEX
  5
AFD
  8
0
 10
64.5
 20
54.75400161743164
 30
-63.78400039672852
 70
   192
  0
VERTEX
  5
AFE
  8
0
 10
64.5
 20
59.07699966430664
 30
15.29199981689453
 70
   192
  0
VERTEX
  5
AFF
  8
0
 10
64.5
 20
55.70399856567383
 30
19.57099914550781
 70
   192
  0
VERTEX
  5
B00
  8
0
 10
64.5
 20
54.56700134277344
 30
17.91699981689453
 70
   192
  0
VERTEX
  5
B01
  8
0
 10
64.5
 20
55.94400024414062
 30
-65.4010009765625
 70
   192
  0
VERTEX
  5
B02
  8
0
 10
64.5
 20
50.5
 30
-65.18000030517578
 70
   192
  0
VERTEX
  5
B03
  8
0
 10
64.5
 20
-50.5
 30
-67.18699645996094
 70
   192
  0
VERTEX
  5
B04
  8
0
 10
64.5
 20
-50.5
 30
-65.18000030517578
 70
   192
  0
VERTEX
  5
B05
  8
0
 10
64.5
 20
50.5
 30
-67.18699645996094
 70
   192
  0
VERTEX
  5
B06
  8
0
 62
     9
 10
0.0
 20
0.0
 30
0.0
 70
   128
 71
     3
 72
     2
 73
     1
  0
VERTEX
  5
B07
  8
0
 62
     9
 10
0.0
 20
0.0
 30
0.0
 70
   128
 71
     6
 72
     5
 73
     4
  0
VERTEX
  5
B08
  8
0
 62
     9
 10
0.0
 20
0.0
 30
0.0
 70
   128
 71
     5
 72
     8
 73
     7
  0
VERTEX
  5
B09
  8
0
 62
     9
 10
0.0
 20
0.0
 30
0.0
 70
   128
 71
     8
 72
    10
 73
     9
  0
VERTEX
  5
B0A
  8
0
 62
     9
 10
0.0
 20
0.0
 30
0.0
 70
   128
 71
    13
 72
    12
 73
    11
  0
VERTEX
  5
B0B
  8
0
 62
     9
 10
0.0
 20
0.0
 30
0.0
 70
   128
 71
    12
 72
    15
 73
    14
  0
VERTEX
  5
B0C
  8
0
 62
     9
 10
0.0
 20
0.0
 30
0.0
 70
   128
 71
    17
 72
    16
 73
    14
  0
VERTEX
  5
B0D
  8
0
 62
     9
 10
0.0
 20
0.0
 30
0.0
 70
   128
 71
    16
 72
    17
 73
    18
  0
VERTEX
  5
B0E
  8
0
 62
     9
 10
0.0
 20
0.0
 30
0.0
 70
   128
 71
    21
 72
    20
 73
    19
  0
VERTEX
  5
B0F
  8
0
 62
     9
 10
0.0
 20
0.0
 30
0.0
 70
   128
 71
    24
 72
    23
 73
    22
  0
VERTEX
  5
B10
  8
0
 62
     9
 10
0.0
 20
0.0
 30
0.0
 70
   128
 71
    23
 72
     1
 73
     2
  0
VERTEX
  5
B11
  8
0
 62
     9
 10
0.0
 20
0.0
 30
0.0
 70
   128
 71
     4
 72
     3
 73
     6
  0
VERTEX
  5
B12
  8
0
 62
     9
 10
0.0
 20
0.0
 30
0.0
 70
   128
 71
     9
 72
     7
 73
     8
  0
VERTEX
  5
B13
  8
0
 62
     9
 10
0.0
 20
0.0
 30
0.0
 70
   128
 71
    10
 72
    26
 73
    25
  0
VERTEX
  5
B14
  8
0
 62
     9
 10
0.0
 20
0.0
 30
0.0
 70
   128
 71
    28
 72
    13
 73
    27
  0
VERTEX
  5
B15
  8
0
 62
     9
 10
0.0
 20
0.0
 30
0.0
 70
   128
 71
    14
 72
    11
 73
    12
  0
VERTEX
  5
B16
  8
0
 62
     9
 10
0.0
 20
0.0
 30
0.0
 70
   128
 71
    18
 72
    29
 73
    16
  0
VERTEX
  5
B17
  8
0
 62
     9
 10
0.0
 20
0.0
 30
0.0
 70
   128
 71
    31
 72
    30
 73
    29
  0
VERTEX
  5
B18
  8
0
 62
     9
 10
0.0
 20
0.0
 30
0.0
 70
   128
 71
    19
 72
    20
 73
    30
  0
VERTEX
  5
B19
  8
0
 62
     9
 10
0.0
 20
0.0
 30
0.0
 70
   128
 71
    22
 72
    21
 73
    24
  0
VERTEX
  5
B1A
  8
0
 62
     9
 10
0.0
 20
0.0
 30
0.0
 70
   128
 71
     1
 72
     6
 73
     3
  0
VERTEX
  5
B1B
  8
0
 62
     9
 10
0.0
 20
0.0
 30
0.0
 70
   128
 71
    25
 72
     9
 73
    10
  0
VERTEX
  5
B1C
  8
0
 62
     9
 10
0.0
 20
0.0
 30
0.0
 70
   128
 71
    11
 72
    27
 73
    13
  0
VERTEX
  5
B1D
  8
0
 62
     9
 10
0.0
 20
0.0
 30
0.0
 70
   128
 71
    29
 72
    18
 73
    31
  0
VERTEX
  5
B1E
  8
0
 62
     9
 10
0.0
 20
0.0
 30
0.0
 70
   128
 71
    19
 72
    24
 73
    21
  0
VERTEX
  5
B1F
  8
0
 62
     9
 10
0.0
 20
0.0
 30
0.0
 70
   128
 71
     7
 72
     4
 73
     5
  0
VERTEX
  5
B20
  8
0
 62
     9
 10
0.0
 20
0.0
 30
0.0
 70
   128
 71
    14
 72
    15
 73
    17
  0
VERTEX
  5
B21
  8
0
 62
     9
 10
0.0
 20
0.0
 30
0.0
 70
   128
 71
     2
 72
    22
 73
    23
  0
VERTEX
  5
B22
  8
0
 62
     9
 10
0.0
 20
0.0
 30
0.0
 70
   128
 71
    33
 72
    28
 73
    32
  0
VERTEX
  5
B23
  8
0
 62
     9
 10
0.0
 20
0.0
 30
0.0
 70
   128
 71
    30
 72
    31
 73
    19
  0
VERTEX
  5
B24
  8
0
 62
     9
 10
0.0
 20
0.0
 30
0.0
 70
   128
 71
    35
 72
    34
 73
    25
  0
VERTEX
  5
B25
  8
0
 62
     9
 10
0.0
 20
0.0
 30
0.0
 70
   128
 71
    36
 72
    34
 73
    35
  0
VERTEX
  5
B26
  8
0
 62
     9
 10
0.0
 20
0.0
 30
0.0
 70
   128
 71
    27
 72
    32
 73
    28
  0
VERTEX
  5
B27
  8
0
 62
     9
 10
0.0
 20
0.0
 30
0.0
 70
   128
 71
    35
 72
    33
 73
    36
  0
VERTEX
  5
B28
  8
0
 62
     9
 10
0.0
 20
0.0
 30
0.0
 70
   128
 71
    25
 72
    26
 73
    35
  0
VERTEX
  5
B29
  8
0
 62
     9
 10
0.0
 20
0.0
 30
0.0
 70
   128
 71
    32
 72
    36
 73
    33
  0
SEQEND
  5
B2A
  8
0
 62
     9
  0
ENDBLK
  5
B2D
  8
0
  0
BLOCK
  8
0
  2
E3_NODE_97_
 70
     0
 10
0.0
 20
0.0
 30
0.0
  3
E3_NODE_97_
  1

  0
POLYLINE
  5
B2F
  8
0
 62
     9
 66
     1
 10
0.0
 20
0.0
 30
0.0
 70
    64
 71
     6
 72
     4
  0
VERTEX
  5
B30
  8
0
 10
64.5
 20
-55.70399856567383
 30
19.57099914550781
 70
   192
  0
VERTEX
  5
B31
  8
0
 10
64.5
 20
-50.5
 30
21.1870002746582
 70
   192
  0
VERTEX
  5
B32
  8
0
 10
39.5
 20
-50.5
 30
19.0
 70
   192
  0
VERTEX
  5
B33
  8
0
 10
64.5
 20
-59.07699966430664
 30
15.29199981689453
 70
   192
  0
VERTEX
  5
B34
  8
0
 10
39.5
 20
-54.46500015258789
 30
17.76899909973145
 70
   192
  0
VERTEX
  5
B35
  8
0
 10
39.5
 20
-57.03499984741211
 30
14.50800037384033
 70
   192
  0
VERTEX
  5
B36
  8
0
 62
     9
 10
0.0
 20
0.0
 30
0.0
 70
   128
 71
     3
 72
     2
 73
     1
  0
VERTEX
  5
B37
  8
0
 62
     9
 10
0.0
 20
0.0
 30
0.0
 70
   128
 71
     5
 72
     1
 73
     4
  0
VERTEX
  5
B38
  8
0
 62
     9
 10
0.0
 20
0.0
 30
0.0
 70
   128
 71
     4
 72
     6
 73
     5
  0
VERTEX
  5
B39
  8
0
 62
     9
 10
0.0
 20
0.0
 30
0.0
 70
   128
 71
     1
 72
     5
 73
     3
  0
SEQEND
  5
B3A
  8
0
 62
     9
  0
ENDBLK
  5
B3D
  8
0
  0
BLOCK
  8
0
  2
E3_NODE_98_
 70
     0
 10
0.0
 20
0.0
 30
0.0
  3
E3_NODE_98_
  1

  0
POLYLINE
  5
B3F
  8
0
 62
     9
 66
     1
 10
0.0
 20
0.0
 30
0.0
 70
    64
 71
     4
 72
     2
  0
VERTEX
  5
B40
  8
0
 10
39.5
 20
-50.5
 30
19.0
 70
   192
  0
VERTEX
  5
B41
  8
0
 10
64.5
 20
-50.5
 30
21.1870002746582
 70
   192
  0
VERTEX
  5
B42
  8
0
 10
64.5
 20
50.5
 30
21.1870002746582
 70
   192
  0
VERTEX
  5
B43
  8
0
 10
39.5
 20
50.5
 30
19.0
 70
   192
  0
VERTEX
  5
B44
  8
0
 62
     9
 10
0.0
 20
0.0
 30
0.0
 70
   128
 71
     3
 72
     2
 73
     1
  0
VERTEX
  5
B45
  8
0
 62
     9
 10
0.0
 20
0.0
 30
0.0
 70
   128
 71
     1
 72
     4
 73
     3
  0
SEQEND
  5
B46
  8
0
 62
     9
  0
ENDBLK
  5
B49
  8
0
  0
BLOCK
  8
0
  2
E3_NODE_99_
 70
     0
 10
0.0
 20
0.0
 30
0.0
  3
E3_NODE_99_
  1

  0
POLYLINE
  5
B4B
  8
0
 62
     9
 66
     1
 10
0.0
 20
0.0
 30
0.0
 70
    64
 71
     6
 72
     4
  0
VERTEX
  5
B4C
  8
0
 10
64.5
 20
55.70399856567383
 30
19.57099914550781
 70
   192
  0
VERTEX
  5
B4D
  8
0
 10
64.5
 20
59.07699966430664
 30
15.29199981689453
 70
   192
  0
VERTEX
  5
B4E
  8
0
 10
39.5
 20
57.03499984741211
 30
14.50800037384033
 70
   192
  0
VERTEX
  5
B4F
  8
0
 10
39.5
 20
54.46500015258789
 30
17.76899909973145
 70
   192
  0
VERTEX
  5
B50
  8
0
 10
39.5
 20
50.5
 30
19.0
 70
   192
  0
VERTEX
  5
B51
  8
0
 10
64.5
 20
50.5
 30
21.1870002746582
 70
   192
  0
VERTEX
  5
B52
  8
0
 62
     9
 10
0.0
 20
0.0
 30
0.0
 70
   128
 71
     3
 72
     2
 73
     1
  0
VERTEX
  5
B53
  8
0
 62
     9
 10
0.0
 20
0.0
 30
0.0
 70
   128
 71
     5
 72
     4
 73
     1
  0
VERTEX
  5
B54
  8
0
 62
     9
 10
0.0
 20
0.0
 30
0.0
 70
   128
 71
     1
 72
     6
 73
     5
  0
VERTEX
  5
B55
  8
0
 62
     9
 10
0.0
 20
0.0
 30
0.0
 70
   128
 71
     1
 72
     4
 73
     3
  0
SEQEND
  5
B56
  8
0
 62
     9
  0
ENDBLK
  5
B59
  8
0
  0
BLOCK
  8
0
  2
E3_NODE_100_
 70
     0
 10
0.0
 20
0.0
 30
0.0
  3
E3_NODE_100_
  1

  0
POLYLINE
  5
B5B
  8
0
 62
     9
 66
     1
 10
0.0
 20
0.0
 30
0.0
 70
    64
 71
     4
 72
     2
  0
VERTEX
  5
B5C
  8
0
 10
39.5
 20
57.03499984741211
 30
14.50800037384033
 70
   192
  0
VERTEX
  5
B5D
  8
0
 10
64.5
 20
59.07699966430664
 30
15.29199981689453
 70
   192
  0
VERTEX
  5
B5E
  8
0
 10
64.5
 20
68.88200378417969
 30
-10.26000022888184
 70
   192
  0
VERTEX
  5
B5F
  8
0
 10
39.5
 20
66.83999633789062
 30
-11.04300022125244
 70
   192
  0
VERTEX
  5
B60
  8
0
 62
     9
 10
0.0
 20
0.0
 30
0.0
 70
   128
 71
     3
 72
     2
 73
     1
  0
VERTEX
  5
B61
  8
0
 62
     9
 10
0.0
 20
0.0
 30
0.0
 70
   128
 71
     1
 72
     4
 73
     3
  0
SEQEND
  5
B62
  8
0
 62
     9
  0
ENDBLK
  5
B65
  8
0
  0
BLOCK
  8
0
  2
E3_NODE_101_
 70
     0
 10
0.0
 20
0.0
 30
0.0
  3
E3_NODE_101_
  1

  0
POLYLINE
  5
B67
  8
0
 62
     9
 66
     1
 10
0.0
 20
0.0
 30
0.0
 70
    64
 71
     6
 72
     4
  0
VERTEX
  5
B68
  8
0
 10
64.5
 20
69.4530029296875
 30
-28.09700012207031
 70
   192
  0
VERTEX
  5
B69
  8
0
 10
39.5
 20
67.36499786376953
 30
-27.44599914550781
 70
   192
  0
VERTEX
  5
B6A
  8
0
 10
39.5
 20
68.48699951171875
 30
-19.20000076293945
 70
   192
  0
VERTEX
  5
B6B
  8
0
 10
64.5
 20
68.88200378417969
 30
-10.26000022888184
 70
   192
  0
VERTEX
  5
B6C
  8
0
 10
64.5
 20
70.6729965209961
 30
-19.1299991607666
 70
   192
  0
VERTEX
  5
B6D
  8
0
 10
39.5
 20
66.83999633789062
 30
-11.04300022125244
 70
   192
  0
VERTEX
  5
B6E
  8
0
 62
     9
 10
0.0
 20
0.0
 30
0.0
 70
   128
 71
     3
 72
     2
 73
     1
  0
VERTEX
  5
B6F
  8
0
 62
     9
 10
0.0
 20
0.0
 30
0.0
 70
   128
 71
     3
 72
     5
 73
     4
  0
VERTEX
  5
B70
  8
0
 62
     9
 10
0.0
 20
0.0
 30
0.0
 70
   128
 71
     4
 72
     6
 73
     3
  0
VERTEX
  5
B71
  8
0
 62
     9
 10
0.0
 20
0.0
 30
0.0
 70
   128
 71
     1
 72
     5
 73
     3
  0
SEQEND
  5
B72
  8
0
 62
     9
  0
ENDBLK
  5
B75
  8
0
  0
BLOCK
  8
0
  2
E3_NODE_102_
 70
     0
 10
0.0
 20
0.0
 30
0.0
  3
E3_NODE_102_
  1

  0
POLYLINE
  5
B77
  8
0
 62
     9
 66
     1
 10
0.0
 20
0.0
 30
0.0
 70
    64
 71
     4
 72
     2
  0
VERTEX
  5
B78
  8
0
 10
39.5
 20
57.18199920654297
 30
-60.08499908447266
 70
   192
  0
VERTEX
  5
B79
  8
0
 10
39.5
 20
67.36499786376953
 30
-27.44599914550781
 70
   192
  0
VERTEX
  5
B7A
  8
0
 10
64.5
 20
69.4530029296875
 30
-28.09700012207031
 70
   192
  0
VERTEX
  5
B7B
  8
0
 10
64.5
 20
59.27000045776367
 30
-60.73600006103516
 70
   192
  0
VERTEX
  5
B7C
  8
0
 62
     9
 10
0.0
 20
0.0
 30
0.0
 70
   128
 71
     3
 72
     2
 73
     1
  0
VERTEX
  5
B7D
  8
0
 62
     9
 10
0.0
 20
0.0
 30
0.0
 70
   128
 71
     1
 72
     4
 73
     3
  0
SEQEND
  5
B7E
  8
0
 62
     9
  0
ENDBLK
  5
B81
  8
0
  0
BLOCK
  8
0
  2
E3_NODE_103_
 70
     0
 10
0.0
 20
0.0
 30
0.0
  3
E3_NODE_103_
  1

  0
POLYLINE
  5
B83
  8
0
 62
     9
 66
     1
 10
0.0
 20
0.0
 30
0.0
 70
    64
 71
     6
 72
     4
  0
VERTEX
  5
B84
  8
0
 10
64.5
 20
50.5
 30
-67.18699645996094
 70
   192
  0
VERTEX
  5
B85
  8
0
 10
39.5
 20
50.5
 30
-65.0
 70
   192
  0
VERTEX
  5
B86
  8
0
 10
39.5
 20
54.64799880981445
 30
-63.63899993896484
 70
   192
  0
VERTEX
  5
B87
  8
0
 10
64.5
 20
55.94400024414062
 30
-65.4010009765625
 70
   192
  0
VERTEX
  5
B88
  8
0
 10
39.5
 20
57.18199920654297
 30
-60.08499908447266
 70
   192
  0
VERTEX
  5
B89
  8
0
 10
64.5
 20
59.27000045776367
 30
-60.73600006103516
 70
   192
  0
VERTEX
  5
B8A
  8
0
 62
     9
 10
0.0
 20
0.0
 30
0.0
 70
   128
 71
     3
 72
     2
 73
     1
  0
VERTEX
  5
B8B
  8
0
 62
     9
 10
0.0
 20
0.0
 30
0.0
 70
   128
 71
     5
 72
     3
 73
     4
  0
VERTEX
  5
B8C
  8
0
 62
     9
 10
0.0
 20
0.0
 30
0.0
 70
   128
 71
     4
 72
     6
 73
     5
  0
VERTEX
  5
B8D
  8
0
 62
     9
 10
0.0
 20
0.0
 30
0.0
 70
   128
 71
     1
 72
     4
 73
     3
  0
SEQEND
  5
B8E
  8
0
 62
     9
  0
ENDBLK
  5
B91
  8
0
  0
BLOCK
  8
0
  2
E3_NODE_104_
 70
     0
 10
0.0
 20
0.0
 30
0.0
  3
E3_NODE_104_
  1

  0
POLYLINE
  5
B93
  8
0
 62
     9
 66
     1
 10
0.0
 20
0.0
 30
0.0
 70
    64
 71
     4
 72
     2
  0
VERTEX
  5
B94
  8
0
 10
64.5
 20
-50.5
 30
-67.18699645996094
 70
   192
  0
VERTEX
  5
B95
  8
0
 10
39.5
 20
-50.5
 30
-65.0
 70
   192
  0
VERTEX
  5
B96
  8
0
 10
39.5
 20
50.5
 30
-65.0
 70
   192
  0
VERTEX
  5
B97
  8
0
 10
64.5
 20
50.5
 30
-67.18699645996094
 70
   192
  0
VERTEX
  5
B98
  8
0
 62
     9
 10
0.0
 20
0.0
 30
0.0
 70
   128
 71
     3
 72
     2
 73
     1
  0
VERTEX
  5
B99
  8
0
 62
     9
 10
0.0
 20
0.0
 30
0.0
 70
   128
 71
     1
 72
     4
 73
     3
  0
SEQEND
  5
B9A
  8
0
 62
     9
  0
ENDBLK
  5
B9D
  8
0
  0
BLOCK
  8
0
  2
E3_NODE_105_
 70
     0
 10
0.0
 20
0.0
 30
0.0
  3
E3_NODE_105_
  1

  0
POLYLINE
  5
B9F
  8
0
 62
     9
 66
     1
 10
0.0
 20
0.0
 30
0.0
 70
    64
 71
     6
 72
     4
  0
VERTEX
  5
BA0
  8
0
 10
64.5
 20
-59.27000045776367
 30
-60.73600006103516
 70
   192
  0
VERTEX
  5
BA1
  8
0
 10
39.5
 20
-57.18199920654297
 30
-60.08499908447266
 70
   192
  0
VERTEX
  5
BA2
  8
0
 10
39.5
 20
-54.64799880981445
 30
-63.63899993896484
 70
   192
  0
VERTEX
  5
BA3
  8
0
 10
64.5
 20
-50.5
 30
-67.18699645996094
 70
   192
  0
VERTEX
  5
BA4
  8
0
 10
64.5
 20
-55.94400024414062
 30
-65.4010009765625
 70
   192
  0
VERTEX
  5
BA5
  8
0
 10
39.5
 20
-50.5
 30
-65.0
 70
   192
  0
VERTEX
  5
BA6
  8
0
 62
     9
 10
0.0
 20
0.0
 30
0.0
 70
   128
 71
     3
 72
     2
 73
     1
  0
VERTEX
  5
BA7
  8
0
 62
     9
 10
0.0
 20
0.0
 30
0.0
 70
   128
 71
     3
 72
     5
 73
     4
  0
VERTEX
  5
BA8
  8
0
 62
     9
 10
0.0
 20
0.0
 30
0.0
 70
   128
 71
     4
 72
     6
 73
     3
  0
VERTEX
  5
BA9
  8
0
 62
     9
 10
0.0
 20
0.0
 30
0.0
 70
   128
 71
     1
 72
     5
 73
     3
  0
SEQEND
  5
BAA
  8
0
 62
     9
  0
ENDBLK
  5
BAD
  8
0
  0
BLOCK
  8
0
  2
E3_NODE_106_
 70
     0
 10
0.0
 20
0.0
 30
0.0
  3
E3_NODE_106_
  1

  0
POLYLINE
  5
BAF
  8
0
 62
     9
 66
     1
 10
0.0
 20
0.0
 30
0.0
 70
    64
 71
     4
 72
     2
  0
VERTEX
  5
BB0
  8
0
 10
39.5
 20
-67.36499786376953
 30
-27.44599914550781
 70
   192
  0
VERTEX
  5
BB1
  8
0
 10
39.5
 20
-57.18199920654297
 30
-60.08499908447266
 70
   192
  0
VERTEX
  5
BB2
  8
0
 10
64.5
 20
-59.27000045776367
 30
-60.73600006103516
 70
   192
  0
VERTEX
  5
BB3
  8
0
 10
64.5
 20
-69.4530029296875
 30
-28.09700012207031
 70
   192
  0
VERTEX
  5
BB4
  8
0
 62
     9
 10
0.0
 20
0.0
 30
0.0
 70
   128
 71
     3
 72
     2
 73
     1
  0
VERTEX
  5
BB5
  8
0
 62
     9
 10
0.0
 20
0.0
 30
0.0
 70
   128
 71
     1
 72
     4
 73
     3
  0
SEQEND
  5
BB6
  8
0
 62
     9
  0
ENDBLK
  5
BB9
  8
0
  0
BLOCK
  8
0
  2
E3_NODE_107_
 70
     0
 10
0.0
 20
0.0
 30
0.0
  3
E3_NODE_107_
  1

  0
POLYLINE
  5
BBB
  8
0
 62
     9
 66
     1
 10
0.0
 20
0.0
 30
0.0
 70
    64
 71
     6
 72
     4
  0
VERTEX
  5
BBC
  8
0
 10
64.5
 20
-70.6729965209961
 30
-19.1299991607666
 70
   192
  0
VERTEX
  5
BBD
  8
0
 10
64.5
 20
-68.88200378417969
 30
-10.26000022888184
 70
   192
  0
VERTEX
  5
BBE
  8
0
 10
39.5
 20
-66.83999633789062
 30
-11.04300022125244
 70
   192
  0
VERTEX
  5
BBF
  8
0
 10
39.5
 20
-68.48699951171875
 30
-19.20000076293945
 70
   192
  0
VERTEX
  5
BC0
  8
0
 10
39.5
 20
-67.36499786376953
 30
-27.44599914550781
 70
   192
  0
VERTEX
  5
BC1
  8
0
 10
64.5
 20
-69.4530029296875
 30
-28.09700012207031
 70
   192
  0
VERTEX
  5
BC2
  8
0
 62
     9
 10
0.0
 20
0.0
 30
0.0
 70
   128
 71
     3
 72
     2
 73
     1
  0
VERTEX
  5
BC3
  8
0
 62
     9
 10
0.0
 20
0.0
 30
0.0
 70
   128
 71
     5
 72
     4
 73
     1
  0
VERTEX
  5
BC4
  8
0
 62
     9
 10
0.0
 20
0.0
 30
0.0
 70
   128
 71
     1
 72
     6
 73
     5
  0
VERTEX
  5
BC5
  8
0
 62
     9
 10
0.0
 20
0.0
 30
0.0
 70
   128
 71
     1
 72
     4
 73
     3
  0
SEQEND
  5
BC6
  8
0
 62
     9
  0
ENDBLK
  5
BC9
  8
0
  0
BLOCK
  8
0
  2
E3_NODE_108_
 70
     0
 10
0.0
 20
0.0
 30
0.0
  3
E3_NODE_108_
  1

  0
POLYLINE
  5
BCB
  8
0
 62
     9
 66
     1
 10
0.0
 20
0.0
 30
0.0
 70
    64
 71
     4
 72
     2
  0
VERTEX
  5
BCC
  8
0
 10
39.5
 20
-57.03499984741211
 30
14.50800037384033
 70
   192
  0
VERTEX
  5
BCD
  8
0
 10
39.5
 20
-66.83999633789062
 30
-11.04300022125244
 70
   192
  0
VERTEX
  5
BCE
  8
0
 10
64.5
 20
-68.88200378417969
 30
-10.26000022888184
 70
   192
  0
VERTEX
  5
BCF
  8
0
 10
64.5
 20
-59.07699966430664
 30
15.29199981689453
 70
   192
  0
VERTEX
  5
BD0
  8
0
 62
     9
 10
0.0
 20
0.0
 30
0.0
 70
   128
 71
     3
 72
     2
 73
     1
  0
VERTEX
  5
BD1
  8
0
 62
     9
 10
0.0
 20
0.0
 30
0.0
 70
   128
 71
     1
 72
     4
 73
     3
  0
SEQEND
  5
BD2
  8
0
 62
     9
  0
ENDBLK
  5
BD5
  8
0
  0
BLOCK
  8
0
  2
E3_NODE_109_
 70
     0
 10
0.0
 20
0.0
 30
0.0
  3
E3_NODE_109_
  1

  0
POLYLINE
  5
BD7
  8
0
 62
     9
 66
     1
 10
0.0
 20
0.0
 30
0.0
 70
    64
 71
    36
 72
    36
  0
VERTEX
  5
BD8
  8
0
 10
39.5
 20
-67.36499786376953
 30
-27.44599914550781
 70
   192
  0
VERTEX
  5
BD9
  8
0
 10
39.5
 20
-65.93399810791016
 30
-26.99900054931641
 70
   192
  0
VERTEX
  5
BDA
  8
0
 10
39.5
 20
-55.75
 30
-59.63800048828125
 70
   192
  0
VERTEX
  5
BDB
  8
0
 10
39.5
 20
-68.48699951171875
 30
-19.20000076293945
 70
   192
  0
VERTEX
  5
BDC
  8
0
 10
39.5
 20
-66.98799896240234
 30
-19.24799919128418
 70
   192
  0
VERTEX
  5
BDD
  8
0
 10
39.5
 20
-66.83999633789062
 30
-11.04300022125244
 70
   192
  0
VERTEX
  5
BDE
  8
0
 10
39.5
 20
-65.44000244140625
 30
-11.58100032806396
 70
   192
  0
VERTEX
  5
BDF
  8
0
 10
39.5
 20
-57.03499984741211
 30
14.50800037384033
 70
   192
  0
VERTEX
  5
BE0
  8
0
 10
39.5
 20
-55.6349983215332
 30
13.97000026702881
 70
   192
  0
VERTEX
  5
BE1
  8
0
 10
39.5
 20
57.03499984741211
 30
14.50800037384033
 70
   192
  0
VERTEX
  5
BE2
  8
0
 10
39.5
 20
66.83999633789062
 30
-11.04300022125244
 70
   192
  0
VERTEX
  5
BE3
  8
0
 10
39.5
 20
65.44000244140625
 30
-11.58100032806396
 70
   192
  0
VERTEX
  5
BE4
  8
0
 10
39.5
 20
68.48699951171875
 30
-19.20000076293945
 70
   192
  0
VERTEX
  5
BE5
  8
0
 10
39.5
 20
66.98799896240234
 30
-19.24799919128418
 70
   192
  0
VERTEX
  5
BE6
  8
0
 10
39.5
 20
67.36499786376953
 30
-27.44599914550781
 70
   192
  0
VERTEX
  5
BE7
  8
0
 10
39.5
 20
65.93399810791016
 30
-26.99900054931641
 70
   192
  0
VERTEX
  5
BE8
  8
0
 10
39.5
 20
57.18199920654297
 30
-60.08499908447266
 70
   192
  0
VERTEX
  5
BE9
  8
0
 10
39.5
 20
55.75
 30
-59.63800048828125
 70
   192
  0
VERTEX
  5
BEA
  8
0
 10
39.5
 20
-54.64799880981445
 30
-63.63899993896484
 70
   192
  0
VERTEX
  5
BEB
  8
0
 10
39.5
 20
-57.18199920654297
 30
-60.08499908447266
 70
   192
  0
VERTEX
  5
BEC
  8
0
 10
39.5
 20
-54.46500015258789
 30
17.76899909973145
 70
   192
  0
VERTEX
  5
BED
  8
0
 10
39.5
 20
-53.6150016784668
 30
16.53300094604492
 70
   192
  0
VERTEX
  5
BEE
  8
0
 10
39.5
 20
55.6349983215332
 30
13.97000026702881
 70
   192
  0
VERTEX
  5
BEF
  8
0
 10
39.5
 20
53.6150016784668
 30
16.53300094604492
 70
   192
  0
VERTEX
  5
BF0
  8
0
 10
39.5
 20
54.64799880981445
 30
-63.63899993896484
 70
   192
  0
VERTEX
  5
BF1
  8
0
 10
39.5
 20
53.75899887084961
 30
-62.43099975585938
 70
   192
  0
VERTEX
  5
BF2
  8
0
 10
39.5
 20
-50.5
 30
-65.0
 70
   192
  0
VERTEX
  5
BF3
  8
0
 10
39.5
 20
-50.5
 30
-63.5
 70
   192
  0
VERTEX
  5
BF4
  8
0
 10
39.5
 20
50.5
 30
-63.5
 70
   192
  0
VERTEX
  5
BF5
  8
0
 10
39.5
 20
-53.75899887084961
 30
-62.43099975585938
 70
   192
  0
VERTEX
  5
BF6
  8
0
 10
39.5
 20
-50.5
 30
19.0
 70
   192
  0
VERTEX
  5
BF7
  8
0
 10
39.5
 20
-50.5
 30
17.5
 70
   192
  0
VERTEX
  5
BF8
  8
0
 10
39.5
 20
50.5
 30
19.0
 70
   192
  0
VERTEX
  5
BF9
  8
0
 10
39.5
 20
50.5
 30
17.5
 70
   192
  0
VERTEX
  5
BFA
  8
0
 10
39.5
 20
50.5
 30
-65.0
 70
   192
  0
VERTEX
  5
BFB
  8
0
 10
39.5
 20
54.46500015258789
 30
17.76899909973145
 70
   192
  0
VERTEX
  5
BFC
  8
0
 62
     9
 10
0.0
 20
0.0
 30
0.0
 70
   128
 71
     3
 72
     2
 73
     1
  0
VERTEX
  5
BFD
  8
0
 62
     9
 10
0.0
 20
0.0
 30
0.0
 70
   128
 71
     5
 72
     4
 73
     1
  0
VERTEX
  5
BFE
  8
0
 62
     9
 10
0.0
 20
0.0
 30
0.0
 70
   128
 71
     5
 72
     7
 73
     6
  0
VERTEX
  5
BFF
  8
0
 62
     9
 10
0.0
 20
0.0
 30
0.0
 70
   128
 71
     7
 72
     9
 73
     8
  0
VERTEX
  5
C00
  8
0
 62
     9
 10
0.0
 20
0.0
 30
0.0
 70
   128
 71
    12
 72
    11
 73
    10
  0
VERTEX
  5
C01
  8
0
 62
     9
 10
0.0
 20
0.0
 30
0.0
 70
   128
 71
    12
 72
    14
 73
    13
  0
VERTEX
  5
C02
  8
0
 62
     9
 10
0.0
 20
0.0
 30
0.0
 70
   128
 71
    14
 72
    16
 73
    15
  0
VERTEX
  5
C03
  8
0
 62
     9
 10
0.0
 20
0.0
 30
0.0
 70
   128
 71
    16
 72
    18
 73
    17
  0
VERTEX
  5
C04
  8
0
 62
     9
 10
0.0
 20
0.0
 30
0.0
 70
   128
 71
     3
 72
    20
 73
    19
  0
VERTEX
  5
C05
  8
0
 62
     9
 10
0.0
 20
0.0
 30
0.0
 70
   128
 71
     1
 72
     2
 73
     5
  0
VERTEX
  5
C06
  8
0
 62
     9
 10
0.0
 20
0.0
 30
0.0
 70
   128
 71
     8
 72
     6
 73
     7
  0
VERTEX
  5
C07
  8
0
 62
     9
 10
0.0
 20
0.0
 30
0.0
 70
   128
 71
    22
 72
    21
 73
     8
  0
VERTEX
  5
C08
  8
0
 62
     9
 10
0.0
 20
0.0
 30
0.0
 70
   128
 71
    24
 72
    23
 73
    10
  0
VERTEX
  5
C09
  8
0
 62
     9
 10
0.0
 20
0.0
 30
0.0
 70
   128
 71
    13
 72
    11
 73
    12
  0
VERTEX
  5
C0A
  8
0
 62
     9
 10
0.0
 20
0.0
 30
0.0
 70
   128
 71
    17
 72
    15
 73
    16
  0
VERTEX
  5
C0B
  8
0
 62
     9
 10
0.0
 20
0.0
 30
0.0
 70
   128
 71
    26
 72
    25
 73
    17
  0
VERTEX
  5
C0C
  8
0
 62
     9
 10
0.0
 20
0.0
 30
0.0
 70
   128
 71
    29
 72
    28
 73
    27
  0
VERTEX
  5
C0D
  8
0
 62
     9
 10
0.0
 20
0.0
 30
0.0
 70
   128
 71
    30
 72
    19
 73
    27
  0
VERTEX
  5
C0E
  8
0
 62
     9
 10
0.0
 20
0.0
 30
0.0
 70
   128
 71
     1
 72
    20
 73
     3
  0
VERTEX
  5
C0F
  8
0
 62
     9
 10
0.0
 20
0.0
 30
0.0
 70
   128
 71
     8
 72
     9
 73
    22
  0
VERTEX
  5
C10
  8
0
 62
     9
 10
0.0
 20
0.0
 30
0.0
 70
   128
 71
    22
 72
    32
 73
    31
  0
VERTEX
  5
C11
  8
0
 62
     9
 10
0.0
 20
0.0
 30
0.0
 70
   128
 71
    32
 72
    34
 73
    33
  0
VERTEX
  5
C12
  8
0
 62
     9
 10
0.0
 20
0.0
 30
0.0
 70
   128
 71
    10
 72
    23
 73
    12
  0
VERTEX
  5
C13
  8
0
 62
     9
 10
0.0
 20
0.0
 30
0.0
 70
   128
 71
    17
 72
    18
 73
    26
  0
VERTEX
  5
C14
  8
0
 62
     9
 10
0.0
 20
0.0
 30
0.0
 70
   128
 71
    26
 72
    29
 73
    35
  0
VERTEX
  5
C15
  8
0
 62
     9
 10
0.0
 20
0.0
 30
0.0
 70
   128
 71
    27
 72
    28
 73
    30
  0
VERTEX
  5
C16
  8
0
 62
     9
 10
0.0
 20
0.0
 30
0.0
 70
   128
 71
     6
 72
     4
 73
     5
  0
VERTEX
  5
C17
  8
0
 62
     9
 10
0.0
 20
0.0
 30
0.0
 70
   128
 71
    33
 72
    31
 73
    32
  0
VERTEX
  5
C18
  8
0
 62
     9
 10
0.0
 20
0.0
 30
0.0
 70
   128
 71
    34
 72
    24
 73
    36
  0
VERTEX
  5
C19
  8
0
 62
     9
 10
0.0
 20
0.0
 30
0.0
 70
   128
 71
    15
 72
    13
 73
    14
  0
VERTEX
  5
C1A
  8
0
 62
     9
 10
0.0
 20
0.0
 30
0.0
 70
   128
 71
    27
 72
    35
 73
    29
  0
VERTEX
  5
C1B
  8
0
 62
     9
 10
0.0
 20
0.0
 30
0.0
 70
   128
 71
    31
 72
    21
 73
    22
  0
VERTEX
  5
C1C
  8
0
 62
     9
 10
0.0
 20
0.0
 30
0.0
 70
   128
 71
    10
 72
    36
 73
    24
  0
VERTEX
  5
C1D
  8
0
 62
     9
 10
0.0
 20
0.0
 30
0.0
 70
   128
 71
    19
 72
    30
 73
     3
  0
VERTEX
  5
C1E
  8
0
 62
     9
 10
0.0
 20
0.0
 30
0.0
 70
   128
 71
    35
 72
    25
 73
    26
  0
VERTEX
  5
C1F
  8
0
 62
     9
 10
0.0
 20
0.0
 30
0.0
 70
   128
 71
    36
 72
    33
 73
    34
  0
SEQEND
  5
C20
  8
0
 62
     9
  0
ENDBLK
  5
C23
  8
0
  0
BLOCK
  8
0
  2
E3_NODE_110_
 70
     0
 10
0.0
 20
0.0
 30
0.0
  3
E3_NODE_110_
  1

  0
POLYLINE
  5
C25
  8
0
 62
     9
 66
     1
 10
0.0
 20
0.0
 30
0.0
 70
    64
 71
     4
 72
     2
  0
VERTEX
  5
C26
  8
0
 10
39.5
 20
-65.44000244140625
 30
-11.58100032806396
 70
   192
  0
VERTEX
  5
C27
  8
0
 10
39.5
 20
-55.6349983215332
 30
13.97000026702881
 70
   192
  0
VERTEX
  5
C28
  8
0
 10
38.5
 20
-55.6349983215332
 30
13.97000026702881
 70
   192
  0
VERTEX
  5
C29
  8
0
 10
38.5
 20
-65.44000244140625
 30
-11.58100032806396
 70
   192
  0
VERTEX
  5
C2A
  8
0
 62
     9
 10
0.0
 20
0.0
 30
0.0
 70
   128
 71
     3
 72
     2
 73
     1
  0
VERTEX
  5
C2B
  8
0
 62
     9
 10
0.0
 20
0.0
 30
0.0
 70
   128
 71
     1
 72
     4
 73
     3
  0
SEQEND
  5
C2C
  8
0
 62
     9
  0
ENDBLK
  5
C2F
  8
0
  0
BLOCK
  8
0
  2
E3_NODE_111_
 70
     0
 10
0.0
 20
0.0
 30
0.0
  3
E3_NODE_111_
  1

  0
POLYLINE
  5
C31
  8
0
 62
     9
 66
     1
 10
0.0
 20
0.0
 30
0.0
 70
    64
 71
     6
 72
     4
  0
VERTEX
  5
C32
  8
0
 10
39.5
 20
-66.98799896240234
 30
-19.24799919128418
 70
   192
  0
VERTEX
  5
C33
  8
0
 10
39.5
 20
-65.44000244140625
 30
-11.58100032806396
 70
   192
  0
VERTEX
  5
C34
  8
0
 10
38.5
 20
-65.44000244140625
 30
-11.58100032806396
 70
   192
  0
VERTEX
  5
C35
  8
0
 10
39.5
 20
-65.93399810791016
 30
-26.99900054931641
 70
   192
  0
VERTEX
  5
C36
  8
0
 10
38.5
 20
-66.98799896240234
 30
-19.24799919128418
 70
   192
  0
VERTEX
  5
C37
  8
0
 10
38.5
 20
-65.93399810791016
 30
-26.99900054931641
 70
   192
  0
VERTEX
  5
C38
  8
0
 62
     9
 10
0.0
 20
0.0
 30
0.0
 70
   128
 71
     3
 72
     2
 73
     1
  0
VERTEX
  5
C39
  8
0
 62
     9
 10
0.0
 20
0.0
 30
0.0
 70
   128
 71
     5
 72
     1
 73
     4
  0
VERTEX
  5
C3A
  8
0
 62
     9
 10
0.0
 20
0.0
 30
0.0
 70
   128
 71
     4
 72
     6
 73
     5
  0
VERTEX
  5
C3B
  8
0
 62
     9
 10
0.0
 20
0.0
 30
0.0
 70
   128
 71
     1
 72
     5
 73
     3
  0
SEQEND
  5
C3C
  8
0
 62
     9
  0
ENDBLK
  5
C3F
  8
0
  0
BLOCK
  8
0
  2
E3_NODE_112_
 70
     0
 10
0.0
 20
0.0
 30
0.0
  3
E3_NODE_112_
  1

  0
POLYLINE
  5
C41
  8
0
 62
     9
 66
     1
 10
0.0
 20
0.0
 30
0.0
 70
    64
 71
     4
 72
     2
  0
VERTEX
  5
C42
  8
0
 10
39.5
 20
-55.75
 30
-59.63800048828125
 70
   192
  0
VERTEX
  5
C43
  8
0
 10
39.5
 20
-65.93399810791016
 30
-26.99900054931641
 70
   192
  0
VERTEX
  5
C44
  8
0
 10
38.5
 20
-65.93399810791016
 30
-26.99900054931641
 70
   192
  0
VERTEX
  5
C45
  8
0
 10
38.5
 20
-55.75
 30
-59.63800048828125
 70
   192
  0
VERTEX
  5
C46
  8
0
 62
     9
 10
0.0
 20
0.0
 30
0.0
 70
   128
 71
     3
 72
     2
 73
     1
  0
VERTEX
  5
C47
  8
0
 62
     9
 10
0.0
 20
0.0
 30
0.0
 70
   128
 71
     1
 72
     4
 73
     3
  0
SEQEND
  5
C48
  8
0
 62
     9
  0
ENDBLK
  5
C4B
  8
0
  0
BLOCK
  8
0
  2
E3_NODE_113_
 70
     0
 10
0.0
 20
0.0
 30
0.0
  3
E3_NODE_113_
  1

  0
POLYLINE
  5
C4D
  8
0
 62
     9
 66
     1
 10
0.0
 20
0.0
 30
0.0
 70
    64
 71
     6
 72
     4
  0
VERTEX
  5
C4E
  8
0
 10
38.5
 20
-53.75899887084961
 30
-62.43099975585938
 70
   192
  0
VERTEX
  5
C4F
  8
0
 10
39.5
 20
-53.75899887084961
 30
-62.43099975585938
 70
   192
  0
VERTEX
  5
C50
  8
0
 10
39.5
 20
-55.75
 30
-59.63800048828125
 70
   192
  0
VERTEX
  5
C51
  8
0
 10
39.5
 20
-50.5
 30
-63.5
 70
   192
  0
VERTEX
  5
C52
  8
0
 10
38.5
 20
-50.5
 30
-63.5
 70
   192
  0
VERTEX
  5
C53
  8
0
 10
38.5
 20
-55.75
 30
-59.63800048828125
 70
   192
  0
VERTEX
  5
C54
  8
0
 62
     9
 10
0.0
 20
0.0
 30
0.0
 70
   128
 71
     3
 72
     2
 73
     1
  0
VERTEX
  5
C55
  8
0
 62
     9
 10
0.0
 20
0.0
 30
0.0
 70
   128
 71
     1
 72
     2
 73
     4
  0
VERTEX
  5
C56
  8
0
 62
     9
 10
0.0
 20
0.0
 30
0.0
 70
   128
 71
     4
 72
     5
 73
     1
  0
VERTEX
  5
C57
  8
0
 62
     9
 10
0.0
 20
0.0
 30
0.0
 70
   128
 71
     1
 72
     6
 73
     3
  0
SEQEND
  5
C58
  8
0
 62
     9
  0
ENDBLK
  5
C5B
  8
0
  0
BLOCK
  8
0
  2
E3_NODE_114_
 70
     0
 10
0.0
 20
0.0
 30
0.0
  3
E3_NODE_114_
  1

  0
POLYLINE
  5
C5D
  8
0
 62
     9
 66
     1
 10
0.0
 20
0.0
 30
0.0
 70
    64
 71
     4
 72
     2
  0
VERTEX
  5
C5E
  8
0
 10
39.5
 20
50.5
 30
-63.5
 70
   192
  0
VERTEX
  5
C5F
  8
0
 10
39.5
 20
-50.5
 30
-63.5
 70
   192
  0
VERTEX
  5
C60
  8
0
 10
38.5
 20
-50.5
 30
-63.5
 70
   192
  0
VERTEX
  5
C61
  8
0
 10
38.5
 20
50.5
 30
-63.5
 70
   192
  0
VERTEX
  5
C62
  8
0
 62
     9
 10
0.0
 20
0.0
 30
0.0
 70
   128
 71
     3
 72
     2
 73
     1
  0
VERTEX
  5
C63
  8
0
 62
     9
 10
0.0
 20
0.0
 30
0.0
 70
   128
 71
     1
 72
     4
 73
     3
  0
SEQEND
  5
C64
  8
0
 62
     9
  0
ENDBLK
  5
C67
  8
0
  0
BLOCK
  8
0
  2
E3_NODE_115_
 70
     0
 10
0.0
 20
0.0
 30
0.0
  3
E3_NODE_115_
  1

  0
POLYLINE
  5
C69
  8
0
 62
     9
 66
     1
 10
0.0
 20
0.0
 30
0.0
 70
    64
 71
     6
 72
     4
  0
VERTEX
  5
C6A
  8
0
 10
38.5
 20
53.75899887084961
 30
-62.43099975585938
 70
   192
  0
VERTEX
  5
C6B
  8
0
 10
39.5
 20
53.75899887084961
 30
-62.43099975585938
 70
   192
  0
VERTEX
  5
C6C
  8
0
 10
39.5
 20
50.5
 30
-63.5
 70
   192
  0
VERTEX
  5
C6D
  8
0
 10
38.5
 20
55.75
 30
-59.63800048828125
 70
   192
  0
VERTEX
  5
C6E
  8
0
 10
39.5
 20
55.75
 30
-59.63800048828125
 70
   192
  0
VERTEX
  5
C6F
  8
0
 10
38.5
 20
50.5
 30
-63.5
 70
   192
  0
VERTEX
  5
C70
  8
0
 62
     9
 10
0.0
 20
0.0
 30
0.0
 70
   128
 71
     3
 72
     2
 73
     1
  0
VERTEX
  5
C71
  8
0
 62
     9
 10
0.0
 20
0.0
 30
0.0
 70
   128
 71
     2
 72
     5
 73
     4
  0
VERTEX
  5
C72
  8
0
 62
     9
 10
0.0
 20
0.0
 30
0.0
 70
   128
 71
     4
 72
     1
 73
     2
  0
VERTEX
  5
C73
  8
0
 62
     9
 10
0.0
 20
0.0
 30
0.0
 70
   128
 71
     1
 72
     6
 73
     3
  0
SEQEND
  5
C74
  8
0
 62
     9
  0
ENDBLK
  5
C77
  8
0
  0
BLOCK
  8
0
  2
E3_NODE_116_
 70
     0
 10
0.0
 20
0.0
 30
0.0
  3
E3_NODE_116_
  1

  0
POLYLINE
  5
C79
  8
0
 62
     9
 66
     1
 10
0.0
 20
0.0
 30
0.0
 70
    64
 71
     4
 72
     2
  0
VERTEX
  5
C7A
  8
0
 10
39.5
 20
55.75
 30
-59.63800048828125
 70
   192
  0
VERTEX
  5
C7B
  8
0
 10
38.5
 20
55.75
 30
-59.63800048828125
 70
   192
  0
VERTEX
  5
C7C
  8
0
 10
38.5
 20
65.93399810791016
 30
-26.99900054931641
 70
   192
  0
VERTEX
  5
C7D
  8
0
 10
39.5
 20
65.93399810791016
 30
-26.99900054931641
 70
   192
  0
VERTEX
  5
C7E
  8
0
 62
     9
 10
0.0
 20
0.0
 30
0.0
 70
   128
 71
     3
 72
     2
 73
     1
  0
VERTEX
  5
C7F
  8
0
 62
     9
 10
0.0
 20
0.0
 30
0.0
 70
   128
 71
     1
 72
     4
 73
     3
  0
SEQEND
  5
C80
  8
0
 62
     9
  0
ENDBLK
  5
C83
  8
0
  0
BLOCK
  8
0
  2
E3_NODE_117_
 70
     0
 10
0.0
 20
0.0
 30
0.0
  3
E3_NODE_117_
  1

  0
POLYLINE
  5
C85
  8
0
 62
     9
 66
     1
 10
0.0
 20
0.0
 30
0.0
 70
    64
 71
     6
 72
     4
  0
VERTEX
  5
C86
  8
0
 10
38.5
 20
66.98799896240234
 30
-19.24799919128418
 70
   192
  0
VERTEX
  5
C87
  8
0
 10
39.5
 20
66.98799896240234
 30
-19.24799919128418
 70
   192
  0
VERTEX
  5
C88
  8
0
 10
39.5
 20
65.93399810791016
 30
-26.99900054931641
 70
   192
  0
VERTEX
  5
C89
  8
0
 10
38.5
 20
65.44000244140625
 30
-11.58100032806396
 70
   192
  0
VERTEX
  5
C8A
  8
0
 10
39.5
 20
65.44000244140625
 30
-11.58100032806396
 70
   192
  0
VERTEX
  5
C8B
  8
0
 10
38.5
 20
65.93399810791016
 30
-26.99900054931641
 70
   192
  0
VERTEX
  5
C8C
  8
0
 62
     9
 10
0.0
 20
0.0
 30
0.0
 70
   128
 71
     3
 72
     2
 73
     1
  0
VERTEX
  5
C8D
  8
0
 62
     9
 10
0.0
 20
0.0
 30
0.0
 70
   128
 71
     2
 72
     5
 73
     4
  0
VERTEX
  5
C8E
  8
0
 62
     9
 10
0.0
 20
0.0
 30
0.0
 70
   128
 71
     4
 72
     1
 73
     2
  0
VERTEX
  5
C8F
  8
0
 62
     9
 10
0.0
 20
0.0
 30
0.0
 70
   128
 71
     1
 72
     6
 73
     3
  0
SEQEND
  5
C90
  8
0
 62
     9
  0
ENDBLK
  5
C93
  8
0
  0
BLOCK
  8
0
  2
E3_NODE_118_
 70
     0
 10
0.0
 20
0.0
 30
0.0
  3
E3_NODE_118_
  1

  0
POLYLINE
  5
C95
  8
0
 62
     9
 66
     1
 10
0.0
 20
0.0
 30
0.0
 70
    64
 71
     4
 72
     2
  0
VERTEX
  5
C96
  8
0
 10
39.5
 20
65.44000244140625
 30
-11.58100032806396
 70
   192
  0
VERTEX
  5
C97
  8
0
 10
38.5
 20
65.44000244140625
 30
-11.58100032806396
 70
   192
  0
VERTEX
  5
C98
  8
0
 10
38.5
 20
55.6349983215332
 30
13.97000026702881
 70
   192
  0
VERTEX
  5
C99
  8
0
 10
39.5
 20
55.6349983215332
 30
13.97000026702881
 70
   192
  0
VERTEX
  5
C9A
  8
0
 62
     9
 10
0.0
 20
0.0
 30
0.0
 70
   128
 71
     3
 72
     2
 73
     1
  0
VERTEX
  5
C9B
  8
0
 62
     9
 10
0.0
 20
0.0
 30
0.0
 70
   128
 71
     1
 72
     4
 73
     3
  0
SEQEND
  5
C9C
  8
0
 62
     9
  0
ENDBLK
  5
C9F
  8
0
  0
BLOCK
  8
0
  2
E3_NODE_119_
 70
     0
 10
0.0
 20
0.0
 30
0.0
  3
E3_NODE_119_
  1

  0
POLYLINE
  5
CA1
  8
0
 62
     9
 66
     1
 10
0.0
 20
0.0
 30
0.0
 70
    64
 71
     6
 72
     4
  0
VERTEX
  5
CA2
  8
0
 10
38.5
 20
53.6150016784668
 30
16.53300094604492
 70
   192
  0
VERTEX
  5
CA3
  8
0
 10
39.5
 20
53.6150016784668
 30
16.53300094604492
 70
   192
  0
VERTEX
  5
CA4
  8
0
 10
39.5
 20
55.6349983215332
 30
13.97000026702881
 70
   192
  0
VERTEX
  5
CA5
  8
0
 10
38.5
 20
50.5
 30
17.5
 70
   192
  0
VERTEX
  5
CA6
  8
0
 10
39.5
 20
50.5
 30
17.5
 70
   192
  0
VERTEX
  5
CA7
  8
0
 10
38.5
 20
55.6349983215332
 30
13.97000026702881
 70
   192
  0
VERTEX
  5
CA8
  8
0
 62
     9
 10
0.0
 20
0.0
 30
0.0
 70
   128
 71
     3
 72
     2
 73
     1
  0
VERTEX
  5
CA9
  8
0
 62
     9
 10
0.0
 20
0.0
 30
0.0
 70
   128
 71
     2
 72
     5
 73
     4
  0
VERTEX
  5
CAA
  8
0
 62
     9
 10
0.0
 20
0.0
 30
0.0
 70
   128
 71
     4
 72
     1
 73
     2
  0
VERTEX
  5
CAB
  8
0
 62
     9
 10
0.0
 20
0.0
 30
0.0
 70
   128
 71
     1
 72
     6
 73
     3
  0
SEQEND
  5
CAC
  8
0
 62
     9
  0
ENDBLK
  5
CAF
  8
0
  0
BLOCK
  8
0
  2
E3_NODE_120_
 70
     0
 10
0.0
 20
0.0
 30
0.0
  3
E3_NODE_120_
  1

  0
POLYLINE
  5
CB1
  8
0
 62
     9
 66
     1
 10
0.0
 20
0.0
 30
0.0
 70
    64
 71
     4
 72
     2
  0
VERTEX
  5
CB2
  8
0
 10
39.5
 20
-50.5
 30
17.5
 70
   192
  0
VERTEX
  5
CB3
  8
0
 10
39.5
 20
50.5
 30
17.5
 70
   192
  0
VERTEX
  5
CB4
  8
0
 10
38.5
 20
50.5
 30
17.5
 70
   192
  0
VERTEX
  5
CB5
  8
0
 10
38.5
 20
-50.5
 30
17.5
 70
   192
  0
VERTEX
  5
CB6
  8
0
 62
     9
 10
0.0
 20
0.0
 30
0.0
 70
   128
 71
     3
 72
     2
 73
     1
  0
VERTEX
  5
CB7
  8
0
 62
     9
 10
0.0
 20
0.0
 30
0.0
 70
   128
 71
     1
 72
     4
 73
     3
  0
SEQEND
  5
CB8
  8
0
 62
     9
  0
ENDBLK
  5
CBB
  8
0
  0
BLOCK
  8
0
  2
E3_NODE_121_
 70
     0
 10
0.0
 20
0.0
 30
0.0
  3
E3_NODE_121_
  1

  0
POLYLINE
  5
CBD
  8
0
 62
     9
 66
     1
 10
0.0
 20
0.0
 30
0.0
 70
    64
 71
     6
 72
     4
  0
VERTEX
  5
CBE
  8
0
 10
39.5
 20
-53.6150016784668
 30
16.53300094604492
 70
   192
  0
VERTEX
  5
CBF
  8
0
 10
39.5
 20
-50.5
 30
17.5
 70
   192
  0
VERTEX
  5
CC0
  8
0
 10
38.5
 20
-50.5
 30
17.5
 70
   192
  0
VERTEX
  5
CC1
  8
0
 10
38.5
 20
-55.6349983215332
 30
13.97000026702881
 70
   192
  0
VERTEX
  5
CC2
  8
0
 10
39.5
 20
-55.6349983215332
 30
13.97000026702881
 70
   192
  0
VERTEX
  5
CC3
  8
0
 10
38.5
 20
-53.6150016784668
 30
16.53300094604492
 70
   192
  0
VERTEX
  5
CC4
  8
0
 62
     9
 10
0.0
 20
0.0
 30
0.0
 70
   128
 71
     3
 72
     2
 73
     1
  0
VERTEX
  5
CC5
  8
0
 62
     9
 10
0.0
 20
0.0
 30
0.0
 70
   128
 71
     1
 72
     5
 73
     4
  0
VERTEX
  5
CC6
  8
0
 62
     9
 10
0.0
 20
0.0
 30
0.0
 70
   128
 71
     4
 72
     6
 73
     1
  0
VERTEX
  5
CC7
  8
0
 62
     9
 10
0.0
 20
0.0
 30
0.0
 70
   128
 71
     1
 72
     6
 73
     3
  0
SEQEND
  5
CC8
  8
0
 62
     9
  0
ENDBLK
  5
CCB
  8
0
  0
BLOCK
  8
0
  2
E3_NODE_122_
 70
     0
 10
0.0
 20
0.0
 30
0.0
  3
E3_NODE_122_
  1

  0
POLYLINE
  5
CCD
  8
0
 62
     9
 66
     1
 10
0.0
 20
0.0
 30
0.0
 70
    64
 71
    48
 72
    50
  0
VERTEX
  5
CCE
  8
0
 10
38.5
 20
-50.5
 30
17.5
 70
   192
  0
VERTEX
  5
CCF
  8
0
 10
38.5
 20
26.0
 30
17.39999961853027
 70
   192
  0
VERTEX
  5
CD0
  8
0
 10
38.5
 20
-26.0
 30
17.39999961853027
 70
   192
  0
VERTEX
  5
CD1
  8
0
 10
38.5
 20
50.5
 30
17.5
 70
   192
  0
VERTEX
  5
CD2
  8
0
 10
38.5
 20
-53.6150016784668
 30
16.53300094604492
 70
   192
  0
VERTEX
  5
CD3
  8
0
 10
38.5
 20
-55.6349983215332
 30
13.97000026702881
 70
   192
  0
VERTEX
  5
CD4
  8
0
 10
38.5
 20
-62.0
 30
-2.894999980926514
 70
   192
  0
VERTEX
  5
CD5
  8
0
 10
38.5
 20
55.6349983215332
 30
13.97000026702881
 70
   192
  0
VERTEX
  5
CD6
  8
0
 10
38.5
 20
62.0
 30
-2.894999980926514
 70
   192
  0
VERTEX
  5
CD7
  8
0
 10
38.5
 20
-62.0
 30
-8.477999687194824
 70
   192
  0
VERTEX
  5
CD8
  8
0
 10
38.5
 20
65.93399810791016
 30
-26.99900054931641
 70
   192
  0
VERTEX
  5
CD9
  8
0
 10
38.5
 20
65.83799743652344
 30
-26.9689998626709
 70
   192
  0
VERTEX
  5
CDA
  8
0
 10
38.5
 20
66.88800048828125
 30
-19.25099945068359
 70
   192
  0
VERTEX
  5
CDB
  8
0
 10
38.5
 20
55.75
 30
-59.63800048828125
 70
   192
  0
VERTEX
  5
CDC
  8
0
 10
38.5
 20
55.65499877929688
 30
-59.60800170898438
 70
   192
  0
VERTEX
  5
CDD
  8
0
 10
38.5
 20
26.0
 30
15.39999961853027
 70
   192
  0
VERTEX
  5
CDE
  8
0
 10
38.5
 20
63.47900009155273
 30
-12.33300018310547
 70
   192
  0
VERTEX
  5
CDF
  8
0
 10
38.5
 20
64.88899993896484
 30
-19.31500053405762
 70
   192
  0
VERTEX
  5
CE0
  8
0
 10
38.5
 20
53.6150016784668
 30
16.53300094604492
 70
   192
  0
VERTEX
  5
CE1
  8
0
 10
38.5
 20
62.0
 30
-8.477999687194824
 70
   192
  0
VERTEX
  5
CE2
  8
0
 10
38.5
 20
-63.47900009155273
 30
-12.33300018310547
 70
   192
  0
VERTEX
  5
CE3
  8
0
 10
38.5
 20
65.44000244140625
 30
-11.58100032806396
 70
   192
  0
VERTEX
  5
CE4
  8
0
 10
38.5
 20
66.98799896240234
 30
-19.24799919128418
 70
   192
  0
VERTEX
  5
CE5
  8
0
 10
38.5
 20
53.75899887084961
 30
-62.43099975585938
 70
   192
  0
VERTEX
  5
CE6
  8
0
 10
38.5
 20
53.70000076293945
 30
-62.34999847412109
 70
   192
  0
VERTEX
  5
CE7
  8
0
 10
38.5
 20
50.5
 30
-63.5
 70
   192
  0
VERTEX
  5
CE8
  8
0
 10
38.5
 20
50.5
 30
-63.40000152587891
 70
   192
  0
VERTEX
  5
CE9
  8
0
 10
38.5
 20
-50.5
 30
-63.40000152587891
 70
   192
  0
VERTEX
  5
CEA
  8
0
 10
38.5
 20
-65.93399810791016
 30
-26.99900054931641
 70
   192
  0
VERTEX
  5
CEB
  8
0
 10
38.5
 20
-65.83799743652344
 30
-26.9689998626709
 70
   192
  0
VERTEX
  5
CEC
  8
0
 10
38.5
 20
-55.65499877929688
 30
-59.60800170898438
 70
   192
  0
VERTEX
  5
CED
  8
0
 10
38.5
 20
-66.98799896240234
 30
-19.24799919128418
 70
   192
  0
VERTEX
  5
CEE
  8
0
 10
38.5
 20
-66.88800048828125
 30
-19.25099945068359
 70
   192
  0
VERTEX
  5
CEF
  8
0
 10
38.5
 20
-50.5
 30
-61.40000152587891
 70
   192
  0
VERTEX
  5
CF0
  8
0
 10
38.5
 20
-26.0
 30
15.39999961853027
 70
   192
  0
VERTEX
  5
CF1
  8
0
 10
38.5
 20
63.92900085449219
 30
-26.37400054931641
 70
   192
  0
VERTEX
  5
CF2
  8
0
 10
38.5
 20
53.74599838256836
 30
-59.01300048828125
 70
   192
  0
VERTEX
  5
CF3
  8
0
 10
38.5
 20
-64.88899993896484
 30
-19.31500053405762
 70
   192
  0
VERTEX
  5
CF4
  8
0
 10
38.5
 20
65.34700012207031
 30
-11.61600017547607
 70
   192
  0
VERTEX
  5
CF5
  8
0
 10
38.5
 20
-50.5
 30
-63.5
 70
   192
  0
VERTEX
  5
CF6
  8
0
 10
38.5
 20
-53.75899887084961
 30
-62.43099975585938
 70
   192
  0
VERTEX
  5
CF7
  8
0
 10
38.5
 20
-53.70000076293945
 30
-62.34999847412109
 70
   192
  0
VERTEX
  5
CF8
  8
0
 10
38.5
 20
-55.75
 30
-59.63800048828125
 70
   192
  0
VERTEX
  5
CF9
  8
0
 10
38.5
 20
-65.44000244140625
 30
-11.58100032806396
 70
   192
  0
VERTEX
  5
CFA
  8
0
 10
38.5
 20
-65.34700012207031
 30
-11.61600017547607
 70
   192
  0
VERTEX
  5
CFB
  8
0
 10
38.5
 20
50.5
 30
-61.40000152587891
 70
   192
  0
VERTEX
  5
CFC
  8
0
 10
38.5
 20
-63.92900085449219
 30
-26.37400054931641
 70
   192
  0
VERTEX
  5
CFD
  8
0
 10
38.5
 20
-53.74599838256836
 30
-59.01300048828125
 70
   192
  0
VERTEX
  5
CFE
  8
0
 62
     9
 10
0.0
 20
0.0
 30
0.0
 70
   128
 71
     3
 72
     2
 73
     1
  0
VERTEX
  5
CFF
  8
0
 62
     9
 10
0.0
 20
0.0
 30
0.0
 70
   128
 71
     2
 72
     4
 73
     1
  0
VERTEX
  5
D00
  8
0
 62
     9
 10
0.0
 20
0.0
 30
0.0
 70
   128
 71
     1
 72
     5
 73
     3
  0
VERTEX
  5
D01
  8
0
 62
     9
 10
0.0
 20
0.0
 30
0.0
 70
   128
 71
     5
 72
     6
 73
     3
  0
VERTEX
  5
D02
  8
0
 62
     9
 10
0.0
 20
0.0
 30
0.0
 70
   128
 71
     6
 72
     7
 73
     3
  0
VERTEX
  5
D03
  8
0
 62
     9
 10
0.0
 20
0.0
 30
0.0
 70
   128
 71
     9
 72
     8
 73
     4
  0
VERTEX
  5
D04
  8
0
 62
     9
 10
0.0
 20
0.0
 30
0.0
 70
   128
 71
     7
 72
    10
 73
     3
  0
VERTEX
  5
D05
  8
0
 62
     9
 10
0.0
 20
0.0
 30
0.0
 70
   128
 71
    13
 72
    12
 73
    11
  0
VERTEX
  5
D06
  8
0
 62
     9
 10
0.0
 20
0.0
 30
0.0
 70
   128
 71
    12
 72
    15
 73
    14
  0
VERTEX
  5
D07
  8
0
 62
     9
 10
0.0
 20
0.0
 30
0.0
 70
   128
 71
    18
 72
    17
 73
    16
  0
VERTEX
  5
D08
  8
0
 62
     9
 10
0.0
 20
0.0
 30
0.0
 70
   128
 71
     8
 72
    19
 73
     4
  0
VERTEX
  5
D09
  8
0
 62
     9
 10
0.0
 20
0.0
 30
0.0
 70
   128
 71
    16
 72
    20
 73
     4
  0
VERTEX
  5
D0A
  8
0
 62
     9
 10
0.0
 20
0.0
 30
0.0
 70
   128
 71
    10
 72
    21
 73
     3
  0
VERTEX
  5
D0B
  8
0
 62
     9
 10
0.0
 20
0.0
 30
0.0
 70
   128
 71
    13
 72
    23
 73
    22
  0
VERTEX
  5
D0C
  8
0
 62
     9
 10
0.0
 20
0.0
 30
0.0
 70
   128
 71
    14
 72
    11
 73
    12
  0
VERTEX
  5
D0D
  8
0
 62
     9
 10
0.0
 20
0.0
 30
0.0
 70
   128
 71
    25
 72
    24
 73
    14
  0
VERTEX
  5
D0E
  8
0
 62
     9
 10
0.0
 20
0.0
 30
0.0
 70
   128
 71
    25
 72
    27
 73
    26
  0
VERTEX
  5
D0F
  8
0
 62
     9
 10
0.0
 20
0.0
 30
0.0
 70
   128
 71
    26
 72
    27
 73
    28
  0
VERTEX
  5
D10
  8
0
 62
     9
 10
0.0
 20
0.0
 30
0.0
 70
   128
 71
    31
 72
    30
 73
    29
  0
VERTEX
  5
D11
  8
0
 62
     9
 10
0.0
 20
0.0
 30
0.0
 70
   128
 71
    30
 72
    33
 73
    32
  0
VERTEX
  5
D12
  8
0
 62
     9
 10
0.0
 20
0.0
 30
0.0
 70
   128
 71
    17
 72
    20
 73
    16
  0
VERTEX
  5
D13
  8
0
 62
     9
 10
0.0
 20
0.0
 30
0.0
 70
   128
 71
     4
 72
     2
 73
    16
  0
VERTEX
  5
D14
  8
0
 62
     9
 10
0.0
 20
0.0
 30
0.0
 70
   128
 71
    16
 72
    35
 73
    34
  0
VERTEX
  5
D15
  8
0
 62
     9
 10
0.0
 20
0.0
 30
0.0
 70
   128
 71
    37
 72
    36
 73
    16
  0
VERTEX
  5
D16
  8
0
 62
     9
 10
0.0
 20
0.0
 30
0.0
 70
   128
 71
    21
 72
    38
 73
     3
  0
VERTEX
  5
D17
  8
0
 62
     9
 10
0.0
 20
0.0
 30
0.0
 70
   128
 71
    22
 72
    39
 73
    13
  0
VERTEX
  5
D18
  8
0
 62
     9
 10
0.0
 20
0.0
 30
0.0
 70
   128
 71
    14
 72
    15
 73
    25
  0
VERTEX
  5
D19
  8
0
 62
     9
 10
0.0
 20
0.0
 30
0.0
 70
   128
 71
    28
 72
    40
 73
    26
  0
VERTEX
  5
D1A
  8
0
 62
     9
 10
0.0
 20
0.0
 30
0.0
 70
   128
 71
    28
 72
    42
 73
    41
  0
VERTEX
  5
D1B
  8
0
 62
     9
 10
0.0
 20
0.0
 30
0.0
 70
   128
 71
    42
 72
    31
 73
    43
  0
VERTEX
  5
D1C
  8
0
 62
     9
 10
0.0
 20
0.0
 30
0.0
 70
   128
 71
    32
 72
    29
 73
    30
  0
VERTEX
  5
D1D
  8
0
 62
     9
 10
0.0
 20
0.0
 30
0.0
 70
   128
 71
    33
 72
    45
 73
    44
  0
VERTEX
  5
D1E
  8
0
 62
     9
 10
0.0
 20
0.0
 30
0.0
 70
   128
 71
     7
 72
     6
 73
    44
  0
VERTEX
  5
D1F
  8
0
 62
     9
 10
0.0
 20
0.0
 30
0.0
 70
   128
 71
     4
 72
    20
 73
     9
  0
VERTEX
  5
D20
  8
0
 62
     9
 10
0.0
 20
0.0
 30
0.0
 70
   128
 71
    16
 72
    46
 73
    37
  0
VERTEX
  5
D21
  8
0
 62
     9
 10
0.0
 20
0.0
 30
0.0
 70
   128
 71
    38
 72
    47
 73
     3
  0
VERTEX
  5
D22
  8
0
 62
     9
 10
0.0
 20
0.0
 30
0.0
 70
   128
 71
    11
 72
    23
 73
    13
  0
VERTEX
  5
D23
  8
0
 62
     9
 10
0.0
 20
0.0
 30
0.0
 70
   128
 71
    41
 72
    40
 73
    28
  0
VERTEX
  5
D24
  8
0
 62
     9
 10
0.0
 20
0.0
 30
0.0
 70
   128
 71
    29
 72
    43
 73
    31
  0
VERTEX
  5
D25
  8
0
 62
     9
 10
0.0
 20
0.0
 30
0.0
 70
   128
 71
    44
 72
    45
 73
     7
  0
VERTEX
  5
D26
  8
0
 62
     9
 10
0.0
 20
0.0
 30
0.0
 70
   128
 71
    34
 72
    46
 73
    16
  0
VERTEX
  5
D27
  8
0
 62
     9
 10
0.0
 20
0.0
 30
0.0
 70
   128
 71
    47
 72
    48
 73
     3
  0
VERTEX
  5
D28
  8
0
 62
     9
 10
0.0
 20
0.0
 30
0.0
 70
   128
 71
    26
 72
    24
 73
    25
  0
VERTEX
  5
D29
  8
0
 62
     9
 10
0.0
 20
0.0
 30
0.0
 70
   128
 71
    44
 72
    32
 73
    33
  0
VERTEX
  5
D2A
  8
0
 62
     9
 10
0.0
 20
0.0
 30
0.0
 70
   128
 71
    35
 72
     3
 73
    34
  0
VERTEX
  5
D2B
  8
0
 62
     9
 10
0.0
 20
0.0
 30
0.0
 70
   128
 71
    48
 72
    34
 73
     3
  0
VERTEX
  5
D2C
  8
0
 62
     9
 10
0.0
 20
0.0
 30
0.0
 70
   128
 71
    43
 72
    41
 73
    42
  0
VERTEX
  5
D2D
  8
0
 62
     9
 10
0.0
 20
0.0
 30
0.0
 70
   128
 71
    16
 72
    36
 73
    18
  0
VERTEX
  5
D2E
  8
0
 62
     9
 10
0.0
 20
0.0
 30
0.0
 70
   128
 71
    22
 72
     9
 73
    39
  0
VERTEX
  5
D2F
  8
0
 62
     9
 10
0.0
 20
0.0
 30
0.0
 70
   128
 71
    22
 72
     8
 73
     9
  0
SEQEND
  5
D30
  8
0
 62
     9
  0
ENDBLK
  5
D33
  8
0
  0
BLOCK
  8
0
  2
E3_NODE_123_
 70
     0
 10
0.0
 20
0.0
 30
0.0
  3
E3_NODE_123_
  1

  0
POLYLINE
  5
D35
  8
0
 62
     9
 66
     1
 10
0.0
 20
0.0
 30
0.0
 70
    64
 71
     4
 72
     2
  0
VERTEX
  5
D36
  8
0
 10
20.5
 20
-62.0
 30
-2.894999980926514
 70
   192
  0
VERTEX
  5
D37
  8
0
 10
38.5
 20
-62.0
 30
-2.894999980926514
 70
   192
  0
VERTEX
  5
D38
  8
0
 10
38.5
 20
-62.0
 30
-8.477999687194824
 70
   192
  0
VERTEX
  5
D39
  8
0
 10
20.5
 20
-62.0
 30
-8.477999687194824
 70
   192
  0
VERTEX
  5
D3A
  8
0
 62
     9
 10
0.0
 20
0.0
 30
0.0
 70
   128
 71
     3
 72
     2
 73
     1
  0
VERTEX
  5
D3B
  8
0
 62
     9
 10
0.0
 20
0.0
 30
0.0
 70
   128
 71
     1
 72
     4
 73
     3
  0
SEQEND
  5
D3C
  8
0
 62
     9
  0
ENDBLK
  5
D3F
  8
0
  0
BLOCK
  8
0
  2
E3_NODE_124_
 70
     0
 10
0.0
 20
0.0
 30
0.0
  3
E3_NODE_124_
  1

  0
POLYLINE
  5
D41
  8
0
 62
     9
 66
     1
 10
0.0
 20
0.0
 30
0.0
 70
    64
 71
    26
 72
    24
  0
VERTEX
  5
D42
  8
0
 10
20.5
 20
53.70000076293945
 30
-62.34999847412109
 70
   192
  0
VERTEX
  5
D43
  8
0
 10
20.5
 20
50.5
 30
-61.40000152587891
 70
   192
  0
VERTEX
  5
D44
  8
0
 10
20.5
 20
53.74599838256836
 30
-59.01300048828125
 70
   192
  0
VERTEX
  5
D45
  8
0
 10
20.5
 20
55.65499877929688
 30
-59.60800170898438
 70
   192
  0
VERTEX
  5
D46
  8
0
 10
20.5
 20
-50.5
 30
-61.40000152587891
 70
   192
  0
VERTEX
  5
D47
  8
0
 10
20.5
 20
50.5
 30
-63.40000152587891
 70
   192
  0
VERTEX
  5
D48
  8
0
 10
20.5
 20
-53.70000076293945
 30
-62.34999847412109
 70
   192
  0
VERTEX
  5
D49
  8
0
 10
20.5
 20
-53.74599838256836
 30
-59.01300048828125
 70
   192
  0
VERTEX
  5
D4A
  8
0
 10
20.5
 20
-63.92900085449219
 30
-26.37400054931641
 70
   192
  0
VERTEX
  5
D4B
  8
0
 10
20.5
 20
-55.65499877929688
 30
-59.60800170898438
 70
   192
  0
VERTEX
  5
D4C
  8
0
 10
20.5
 20
-66.88800048828125
 30
-19.25099945068359
 70
   192
  0
VERTEX
  5
D4D
  8
0
 10
20.5
 20
-64.88899993896484
 30
-19.31500053405762
 70
   192
  0
VERTEX
  5
D4E
  8
0
 10
20.5
 20
-65.34700012207031
 30
-11.61600017547607
 70
   192
  0
VERTEX
  5
D4F
  8
0
 10
20.5
 20
-63.47900009155273
 30
-12.33300018310547
 70
   192
  0
VERTEX
  5
D50
  8
0
 10
20.5
 20
-62.0
 30
-2.894999980926514
 70
   192
  0
VERTEX
  5
D51
  8
0
 10
20.5
 20
-62.0
 30
-8.477999687194824
 70
   192
  0
VERTEX
  5
D52
  8
0
 10
20.5
 20
65.34700012207031
 30
-11.61600017547607
 70
   192
  0
VERTEX
  5
D53
  8
0
 10
20.5
 20
63.47900009155273
 30
-12.33300018310547
 70
   192
  0
VERTEX
  5
D54
  8
0
 10
20.5
 20
62.0
 30
-8.477999687194824
 70
   192
  0
VERTEX
  5
D55
  8
0
 10
20.5
 20
66.88800048828125
 30
-19.25099945068359
 70
   192
  0
VERTEX
  5
D56
  8
0
 10
20.5
 20
64.88899993896484
 30
-19.31500053405762
 70
   192
  0
VERTEX
  5
D57
  8
0
 10
20.5
 20
65.83799743652344
 30
-26.9689998626709
 70
   192
  0
VERTEX
  5
D58
  8
0
 10
20.5
 20
63.92900085449219
 30
-26.37400054931641
 70
   192
  0
VERTEX
  5
D59
  8
0
 10
20.5
 20
-50.5
 30
-63.40000152587891
 70
   192
  0
VERTEX
  5
D5A
  8
0
 10
20.5
 20
-65.83799743652344
 30
-26.9689998626709
 70
   192
  0
VERTEX
  5
D5B
  8
0
 10
20.5
 20
62.0
 30
-2.894999980926514
 70
   192
  0
VERTEX
  5
D5C
  8
0
 62
     9
 10
0.0
 20
0.0
 30
0.0
 70
   128
 71
     3
 72
     2
 73
     1
  0
VERTEX
  5
D5D
  8
0
 62
     9
 10
0.0
 20
0.0
 30
0.0
 70
   128
 71
     1
 72
     4
 73
     3
  0
VERTEX
  5
D5E
  8
0
 62
     9
 10
0.0
 20
0.0
 30
0.0
 70
   128
 71
     6
 72
     2
 73
     5
  0
VERTEX
  5
D5F
  8
0
 62
     9
 10
0.0
 20
0.0
 30
0.0
 70
   128
 71
     5
 72
     8
 73
     7
  0
VERTEX
  5
D60
  8
0
 62
     9
 10
0.0
 20
0.0
 30
0.0
 70
   128
 71
    10
 72
     8
 73
     9
  0
VERTEX
  5
D61
  8
0
 62
     9
 10
0.0
 20
0.0
 30
0.0
 70
   128
 71
     9
 72
    12
 73
    11
  0
VERTEX
  5
D62
  8
0
 62
     9
 10
0.0
 20
0.0
 30
0.0
 70
   128
 71
    14
 72
    13
 73
    11
  0
VERTEX
  5
D63
  8
0
 62
     9
 10
0.0
 20
0.0
 30
0.0
 70
   128
 71
    16
 72
    15
 73
    13
  0
VERTEX
  5
D64
  8
0
 62
     9
 10
0.0
 20
0.0
 30
0.0
 70
   128
 71
    19
 72
    18
 73
    17
  0
VERTEX
  5
D65
  8
0
 62
     9
 10
0.0
 20
0.0
 30
0.0
 70
   128
 71
    18
 72
    21
 73
    20
  0
VERTEX
  5
D66
  8
0
 62
     9
 10
0.0
 20
0.0
 30
0.0
 70
   128
 71
    21
 72
    23
 73
    22
  0
VERTEX
  5
D67
  8
0
 62
     9
 10
0.0
 20
0.0
 30
0.0
 70
   128
 71
     4
 72
    22
 73
    23
  0
VERTEX
  5
D68
  8
0
 62
     9
 10
0.0
 20
0.0
 30
0.0
 70
   128
 71
     5
 72
    24
 73
     6
  0
VERTEX
  5
D69
  8
0
 62
     9
 10
0.0
 20
0.0
 30
0.0
 70
   128
 71
     7
 72
    24
 73
     5
  0
VERTEX
  5
D6A
  8
0
 62
     9
 10
0.0
 20
0.0
 30
0.0
 70
   128
 71
    11
 72
    25
 73
     9
  0
VERTEX
  5
D6B
  8
0
 62
     9
 10
0.0
 20
0.0
 30
0.0
 70
   128
 71
    13
 72
    14
 73
    16
  0
VERTEX
  5
D6C
  8
0
 62
     9
 10
0.0
 20
0.0
 30
0.0
 70
   128
 71
    20
 72
    17
 73
    18
  0
VERTEX
  5
D6D
  8
0
 62
     9
 10
0.0
 20
0.0
 30
0.0
 70
   128
 71
    23
 72
     3
 73
     4
  0
VERTEX
  5
D6E
  8
0
 62
     9
 10
0.0
 20
0.0
 30
0.0
 70
   128
 71
     8
 72
    10
 73
     7
  0
VERTEX
  5
D6F
  8
0
 62
     9
 10
0.0
 20
0.0
 30
0.0
 70
   128
 71
    11
 72
    12
 73
    14
  0
VERTEX
  5
D70
  8
0
 62
     9
 10
0.0
 20
0.0
 30
0.0
 70
   128
 71
    22
 72
    20
 73
    21
  0
VERTEX
  5
D71
  8
0
 62
     9
 10
0.0
 20
0.0
 30
0.0
 70
   128
 71
     9
 72
    25
 73
    10
  0
VERTEX
  5
D72
  8
0
 62
     9
 10
0.0
 20
0.0
 30
0.0
 70
   128
 71
     2
 72
     6
 73
     1
  0
VERTEX
  5
D73
  8
0
 62
     9
 10
0.0
 20
0.0
 30
0.0
 70
   128
 71
    17
 72
    26
 73
    19
  0
SEQEND
  5
D74
  8
0
 62
     9
  0
ENDBLK
  5
D77
  8
0
  0
BLOCK
  8
0
  2
E3_NODE_125_
 70
     0
 10
0.0
 20
0.0
 30
0.0
  3
E3_NODE_125_
  1

  0
POLYLINE
  5
D79
  8
0
 62
     9
 66
     1
 10
0.0
 20
0.0
 30
0.0
 70
    64
 71
     4
 72
     2
  0
VERTEX
  5
D7A
  8
0
 10
20.5
 20
62.0
 30
-2.894999980926514
 70
   192
  0
VERTEX
  5
D7B
  8
0
 10
20.5
 20
62.0
 30
-8.477999687194824
 70
   192
  0
VERTEX
  5
D7C
  8
0
 10
38.5
 20
62.0
 30
-8.477999687194824
 70
   192
  0
VERTEX
  5
D7D
  8
0
 10
38.5
 20
62.0
 30
-2.894999980926514
 70
   192
  0
VERTEX
  5
D7E
  8
0
 62
     9
 10
0.0
 20
0.0
 30
0.0
 70
   128
 71
     3
 72
     2
 73
     1
  0
VERTEX
  5
D7F
  8
0
 62
     9
 10
0.0
 20
0.0
 30
0.0
 70
   128
 71
     1
 72
     4
 73
     3
  0
SEQEND
  5
D80
  8
0
 62
     9
  0
ENDBLK
  5
D83
  8
0
  0
BLOCK
  8
0
  2
E3_NODE_126_
 70
     0
 10
0.0
 20
0.0
 30
0.0
  3
E3_NODE_126_
  1

  0
POLYLINE
  5
D85
  8
0
 62
     9
 66
     1
 10
0.0
 20
0.0
 30
0.0
 70
    64
 71
     4
 72
     2
  0
VERTEX
  5
D86
  8
0
 10
20.5
 20
-62.0
 30
-2.894999980926514
 70
   192
  0
VERTEX
  5
D87
  8
0
 10
20.5
 20
-65.34700012207031
 30
-11.61600017547607
 70
   192
  0
VERTEX
  5
D88
  8
0
 10
38.5
 20
-65.34700012207031
 30
-11.61600017547607
 70
   192
  0
VERTEX
  5
D89
  8
0
 10
38.5
 20
-62.0
 30
-2.894999980926514
 70
   192
  0
VERTEX
  5
D8A
  8
0
 62
     9
 10
0.0
 20
0.0
 30
0.0
 70
   128
 71
     3
 72
     2
 73
     1
  0
VERTEX
  5
D8B
  8
0
 62
     9
 10
0.0
 20
0.0
 30
0.0
 70
   128
 71
     1
 72
     4
 73
     3
  0
SEQEND
  5
D8C
  8
0
 62
     9
  0
ENDBLK
  5
D8F
  8
0
  0
BLOCK
  8
0
  2
E3_NODE_127_
 70
     0
 10
0.0
 20
0.0
 30
0.0
  3
E3_NODE_127_
  1

  0
POLYLINE
  5
D91
  8
0
 62
     9
 66
     1
 10
0.0
 20
0.0
 30
0.0
 70
    64
 71
     4
 72
     2
  0
VERTEX
  5
D92
  8
0
 10
20.5
 20
62.0
 30
-8.477999687194824
 70
   192
  0
VERTEX
  5
D93
  8
0
 10
20.5
 20
63.47900009155273
 30
-12.33300018310547
 70
   192
  0
VERTEX
  5
D94
  8
0
 10
38.5
 20
63.47900009155273
 30
-12.33300018310547
 70
   192
  0
VERTEX
  5
D95
  8
0
 10
38.5
 20
62.0
 30
-8.477999687194824
 70
   192
  0
VERTEX
  5
D96
  8
0
 62
     9
 10
0.0
 20
0.0
 30
0.0
 70
   128
 71
     3
 72
     2
 73
     1
  0
VERTEX
  5
D97
  8
0
 62
     9
 10
0.0
 20
0.0
 30
0.0
 70
   128
 71
     1
 72
     4
 73
     3
  0
SEQEND
  5
D98
  8
0
 62
     9
  0
ENDBLK
  5
D9B
  8
0
  0
BLOCK
  8
0
  2
E3_NODE_128_
 70
     0
 10
0.0
 20
0.0
 30
0.0
  3
E3_NODE_128_
  1

  0
POLYLINE
  5
D9D
  8
0
 62
     9
 66
     1
 10
0.0
 20
0.0
 30
0.0
 70
    64
 71
     6
 72
     4
  0
VERTEX
  5
D9E
  8
0
 10
20.5
 20
64.88899993896484
 30
-19.31500053405762
 70
   192
  0
VERTEX
  5
D9F
  8
0
 10
38.5
 20
64.88899993896484
 30
-19.31500053405762
 70
   192
  0
VERTEX
  5
DA0
  8
0
 10
38.5
 20
63.47900009155273
 30
-12.33300018310547
 70
   192
  0
VERTEX
  5
DA1
  8
0
 10
20.5
 20
63.92900085449219
 30
-26.37400054931641
 70
   192
  0
VERTEX
  5
DA2
  8
0
 10
38.5
 20
63.92900085449219
 30
-26.37400054931641
 70
   192
  0
VERTEX
  5
DA3
  8
0
 10
20.5
 20
63.47900009155273
 30
-12.33300018310547
 70
   192
  0
VERTEX
  5
DA4
  8
0
 62
     9
 10
0.0
 20
0.0
 30
0.0
 70
   128
 71
     3
 72
     2
 73
     1
  0
VERTEX
  5
DA5
  8
0
 62
     9
 10
0.0
 20
0.0
 30
0.0
 70
   128
 71
     5
 72
     4
 73
     1
  0
VERTEX
  5
DA6
  8
0
 62
     9
 10
0.0
 20
0.0
 30
0.0
 70
   128
 71
     1
 72
     2
 73
     5
  0
VERTEX
  5
DA7
  8
0
 62
     9
 10
0.0
 20
0.0
 30
0.0
 70
   128
 71
     1
 72
     6
 73
     3
  0
SEQEND
  5
DA8
  8
0
 62
     9
  0
ENDBLK
  5
DAB
  8
0
  0
BLOCK
  8
0
  2
E3_NODE_129_
 70
     0
 10
0.0
 20
0.0
 30
0.0
  3
E3_NODE_129_
  1

  0
POLYLINE
  5
DAD
  8
0
 62
     9
 66
     1
 10
0.0
 20
0.0
 30
0.0
 70
    64
 71
     4
 72
     2
  0
VERTEX
  5
DAE
  8
0
 10
20.5
 20
63.92900085449219
 30
-26.37400054931641
 70
   192
  0
VERTEX
  5
DAF
  8
0
 10
20.5
 20
53.74599838256836
 30
-59.01300048828125
 70
   192
  0
VERTEX
  5
DB0
  8
0
 10
38.5
 20
53.74599838256836
 30
-59.01300048828125
 70
   192
  0
VERTEX
  5
DB1
  8
0
 10
38.5
 20
63.92900085449219
 30
-26.37400054931641
 70
   192
  0
VERTEX
  5
DB2
  8
0
 62
     9
 10
0.0
 20
0.0
 30
0.0
 70
   128
 71
     3
 72
     2
 73
     1
  0
VERTEX
  5
DB3
  8
0
 62
     9
 10
0.0
 20
0.0
 30
0.0
 70
   128
 71
     1
 72
     4
 73
     3
  0
SEQEND
  5
DB4
  8
0
 62
     9
  0
ENDBLK
  5
DB7
  8
0
  0
BLOCK
  8
0
  2
E3_NODE_130_
 70
     0
 10
0.0
 20
0.0
 30
0.0
  3
E3_NODE_130_
  1

  0
POLYLINE
  5
DB9
  8
0
 62
     9
 66
     1
 10
0.0
 20
0.0
 30
0.0
 70
    64
 71
     4
 72
     2
  0
VERTEX
  5
DBA
  8
0
 10
20.5
 20
53.74599838256836
 30
-59.01300048828125
 70
   192
  0
VERTEX
  5
DBB
  8
0
 10
20.5
 20
50.5
 30
-61.40000152587891
 70
   192
  0
VERTEX
  5
DBC
  8
0
 10
38.5
 20
50.5
 30
-61.40000152587891
 70
   192
  0
VERTEX
  5
DBD
  8
0
 10
38.5
 20
53.74599838256836
 30
-59.01300048828125
 70
   192
  0
VERTEX
  5
DBE
  8
0
 62
     9
 10
0.0
 20
0.0
 30
0.0
 70
   128
 71
     3
 72
     2
 73
     1
  0
VERTEX
  5
DBF
  8
0
 62
     9
 10
0.0
 20
0.0
 30
0.0
 70
   128
 71
     1
 72
     4
 73
     3
  0
SEQEND
  5
DC0
  8
0
 62
     9
  0
ENDBLK
  5
DC3
  8
0
  0
BLOCK
  8
0
  2
E3_NODE_131_
 70
     0
 10
0.0
 20
0.0
 30
0.0
  3
E3_NODE_131_
  1

  0
POLYLINE
  5
DC5
  8
0
 62
     9
 66
     1
 10
0.0
 20
0.0
 30
0.0
 70
    64
 71
     4
 72
     2
  0
VERTEX
  5
DC6
  8
0
 10
20.5
 20
50.5
 30
-61.40000152587891
 70
   192
  0
VERTEX
  5
DC7
  8
0
 10
20.5
 20
-50.5
 30
-61.40000152587891
 70
   192
  0
VERTEX
  5
DC8
  8
0
 10
38.5
 20
-50.5
 30
-61.40000152587891
 70
   192
  0
VERTEX
  5
DC9
  8
0
 10
38.5
 20
50.5
 30
-61.40000152587891
 70
   192
  0
VERTEX
  5
DCA
  8
0
 62
     9
 10
0.0
 20
0.0
 30
0.0
 70
   128
 71
     3
 72
     2
 73
     1
  0
VERTEX
  5
DCB
  8
0
 62
     9
 10
0.0
 20
0.0
 30
0.0
 70
   128
 71
     1
 72
     4
 73
     3
  0
SEQEND
  5
DCC
  8
0
 62
     9
  0
ENDBLK
  5
DCF
  8
0
  0
BLOCK
  8
0
  2
E3_NODE_132_
 70
     0
 10
0.0
 20
0.0
 30
0.0
  3
E3_NODE_132_
  1

  0
POLYLINE
  5
DD1
  8
0
 62
     9
 66
     1
 10
0.0
 20
0.0
 30
0.0
 70
    64
 71
     4
 72
     2
  0
VERTEX
  5
DD2
  8
0
 10
20.5
 20
-50.5
 30
-61.40000152587891
 70
   192
  0
VERTEX
  5
DD3
  8
0
 10
20.5
 20
-53.74599838256836
 30
-59.01300048828125
 70
   192
  0
VERTEX
  5
DD4
  8
0
 10
38.5
 20
-53.74599838256836
 30
-59.01300048828125
 70
   192
  0
VERTEX
  5
DD5
  8
0
 10
38.5
 20
-50.5
 30
-61.40000152587891
 70
   192
  0
VERTEX
  5
DD6
  8
0
 62
     9
 10
0.0
 20
0.0
 30
0.0
 70
   128
 71
     3
 72
     2
 73
     1
  0
VERTEX
  5
DD7
  8
0
 62
     9
 10
0.0
 20
0.0
 30
0.0
 70
   128
 71
     1
 72
     4
 73
     3
  0
SEQEND
  5
DD8
  8
0
 62
     9
  0
ENDBLK
  5
DDB
  8
0
  0
BLOCK
  8
0
  2
E3_NODE_133_
 70
     0
 10
0.0
 20
0.0
 30
0.0
  3
E3_NODE_133_
  1

  0
POLYLINE
  5
DDD
  8
0
 62
     9
 66
     1
 10
0.0
 20
0.0
 30
0.0
 70
    64
 71
     4
 72
     2
  0
VERTEX
  5
DDE
  8
0
 10
20.5
 20
-53.74599838256836
 30
-59.01300048828125
 70
   192
  0
VERTEX
  5
DDF
  8
0
 10
20.5
 20
-63.92900085449219
 30
-26.37400054931641
 70
   192
  0
VERTEX
  5
DE0
  8
0
 10
38.5
 20
-63.92900085449219
 30
-26.37400054931641
 70
   192
  0
VERTEX
  5
DE1
  8
0
 10
38.5
 20
-53.74599838256836
 30
-59.01300048828125
 70
   192
  0
VERTEX
  5
DE2
  8
0
 62
     9
 10
0.0
 20
0.0
 30
0.0
 70
   128
 71
     3
 72
     2
 73
     1
  0
VERTEX
  5
DE3
  8
0
 62
     9
 10
0.0
 20
0.0
 30
0.0
 70
   128
 71
     1
 72
     4
 73
     3
  0
SEQEND
  5
DE4
  8
0
 62
     9
  0
ENDBLK
  5
DE7
  8
0
  0
BLOCK
  8
0
  2
E3_NODE_134_
 70
     0
 10
0.0
 20
0.0
 30
0.0
  3
E3_NODE_134_
  1

  0
POLYLINE
  5
DE9
  8
0
 62
     9
 66
     1
 10
0.0
 20
0.0
 30
0.0
 70
    64
 71
     6
 72
     4
  0
VERTEX
  5
DEA
  8
0
 10
20.5
 20
-63.92900085449219
 30
-26.37400054931641
 70
   192
  0
VERTEX
  5
DEB
  8
0
 10
20.5
 20
-64.88899993896484
 30
-19.31500053405762
 70
   192
  0
VERTEX
  5
DEC
  8
0
 10
38.5
 20
-64.88899993896484
 30
-19.31500053405762
 70
   192
  0
VERTEX
  5
DED
  8
0
 10
20.5
 20
-63.47900009155273
 30
-12.33300018310547
 70
   192
  0
VERTEX
  5
DEE
  8
0
 10
38.5
 20
-63.47900009155273
 30
-12.33300018310547
 70
   192
  0
VERTEX
  5
DEF
  8
0
 10
38.5
 20
-63.92900085449219
 30
-26.37400054931641
 70
   192
  0
VERTEX
  5
DF0
  8
0
 62
     9
 10
0.0
 20
0.0
 30
0.0
 70
   128
 71
     3
 72
     2
 73
     1
  0
VERTEX
  5
DF1
  8
0
 62
     9
 10
0.0
 20
0.0
 30
0.0
 70
   128
 71
     3
 72
     5
 73
     4
  0
VERTEX
  5
DF2
  8
0
 62
     9
 10
0.0
 20
0.0
 30
0.0
 70
   128
 71
     4
 72
     2
 73
     3
  0
VERTEX
  5
DF3
  8
0
 62
     9
 10
0.0
 20
0.0
 30
0.0
 70
   128
 71
     1
 72
     6
 73
     3
  0
SEQEND
  5
DF4
  8
0
 62
     9
  0
ENDBLK
  5
DF7
  8
0
  0
BLOCK
  8
0
  2
E3_NODE_135_
 70
     0
 10
0.0
 20
0.0
 30
0.0
  3
E3_NODE_135_
  1

  0
POLYLINE
  5
DF9
  8
0
 62
     9
 66
     1
 10
0.0
 20
0.0
 30
0.0
 70
    64
 71
     4
 72
     2
  0
VERTEX
  5
DFA
  8
0
 10
20.5
 20
-63.47900009155273
 30
-12.33300018310547
 70
   192
  0
VERTEX
  5
DFB
  8
0
 10
20.5
 20
-62.0
 30
-8.477999687194824
 70
   192
  0
VERTEX
  5
DFC
  8
0
 10
38.5
 20
-62.0
 30
-8.477999687194824
 70
   192
  0
VERTEX
  5
DFD
  8
0
 10
38.5
 20
-63.47900009155273
 30
-12.33300018310547
 70
   192
  0
VERTEX
  5
DFE
  8
0
 62
     9
 10
0.0
 20
0.0
 30
0.0
 70
   128
 71
     3
 72
     2
 73
     1
  0
VERTEX
  5
DFF
  8
0
 62
     9
 10
0.0
 20
0.0
 30
0.0
 70
   128
 71
     1
 72
     4
 73
     3
  0
SEQEND
  5
E00
  8
0
 62
     9
  0
ENDBLK
  5
E03
  8
0
  0
BLOCK
  8
0
  2
E3_NODE_136_
 70
     0
 10
0.0
 20
0.0
 30
0.0
  3
E3_NODE_136_
  1

  0
POLYLINE
  5
E05
  8
0
 62
     9
 66
     1
 10
0.0
 20
0.0
 30
0.0
 70
    64
 71
     6
 72
     4
  0
VERTEX
  5
E06
  8
0
 10
20.5
 20
-65.34700012207031
 30
-11.61600017547607
 70
   192
  0
VERTEX
  5
E07
  8
0
 10
20.5
 20
-66.88800048828125
 30
-19.25099945068359
 70
   192
  0
VERTEX
  5
E08
  8
0
 10
38.5
 20
-66.88800048828125
 30
-19.25099945068359
 70
   192
  0
VERTEX
  5
E09
  8
0
 10
20.5
 20
-65.83799743652344
 30
-26.9689998626709
 70
   192
  0
VERTEX
  5
E0A
  8
0
 10
38.5
 20
-65.83799743652344
 30
-26.9689998626709
 70
   192
  0
VERTEX
  5
E0B
  8
0
 10
38.5
 20
-65.34700012207031
 30
-11.61600017547607
 70
   192
  0
VERTEX
  5
E0C
  8
0
 62
     9
 10
0.0
 20
0.0
 30
0.0
 70
   128
 71
     3
 72
     2
 73
     1
  0
VERTEX
  5
E0D
  8
0
 62
     9
 10
0.0
 20
0.0
 30
0.0
 70
   128
 71
     3
 72
     5
 73
     4
  0
VERTEX
  5
E0E
  8
0
 62
     9
 10
0.0
 20
0.0
 30
0.0
 70
   128
 71
     4
 72
     2
 73
     3
  0
VERTEX
  5
E0F
  8
0
 62
     9
 10
0.0
 20
0.0
 30
0.0
 70
   128
 71
     1
 72
     6
 73
     3
  0
SEQEND
  5
E10
  8
0
 62
     9
  0
ENDBLK
  5
E13
  8
0
  0
BLOCK
  8
0
  2
E3_NODE_137_
 70
     0
 10
0.0
 20
0.0
 30
0.0
  3
E3_NODE_137_
  1

  0
POLYLINE
  5
E15
  8
0
 62
     9
 66
     1
 10
0.0
 20
0.0
 30
0.0
 70
    64
 71
     4
 72
     2
  0
VERTEX
  5
E16
  8
0
 10
38.5
 20
-55.65499877929688
 30
-59.60800170898438
 70
   192
  0
VERTEX
  5
E17
  8
0
 10
38.5
 20
-65.83799743652344
 30
-26.9689998626709
 70
   192
  0
VERTEX
  5
E18
  8
0
 10
20.5
 20
-65.83799743652344
 30
-26.9689998626709
 70
   192
  0
VERTEX
  5
E19
  8
0
 10
20.5
 20
-55.65499877929688
 30
-59.60800170898438
 70
   192
  0
VERTEX
  5
E1A
  8
0
 62
     9
 10
0.0
 20
0.0
 30
0.0
 70
   128
 71
     3
 72
     2
 73
     1
  0
VERTEX
  5
E1B
  8
0
 62
     9
 10
0.0
 20
0.0
 30
0.0
 70
   128
 71
     1
 72
     4
 73
     3
  0
SEQEND
  5
E1C
  8
0
 62
     9
  0
ENDBLK
  5
E1F
  8
0
  0
BLOCK
  8
0
  2
E3_NODE_138_
 70
     0
 10
0.0
 20
0.0
 30
0.0
  3
E3_NODE_138_
  1

  0
POLYLINE
  5
E21
  8
0
 62
     9
 66
     1
 10
0.0
 20
0.0
 30
0.0
 70
    64
 71
     6
 72
     4
  0
VERTEX
  5
E22
  8
0
 10
20.5
 20
-53.70000076293945
 30
-62.34999847412109
 70
   192
  0
VERTEX
  5
E23
  8
0
 10
38.5
 20
-53.70000076293945
 30
-62.34999847412109
 70
   192
  0
VERTEX
  5
E24
  8
0
 10
38.5
 20
-55.65499877929688
 30
-59.60800170898438
 70
   192
  0
VERTEX
  5
E25
  8
0
 10
20.5
 20
-50.5
 30
-63.40000152587891
 70
   192
  0
VERTEX
  5
E26
  8
0
 10
38.5
 20
-50.5
 30
-63.40000152587891
 70
   192
  0
VERTEX
  5
E27
  8
0
 10
20.5
 20
-55.65499877929688
 30
-59.60800170898438
 70
   192
  0
VERTEX
  5
E28
  8
0
 62
     9
 10
0.0
 20
0.0
 30
0.0
 70
   128
 71
     3
 72
     2
 73
     1
  0
VERTEX
  5
E29
  8
0
 62
     9
 10
0.0
 20
0.0
 30
0.0
 70
   128
 71
     2
 72
     5
 73
     4
  0
VERTEX
  5
E2A
  8
0
 62
     9
 10
0.0
 20
0.0
 30
0.0
 70
   128
 71
     4
 72
     1
 73
     2
  0
VERTEX
  5
E2B
  8
0
 62
     9
 10
0.0
 20
0.0
 30
0.0
 70
   128
 71
     1
 72
     6
 73
     3
  0
SEQEND
  5
E2C
  8
0
 62
     9
  0
ENDBLK
  5
E2F
  8
0
  0
BLOCK
  8
0
  2
E3_NODE_139_
 70
     0
 10
0.0
 20
0.0
 30
0.0
  3
E3_NODE_139_
  1

  0
POLYLINE
  5
E31
  8
0
 62
     9
 66
     1
 10
0.0
 20
0.0
 30
0.0
 70
    64
 71
     4
 72
     2
  0
VERTEX
  5
E32
  8
0
 10
20.5
 20
50.5
 30
-63.40000152587891
 70
   192
  0
VERTEX
  5
E33
  8
0
 10
38.5
 20
50.5
 30
-63.40000152587891
 70
   192
  0
VERTEX
  5
E34
  8
0
 10
38.5
 20
-50.5
 30
-63.40000152587891
 70
   192
  0
VERTEX
  5
E35
  8
0
 10
20.5
 20
-50.5
 30
-63.40000152587891
 70
   192
  0
VERTEX
  5
E36
  8
0
 62
     9
 10
0.0
 20
0.0
 30
0.0
 70
   128
 71
     3
 72
     2
 73
     1
  0
VERTEX
  5
E37
  8
0
 62
     9
 10
0.0
 20
0.0
 30
0.0
 70
   128
 71
     1
 72
     4
 73
     3
  0
SEQEND
  5
E38
  8
0
 62
     9
  0
ENDBLK
  5
E3B
  8
0
  0
BLOCK
  8
0
  2
E3_NODE_140_
 70
     0
 10
0.0
 20
0.0
 30
0.0
  3
E3_NODE_140_
  1

  0
POLYLINE
  5
E3D
  8
0
 62
     9
 66
     1
 10
0.0
 20
0.0
 30
0.0
 70
    64
 71
     6
 72
     4
  0
VERTEX
  5
E3E
  8
0
 10
20.5
 20
53.70000076293945
 30
-62.34999847412109
 70
   192
  0
VERTEX
  5
E3F
  8
0
 10
38.5
 20
53.70000076293945
 30
-62.34999847412109
 70
   192
  0
VERTEX
  5
E40
  8
0
 10
38.5
 20
50.5
 30
-63.40000152587891
 70
   192
  0
VERTEX
  5
E41
  8
0
 10
20.5
 20
55.65499877929688
 30
-59.60800170898438
 70
   192
  0
VERTEX
  5
E42
  8
0
 10
38.5
 20
55.65499877929688
 30
-59.60800170898438
 70
   192
  0
VERTEX
  5
E43
  8
0
 10
20.5
 20
50.5
 30
-63.40000152587891
 70
   192
  0
VERTEX
  5
E44
  8
0
 62
     9
 10
0.0
 20
0.0
 30
0.0
 70
   128
 71
     3
 72
     2
 73
     1
  0
VERTEX
  5
E45
  8
0
 62
     9
 10
0.0
 20
0.0
 30
0.0
 70
   128
 71
     2
 72
     5
 73
     4
  0
VERTEX
  5
E46
  8
0
 62
     9
 10
0.0
 20
0.0
 30
0.0
 70
   128
 71
     4
 72
     1
 73
     2
  0
VERTEX
  5
E47
  8
0
 62
     9
 10
0.0
 20
0.0
 30
0.0
 70
   128
 71
     1
 72
     6
 73
     3
  0
SEQEND
  5
E48
  8
0
 62
     9
  0
ENDBLK
  5
E4B
  8
0
  0
BLOCK
  8
0
  2
E3_NODE_141_
 70
     0
 10
0.0
 20
0.0
 30
0.0
  3
E3_NODE_141_
  1

  0
POLYLINE
  5
E4D
  8
0
 62
     9
 66
     1
 10
0.0
 20
0.0
 30
0.0
 70
    64
 71
     4
 72
     2
  0
VERTEX
  5
E4E
  8
0
 10
38.5
 20
65.83799743652344
 30
-26.9689998626709
 70
   192
  0
VERTEX
  5
E4F
  8
0
 10
38.5
 20
55.65499877929688
 30
-59.60800170898438
 70
   192
  0
VERTEX
  5
E50
  8
0
 10
20.5
 20
55.65499877929688
 30
-59.60800170898438
 70
   192
  0
VERTEX
  5
E51
  8
0
 10
20.5
 20
65.83799743652344
 30
-26.9689998626709
 70
   192
  0
VERTEX
  5
E52
  8
0
 62
     9
 10
0.0
 20
0.0
 30
0.0
 70
   128
 71
     3
 72
     2
 73
     1
  0
VERTEX
  5
E53
  8
0
 62
     9
 10
0.0
 20
0.0
 30
0.0
 70
   128
 71
     1
 72
     4
 73
     3
  0
SEQEND
  5
E54
  8
0
 62
     9
  0
ENDBLK
  5
E57
  8
0
  0
BLOCK
  8
0
  2
E3_NODE_142_
 70
     0
 10
0.0
 20
0.0
 30
0.0
  3
E3_NODE_142_
  1

  0
POLYLINE
  5
E59
  8
0
 62
     9
 66
     1
 10
0.0
 20
0.0
 30
0.0
 70
    64
 71
     6
 72
     4
  0
VERTEX
  5
E5A
  8
0
 10
20.5
 20
65.83799743652344
 30
-26.9689998626709
 70
   192
  0
VERTEX
  5
E5B
  8
0
 10
20.5
 20
66.88800048828125
 30
-19.25099945068359
 70
   192
  0
VERTEX
  5
E5C
  8
0
 10
38.5
 20
66.88800048828125
 30
-19.25099945068359
 70
   192
  0
VERTEX
  5
E5D
  8
0
 10
20.5
 20
65.34700012207031
 30
-11.61600017547607
 70
   192
  0
VERTEX
  5
E5E
  8
0
 10
38.5
 20
65.34700012207031
 30
-11.61600017547607
 70
   192
  0
VERTEX
  5
E5F
  8
0
 10
38.5
 20
65.83799743652344
 30
-26.9689998626709
 70
   192
  0
VERTEX
  5
E60
  8
0
 62
     9
 10
0.0
 20
0.0
 30
0.0
 70
   128
 71
     3
 72
     2
 73
     1
  0
VERTEX
  5
E61
  8
0
 62
     9
 10
0.0
 20
0.0
 30
0.0
 70
   128
 71
     3
 72
     5
 73
     4
  0
VERTEX
  5
E62
  8
0
 62
     9
 10
0.0
 20
0.0
 30
0.0
 70
   128
 71
     4
 72
     2
 73
     3
  0
VERTEX
  5
E63
  8
0
 62
     9
 10
0.0
 20
0.0
 30
0.0
 70
   128
 71
     1
 72
     6
 73
     3
  0
SEQEND
  5
E64
  8
0
 62
     9
  0
ENDBLK
  5
E67
  8
0
  0
BLOCK
  8
0
  2
E3_NODE_143_
 70
     0
 10
0.0
 20
0.0
 30
0.0
  3
E3_NODE_143_
  1

  0
POLYLINE
  5
E69
  8
0
 62
     9
 66
     1
 10
0.0
 20
0.0
 30
0.0
 70
    64
 71
     4
 72
     2
  0
VERTEX
  5
E6A
  8
0
 10
20.5
 20
65.34700012207031
 30
-11.61600017547607
 70
   192
  0
VERTEX
  5
E6B
  8
0
 10
20.5
 20
62.0
 30
-2.894999980926514
 70
   192
  0
VERTEX
  5
E6C
  8
0
 10
38.5
 20
62.0
 30
-2.894999980926514
 70
   192
  0
VERTEX
  5
E6D
  8
0
 10
38.5
 20
65.34700012207031
 30
-11.61600017547607
 70
   192
  0
VERTEX
  5
E6E
  8
0
 62
     9
 10
0.0
 20
0.0
 30
0.0
 70
   128
 71
     3
 72
     2
 73
     1
  0
VERTEX
  5
E6F
  8
0
 62
     9
 10
0.0
 20
0.0
 30
0.0
 70
   128
 71
     1
 72
     4
 73
     3
  0
SEQEND
  5
E70
  8
0
 62
     9
  0
ENDBLK
  5
E73
  8
0
  0
BLOCK
  8
0
  2
E3_NODE_144_
 70
     0
 10
0.0
 20
0.0
 30
0.0
  3
E3_NODE_144_
  1

  0
POLYLINE
  5
E75
  8
0
 62
     9
 66
     1
 10
0.0
 20
0.0
 30
0.0
 70
    64
 71
     4
 72
     2
  0
VERTEX
  5
E76
  8
0
 10
20.5
 20
26.0
 30
17.39999961853027
 70
   192
  0
VERTEX
  5
E77
  8
0
 10
20.5
 20
-26.0
 30
17.39999961853027
 70
   192
  0
VERTEX
  5
E78
  8
0
 10
38.5
 20
-26.0
 30
17.39999961853027
 70
   192
  0
VERTEX
  5
E79
  8
0
 10
38.5
 20
26.0
 30
17.39999961853027
 70
   192
  0
VERTEX
  5
E7A
  8
0
 62
     9
 10
0.0
 20
0.0
 30
0.0
 70
   128
 71
     3
 72
     2
 73
     1
  0
VERTEX
  5
E7B
  8
0
 62
     9
 10
0.0
 20
0.0
 30
0.0
 70
   128
 71
     1
 72
     4
 73
     3
  0
SEQEND
  5
E7C
  8
0
 62
     9
  0
ENDBLK
  5
E7F
  8
0
  0
BLOCK
  8
0
  2
E3_NODE_145_
 70
     0
 10
0.0
 20
0.0
 30
0.0
  3
E3_NODE_145_
  1

  0
POLYLINE
  5
E81
  8
0
 62
     9
 66
     1
 10
0.0
 20
0.0
 30
0.0
 70
    64
 71
     4
 72
     2
  0
VERTEX
  5
E82
  8
0
 10
38.5
 20
-26.0
 30
17.39999961853027
 70
   192
  0
VERTEX
  5
E83
  8
0
 10
20.5
 20
-26.0
 30
17.39999961853027
 70
   192
  0
VERTEX
  5
E84
  8
0
 10
20.5
 20
-26.0
 30
15.39999961853027
 70
   192
  0
VERTEX
  5
E85
  8
0
 10
38.5
 20
-26.0
 30
15.39999961853027
 70
   192
  0
VERTEX
  5
E86
  8
0
 62
     9
 10
0.0
 20
0.0
 30
0.0
 70
   128
 71
     3
 72
     2
 73
     1
  0
VERTEX
  5
E87
  8
0
 62
     9
 10
0.0
 20
0.0
 30
0.0
 70
   128
 71
     1
 72
     4
 73
     3
  0
SEQEND
  5
E88
  8
0
 62
     9
  0
ENDBLK
  5
E8B
  8
0
  0
BLOCK
  8
0
  2
E3_NODE_146_
 70
     0
 10
0.0
 20
0.0
 30
0.0
  3
E3_NODE_146_
  1

  0
POLYLINE
  5
E8D
  8
0
 62
     9
 66
     1
 10
0.0
 20
0.0
 30
0.0
 70
    64
 71
     4
 72
     2
  0
VERTEX
  5
E8E
  8
0
 10
38.5
 20
26.0
 30
17.39999961853027
 70
   192
  0
VERTEX
  5
E8F
  8
0
 10
38.5
 20
26.0
 30
15.39999961853027
 70
   192
  0
VERTEX
  5
E90
  8
0
 10
20.5
 20
26.0
 30
15.39999961853027
 70
   192
  0
VERTEX
  5
E91
  8
0
 10
20.5
 20
26.0
 30
17.39999961853027
 70
   192
  0
VERTEX
  5
E92
  8
0
 62
     9
 10
0.0
 20
0.0
 30
0.0
 70
   128
 71
     3
 72
     2
 73
     1
  0
VERTEX
  5
E93
  8
0
 62
     9
 10
0.0
 20
0.0
 30
0.0
 70
   128
 71
     1
 72
     4
 73
     3
  0
SEQEND
  5
E94
  8
0
 62
     9
  0
ENDBLK
  5
E97
  8
0
  0
BLOCK
  8
0
  2
E3_NODE_147_
 70
     0
 10
0.0
 20
0.0
 30
0.0
  3
E3_NODE_147_
  1

  0
POLYLINE
  5
E99
  8
0
 62
     9
 66
     1
 10
0.0
 20
0.0
 30
0.0
 70
    64
 71
     4
 72
     2
  0
VERTEX
  5
E9A
  8
0
 10
20.5
 20
26.0
 30
15.39999961853027
 70
   192
  0
VERTEX
  5
E9B
  8
0
 10
20.5
 20
-26.0
 30
15.39999961853027
 70
   192
  0
VERTEX
  5
E9C
  8
0
 10
20.5
 20
-26.0
 30
17.39999961853027
 70
   192
  0
VERTEX
  5
E9D
  8
0
 10
20.5
 20
26.0
 30
17.39999961853027
 70
   192
  0
VERTEX
  5
E9E
  8
0
 62
     9
 10
0.0
 20
0.0
 30
0.0
 70
   128
 71
     3
 72
     2
 73
     1
  0
VERTEX
  5
E9F
  8
0
 62
     9
 10
0.0
 20
0.0
 30
0.0
 70
   128
 71
     1
 72
     4
 73
     3
  0
SEQEND
  5
EA0
  8
0
 62
     9
  0
ENDBLK
  5
EA3
  8
0
  0
ENDSEC
  0
SECTION
  2
ENTITIES
  0
INSERT
  5
5E
  8
LAYER_1
  2
E3_NODE
 10
0.0
 20
0.0
 30
0.0
  0
INSERT
  5
7D
  8
LAYER_1
  2
E3_NODE_1_
 10
0.0
 20
0.0
 30
0.0
  0
INSERT
  5
89
  8
LAYER_1
  2
E3_NODE_2_
 10
0.0
 20
0.0
 30
0.0
  0
INSERT
  5
95
  8
LAYER_1
  2
E3_NODE_3_
 10
0.0
 20
0.0
 30
0.0
  0
INSERT
  5
A1
  8
LAYER_1
  2
E3_NODE_4_
 10
0.0
 20
0.0
 30
0.0
  0
INSERT
  5
AD
  8
LAYER_1
  2
E3_NODE_5_
 10
0.0
 20
0.0
 30
0.0
  0
INSERT
  5
B9
  8
LAYER_1
  2
E3_NODE_6_
 10
0.0
 20
0.0
 30
0.0
  0
INSERT
  5
D3
  8
LAYER_1
  2
E3_NODE_7_
 10
0.0
 20
0.0
 30
0.0
  0
INSERT
  5
15D
  8
LAYER_1
  2
E3_NODE_8_
 10
0.0
 20
0.0
 30
0.0
  0
INSERT
  5
215
  8
LAYER_1
  2
E3_NODE_9_
 10
0.0
 20
0.0
 30
0.0
  0
INSERT
  5
231
  8
LAYER_1
  2
E3_NODE_10_
 10
0.0
 20
0.0
 30
0.0
  0
INSERT
  5
23D
  8
LAYER_1
  2
E3_NODE_11_
 10
0.0
 20
0.0
 30
0.0
  0
INSERT
  5
249
  8
LAYER_1
  2
E3_NODE_12_
 10
0.0
 20
0.0
 30
0.0
  0
INSERT
  5
259
  8
LAYER_1
  2
E3_NODE_13_
 10
0.0
 20
0.0
 30
0.0
  0
INSERT
  5
267
  8
LAYER_1
  2
E3_NODE_14_
 10
0.0
 20
0.0
 30
0.0
  0
INSERT
  5
281
  8
LAYER_1
  2
E3_NODE_15_
 10
0.0
 20
0.0
 30
0.0
  0
INSERT
  5
28D
  8
LAYER_1
  2
E3_NODE_16_
 10
0.0
 20
0.0
 30
0.0
  0
INSERT
  5
299
  8
LAYER_1
  2
E3_NODE_17_
 10
0.0
 20
0.0
 30
0.0
  0
INSERT
  5
2AB
  8
LAYER_1
  2
E3_NODE_18_
 10
0.0
 20
0.0
 30
0.0
  0
INSERT
  5
2BB
  8
LAYER_1
  2
E3_NODE_19_
 10
0.0
 20
0.0
 30
0.0
  0
INSERT
  5
2C7
  8
LAYER_1
  2
E3_NODE_20_
 10
0.0
 20
0.0
 30
0.0
  0
INSERT
  5
2D5
  8
LAYER_1
  2
E3_NODE_21_
 10
0.0
 20
0.0
 30
0.0
  0
INSERT
  5
2E9
  8
LAYER_1
  2
E3_NODE_22_
 10
0.0
 20
0.0
 30
0.0
  0
INSERT
  5
307
  8
LAYER_1
  2
E3_NODE_23_
 10
0.0
 20
0.0
 30
0.0
  0
INSERT
  5
31B
  8
LAYER_1
  2
E3_NODE_24_
 10
0.0
 20
0.0
 30
0.0
  0
INSERT
  5
327
  8
LAYER_1
  2
E3_NODE_25_
 10
0.0
 20
0.0
 30
0.0
  0
INSERT
  5
33B
  8
LAYER_1
  2
E3_NODE_26_
 10
0.0
 20
0.0
 30
0.0
  0
INSERT
  5
349
  8
LAYER_1
  2
E3_NODE_27_
 10
0.0
 20
0.0
 30
0.0
  0
INSERT
  5
35D
  8
LAYER_1
  2
E3_NODE_28_
 10
0.0
 20
0.0
 30
0.0
  0
INSERT
  5
389
  8
LAYER_1
  2
E3_NODE_29_
 10
0.0
 20
0.0
 30
0.0
  0
INSERT
  5
397
  8
LAYER_1
  2
E3_NODE_30_
 10
0.0
 20
0.0
 30
0.0
  0
INSERT
  5
3CF
  8
LAYER_1
  2
E3_NODE_31_
 10
0.0
 20
0.0
 30
0.0
  0
INSERT
  5
3DD
  8
LAYER_1
  2
E3_NODE_32_
 10
0.0
 20
0.0
 30
0.0
  0
INSERT
  5
3E9
  8
LAYER_1
  2
E3_NODE_33_
 10
0.0
 20
0.0
 30
0.0
  0
INSERT
  5
3F5
  8
LAYER_1
  2
E3_NODE_34_
 10
0.0
 20
0.0
 30
0.0
  0
INSERT
  5
405
  8
LAYER_1
  2
E3_NODE_35_
 10
0.0
 20
0.0
 30
0.0
  0
INSERT
  5
411
  8
LAYER_1
  2
E3_NODE_36_
 10
0.0
 20
0.0
 30
0.0
  0
INSERT
  5
423
  8
LAYER_1
  2
E3_NODE_37_
 10
0.0
 20
0.0
 30
0.0
  0
INSERT
  5
42F
  8
LAYER_1
  2
E3_NODE_38_
 10
0.0
 20
0.0
 30
0.0
  0
INSERT
  5
43B
  8
LAYER_1
  2
E3_NODE_39_
 10
0.0
 20
0.0
 30
0.0
  0
INSERT
  5
44B
  8
LAYER_1
  2
E3_NODE_40_
 10
0.0
 20
0.0
 30
0.0
  0
INSERT
  5
461
  8
LAYER_1
  2
E3_NODE_41_
 10
0.0
 20
0.0
 30
0.0
  0
INSERT
  5
47F
  8
LAYER_1
  2
E3_NODE_42_
 10
0.0
 20
0.0
 30
0.0
  0
INSERT
  5
493
  8
LAYER_1
  2
E3_NODE_43_
 10
0.0
 20
0.0
 30
0.0
  0
INSERT
  5
49F
  8
LAYER_1
  2
E3_NODE_44_
 10
0.0
 20
0.0
 30
0.0
  0
INSERT
  5
4B3
  8
LAYER_1
  2
E3_NODE_45_
 10
0.0
 20
0.0
 30
0.0
  0
INSERT
  5
4C1
  8
LAYER_1
  2
E3_NODE_46_
 10
0.0
 20
0.0
 30
0.0
  0
INSERT
  5
4D5
  8
LAYER_1
  2
E3_NODE_47_
 10
0.0
 20
0.0
 30
0.0
  0
INSERT
  5
58D
  8
LAYER_1
  2
E3_NODE_48_
 10
0.0
 20
0.0
 30
0.0
  0
INSERT
  5
5A9
  8
LAYER_1
  2
E3_NODE_49_
 10
0.0
 20
0.0
 30
0.0
  0
INSERT
  5
633
  8
LAYER_1
  2
E3_NODE_50_
 10
0.0
 20
0.0
 30
0.0
  0
INSERT
  5
64D
  8
LAYER_1
  2
E3_NODE_51_
 10
0.0
 20
0.0
 30
0.0
  0
INSERT
  5
671
  8
LAYER_1
  2
E3_NODE_52_
 10
0.0
 20
0.0
 30
0.0
  0
INSERT
  5
67D
  8
LAYER_1
  2
E3_NODE_53_
 10
0.0
 20
0.0
 30
0.0
  0
INSERT
  5
689
  8
LAYER_1
  2
E3_NODE_54_
 10
0.0
 20
0.0
 30
0.0
  0
INSERT
  5
6A3
  8
LAYER_1
  2
E3_NODE_55_
 10
0.0
 20
0.0
 30
0.0
  0
INSERT
  5
6C1
  8
LAYER_1
  2
E3_NODE_56_
 10
0.0
 20
0.0
 30
0.0
  0
INSERT
  5
6CD
  8
LAYER_1
  2
E3_NODE_57_
 10
0.0
 20
0.0
 30
0.0
  0
INSERT
  5
6DB
  8
LAYER_1
  2
E3_NODE_58_
 10
0.0
 20
0.0
 30
0.0
  0
INSERT
  5
6E7
  8
LAYER_1
  2
E3_NODE_59_
 10
0.0
 20
0.0
 30
0.0
  0
INSERT
  5
779
  8
LAYER_1
  2
E3_NODE_60_
 10
0.0
 20
0.0
 30
0.0
  0
INSERT
  5
795
  8
LAYER_1
  2
E3_NODE_61_
 10
0.0
 20
0.0
 30
0.0
  0
INSERT
  5
7B3
  8
LAYER_1
  2
E3_NODE_62_
 10
0.0
 20
0.0
 30
0.0
  0
INSERT
  5
7D7
  8
LAYER_1
  2
E3_NODE_63_
 10
0.0
 20
0.0
 30
0.0
  0
INSERT
  5
7E3
  8
LAYER_1
  2
E3_NODE_64_
 10
0.0
 20
0.0
 30
0.0
  0
INSERT
  5
7EF
  8
LAYER_1
  2
E3_NODE_65_
 10
0.0
 20
0.0
 30
0.0
  0
INSERT
  5
809
  8
LAYER_1
  2
E3_NODE_66_
 10
0.0
 20
0.0
 30
0.0
  0
INSERT
  5
831
  8
LAYER_1
  2
E3_NODE_67_
 10
0.0
 20
0.0
 30
0.0
  0
INSERT
  5
83D
  8
LAYER_1
  2
E3_NODE_68_
 10
0.0
 20
0.0
 30
0.0
  0
INSERT
  5
84B
  8
LAYER_1
  2
E3_NODE_69_
 10
0.0
 20
0.0
 30
0.0
  0
INSERT
  5
859
  8
LAYER_1
  2
E3_NODE_70_
 10
0.0
 20
0.0
 30
0.0
  0
INSERT
  5
8A9
  8
LAYER_1
  2
E3_NODE_71_
 10
0.0
 20
0.0
 30
0.0
  0
INSERT
  5
8C1
  8
LAYER_1
  2
E3_NODE_72_
 10
0.0
 20
0.0
 30
0.0
  0
INSERT
  5
8D1
  8
LAYER_1
  2
E3_NODE_73_
 10
0.0
 20
0.0
 30
0.0
  0
INSERT
  5
8EF
  8
LAYER_1
  2
E3_NODE_74_
 10
0.0
 20
0.0
 30
0.0
  0
INSERT
  5
951
  8
LAYER_1
  2
E3_NODE_75_
 10
0.0
 20
0.0
 30
0.0
  0
INSERT
  5
95D
  8
LAYER_1
  2
E3_NODE_76_
 10
0.0
 20
0.0
 30
0.0
  0
INSERT
  5
96D
  8
LAYER_1
  2
E3_NODE_77_
 10
0.0
 20
0.0
 30
0.0
  0
INSERT
  5
979
  8
LAYER_1
  2
E3_NODE_78_
 10
0.0
 20
0.0
 30
0.0
  0
INSERT
  5
989
  8
LAYER_1
  2
E3_NODE_79_
 10
0.0
 20
0.0
 30
0.0
  0
INSERT
  5
995
  8
LAYER_1
  2
E3_NODE_80_
 10
0.0
 20
0.0
 30
0.0
  0
INSERT
  5
9A5
  8
LAYER_1
  2
E3_NODE_81_
 10
0.0
 20
0.0
 30
0.0
  0
INSERT
  5
9B1
  8
LAYER_1
  2
E3_NODE_82_
 10
0.0
 20
0.0
 30
0.0
  0
INSERT
  5
9C1
  8
LAYER_1
  2
E3_NODE_83_
 10
0.0
 20
0.0
 30
0.0
  0
INSERT
  5
9CD
  8
LAYER_1
  2
E3_NODE_84_
 10
0.0
 20
0.0
 30
0.0
  0
INSERT
  5
9DD
  8
LAYER_1
  2
E3_NODE_85_
 10
0.0
 20
0.0
 30
0.0
  0
INSERT
  5
9E9
  8
LAYER_1
  2
E3_NODE_86_
 10
0.0
 20
0.0
 30
0.0
  0
INSERT
  5
9F9
  8
LAYER_1
  2
E3_NODE_87_
 10
0.0
 20
0.0
 30
0.0
  0
INSERT
  5
A17
  8
LAYER_1
  2
E3_NODE_88_
 10
0.0
 20
0.0
 30
0.0
  0
INSERT
  5
A27
  8
LAYER_1
  2
E3_NODE_89_
 10
0.0
 20
0.0
 30
0.0
  0
INSERT
  5
A65
  8
LAYER_1
  2
E3_NODE_90_
 10
0.0
 20
0.0
 30
0.0
  0
INSERT
  5
A99
  8
LAYER_1
  2
E3_NODE_91_
 10
0.0
 20
0.0
 30
0.0
  0
INSERT
  5
AAF
  8
LAYER_1
  2
E3_NODE_92_
 10
0.0
 20
0.0
 30
0.0
  0
INSERT
  5
ABB
  8
LAYER_1
  2
E3_NODE_93_
 10
0.0
 20
0.0
 30
0.0
  0
INSERT
  5
AD1
  8
LAYER_1
  2
E3_NODE_94_
 10
0.0
 20
0.0
 30
0.0
  0
INSERT
  5
ADD
  8
LAYER_1
  2
E3_NODE_95_
 10
0.0
 20
0.0
 30
0.0
  0
INSERT
  5
B2B
  8
LAYER_1
  2
E3_NODE_96_
 10
0.0
 20
0.0
 30
0.0
  0
INSERT
  5
B3B
  8
LAYER_1
  2
E3_NODE_97_
 10
0.0
 20
0.0
 30
0.0
  0
INSERT
  5
B47
  8
LAYER_1
  2
E3_NODE_98_
 10
0.0
 20
0.0
 30
0.0
  0
INSERT
  5
B57
  8
LAYER_1
  2
E3_NODE_99_
 10
0.0
 20
0.0
 30
0.0
  0
INSERT
  5
B63
  8
LAYER_1
  2
E3_NODE_100_
 10
0.0
 20
0.0
 30
0.0
  0
INSERT
  5
B73
  8
LAYER_1
  2
E3_NODE_101_
 10
0.0
 20
0.0
 30
0.0
  0
INSERT
  5
B7F
  8
LAYER_1
  2
E3_NODE_102_
 10
0.0
 20
0.0
 30
0.0
  0
INSERT
  5
B8F
  8
LAYER_1
  2
E3_NODE_103_
 10
0.0
 20
0.0
 30
0.0
  0
INSERT
  5
B9B
  8
LAYER_1
  2
E3_NODE_104_
 10
0.0
 20
0.0
 30
0.0
  0
INSERT
  5
BAB
  8
LAYER_1
  2
E3_NODE_105_
 10
0.0
 20
0.0
 30
0.0
  0
INSERT
  5
BB7
  8
LAYER_1
  2
E3_NODE_106_
 10
0.0
 20
0.0
 30
0.0
  0
INSERT
  5
BC7
  8
LAYER_1
  2
E3_NODE_107_
 10
0.0
 20
0.0
 30
0.0
  0
INSERT
  5
BD3
  8
LAYER_1
  2
E3_NODE_108_
 10
0.0
 20
0.0
 30
0.0
  0
INSERT
  5
C21
  8
LAYER_1
  2
E3_NODE_109_
 10
0.0
 20
0.0
 30
0.0
  0
INSERT
  5
C2D
  8
LAYER_1
  2
E3_NODE_110_
 10
0.0
 20
0.0
 30
0.0
  0
INSERT
  5
C3D
  8
LAYER_1
  2
E3_NODE_111_
 10
0.0
 20
0.0
 30
0.0
  0
INSERT
  5
C49
  8
LAYER_1
  2
E3_NODE_112_
 10
0.0
 20
0.0
 30
0.0
  0
INSERT
  5
C59
  8
LAYER_1
  2
E3_NODE_113_
 10
0.0
 20
0.0
 30
0.0
  0
INSERT
  5
C65
  8
LAYER_1
  2
E3_NODE_114_
 10
0.0
 20
0.0
 30
0.0
  0
INSERT
  5
C75
  8
LAYER_1
  2
E3_NODE_115_
 10
0.0
 20
0.0
 30
0.0
  0
INSERT
  5
C81
  8
LAYER_1
  2
E3_NODE_116_
 10
0.0
 20
0.0
 30
0.0
  0
INSERT
  5
C91
  8
LAYER_1
  2
E3_NODE_117_
 10
0.0
 20
0.0
 30
0.0
  0
INSERT
  5
C9D
  8
LAYER_1
  2
E3_NODE_118_
 10
0.0
 20
0.0
 30
0.0
  0
INSERT
  5
CAD
  8
LAYER_1
  2
E3_NODE_119_
 10
0.0
 20
0.0
 30
0.0
  0
INSERT
  5
CB9
  8
LAYER_1
  2
E3_NODE_120_
 10
0.0
 20
0.0
 30
0.0
  0
INSERT
  5
CC9
  8
LAYER_1
  2
E3_NODE_121_
 10
0.0
 20
0.0
 30
0.0
  0
INSERT
  5
D31
  8
LAYER_1
  2
E3_NODE_122_
 10
0.0
 20
0.0
 30
0.0
  0
INSERT
  5
D3D
  8
LAYER_1
  2
E3_NODE_123_
 10
0.0
 20
0.0
 30
0.0
  0
INSERT
  5
D75
  8
LAYER_1
  2
E3_NODE_124_
 10
0.0
 20
0.0
 30
0.0
  0
INSERT
  5
D81
  8
LAYER_1
  2
E3_NODE_125_
 10
0.0
 20
0.0
 30
0.0
  0
INSERT
  5
D8D
  8
LAYER_1
  2
E3_NODE_126_
 10
0.0
 20
0.0
 30
0.0
  0
INSERT
  5
D99
  8
LAYER_1
  2
E3_NODE_127_
 10
0.0
 20
0.0
 30
0.0
  0
INSERT
  5
DA9
  8
LAYER_1
  2
E3_NODE_128_
 10
0.0
 20
0.0
 30
0.0
  0
INSERT
  5
DB5
  8
LAYER_1
  2
E3_NODE_129_
 10
0.0
 20
0.0
 30
0.0
  0
INSERT
  5
DC1
  8
LAYER_1
  2
E3_NODE_130_
 10
0.0
 20
0.0
 30
0.0
  0
INSERT
  5
DCD
  8
LAYER_1
  2
E3_NODE_131_
 10
0.0
 20
0.0
 30
0.0
  0
INSERT
  5
DD9
  8
LAYER_1
  2
E3_NODE_132_
 10
0.0
 20
0.0
 30
0.0
  0
INSERT
  5
DE5
  8
LAYER_1
  2
E3_NODE_133_
 10
0.0
 20
0.0
 30
0.0
  0
INSERT
  5
DF5
  8
LAYER_1
  2
E3_NODE_134_
 10
0.0
 20
0.0
 30
0.0
  0
INSERT
  5
E01
  8
LAYER_1
  2
E3_NODE_135_
 10
0.0
 20
0.0
 30
0.0
  0
INSERT
  5
E11
  8
LAYER_1
  2
E3_NODE_136_
 10
0.0
 20
0.0
 30
0.0
  0
INSERT
  5
E1D
  8
LAYER_1
  2
E3_NODE_137_
 10
0.0
 20
0.0
 30
0.0
  0
INSERT
  5
E2D
  8
LAYER_1
  2
E3_NODE_138_
 10
0.0
 20
0.0
 30
0.0
  0
INSERT
  5
E39
  8
LAYER_1
  2
E3_NODE_139_
 10
0.0
 20
0.0
 30
0.0
  0
INSERT
  5
E49
  8
LAYER_1
  2
E3_NODE_140_
 10
0.0
 20
0.0
 30
0.0
  0
INSERT
  5
E55
  8
LAYER_1
  2
E3_NODE_141_
 10
0.0
 20
0.0
 30
0.0
  0
INSERT
  5
E65
  8
LAYER_1
  2
E3_NODE_142_
 10
0.0
 20
0.0
 30
0.0
  0
INSERT
  5
E71
  8
LAYER_1
  2
E3_NODE_143_
 10
0.0
 20
0.0
 30
0.0
  0
INSERT
  5
E7D
  8
LAYER_1
  2
E3_NODE_144_
 10
0.0
 20
0.0
 30
0.0
  0
INSERT
  5
E89
  8
LAYER_1
  2
E3_NODE_145_
 10
0.0
 20
0.0
 30
0.0
  0
INSERT
  5
E95
  8
LAYER_1
  2
E3_NODE_146_
 10
0.0
 20
0.0
 30
0.0
  0
INSERT
  5
EA1
  8
LAYER_1
  2
E3_NODE_147_
 10
0.0
 20
0.0
 30
0.0
  0
ENDSEC
  0
EOF
