  0
SECTION
  2
HEADER
  9
$ACADVER
  1
AC1009
  9
$DWGCODEPAGE
  3
ansi_1252
  9
$INSBASE
 10
0.0
 20
0.0
 30
0.0
  9
$EXTMIN
 10
1.000000000000000E+20
 20
1.000000000000000E+20
 30
1.000000000000000E+20
  9
$EXTMAX
 10
-1.000000000000000E+20
 20
-1.000000000000000E+20
 30
-1.000000000000000E+20
  9
$LIMMIN
 10
0.0
 20
0.0
  9
$LIMMAX
 10
12.0
 20
9.0
  9
$ORTHOMODE
 70
     0
  9
$REGENMODE
 70
     1
  9
$FILLMODE
 70
     1
  9
$QTEXTMODE
 70
     0
  9
$MIRRTEXT
 70
     1
  9
$DRAGMODE
 70
     2
  9
$LTSCALE
 40
1.0
  9
$OSMODE
 70
    37
  9
$ATTMODE
 70
     1
  9
$TEXTSIZE
 40
0.2
  9
$TRACEWID
 40
0.05
  9
$TEXTSTYLE
  7
STANDARD
  9
$CLAYER
  8
0
  9
$CELTYPE
  6
BYLAYER
  9
$CECOLOR
 62
   256
  9
$DIMSCALE
 40
1.0
  9
$DIMASZ
 40
0.18
  9
$DIMEXO
 40
0.0625
  9
$DIMDLI
 40
0.38
  9
$DIMRND
 40
0.0
  9
$DIMDLE
 40
0.0
  9
$DIMEXE
 40
0.18
  9
$DIMTP
 40
0.0
  9
$DIMTM
 40
0.0
  9
$DIMTXT
 40
0.18
  9
$DIMCEN
 40
0.09
  9
$DIMTSZ
 40
0.0
  9
$DIMTOL
 70
     0
  9
$DIMLIM
 70
     0
  9
$DIMTIH
 70
     1
  9
$DIMTOH
 70
     1
  9
$DIMSE1
 70
     0
  9
$DIMSE2
 70
     0
  9
$DIMTAD
 70
     0
  9
$DIMZIN
 70
     0
  9
$DIMBLK
  1

  9
$DIMASO
 70
     1
  9
$DIMSHO
 70
     1
  9
$DIMPOST
  1

  9
$DIMAPOST
  1

  9
$DIMALT
 70
     0
  9
$DIMALTD
 70
     2
  9
$DIMALTF
 40
25.4
  9
$DIMLFAC
 40
1.0
  9
$DIMTOFL
 70
     0
  9
$DIMTVP
 40
0.0
  9
$DIMTIX
 70
     0
  9
$DIMSOXD
 70
     0
  9
$DIMSAH
 70
     0
  9
$DIMBLK1
  1

  9
$DIMBLK2
  1

  9
$DIMSTYLE
  2
STANDARD
  9
$DIMCLRD
 70
     0
  9
$DIMCLRE
 70
     0
  9
$DIMCLRT
 70
     0
  9
$DIMTFAC
 40
1.0
  9
$DIMGAP
 40
0.09
  9
$LUNITS
 70
     2
  9
$LUPREC
 70
     4
  9
$SKETCHINC
 40
0.1
  9
$FILLETRAD
 40
0.5
  9
$AUNITS
 70
     0
  9
$AUPREC
 70
     0
  9
$MENU
  1
.
  9
$ELEVATION
 40
0.0
  9
$PELEVATION
 40
0.0
  9
$THICKNESS
 40
0.0
  9
$LIMCHECK
 70
     0
  9
$CHAMFERA
 40
0.5
  9
$CHAMFERB
 40
0.5
  9
$SKPOLY
 70
     0
  9
$TDCREATE
 40
2455464.963936632
  9
$TDUPDATE
 40
2455464.963936632
  9
$TDINDWG
 40
0.0000000116
  9
$TDUSRTIMER
 40
0.0000000116
  9
$USRTIMER
 70
     1
  9
$ANGBASE
 50
0.0
  9
$ANGDIR
 70
     0
  9
$PDMODE
 70
     0
  9
$PDSIZE
 40
0.0
  9
$PLINEWID
 40
0.0
  9
$COORDS
 70
     1
  9
$SPLFRAME
 70
     0
  9
$SPLINETYPE
 70
     6
  9
$SPLINESEGS
 70
     8
  9
$ATTDIA
 70
     0
  9
$ATTREQ
 70
     1
  9
$HANDLING
 70
     1
  9
$HANDSEED
  5
483
  9
$SURFTAB1
 70
     6
  9
$SURFTAB2
 70
     6
  9
$SURFTYPE
 70
     6
  9
$SURFU
 70
     6
  9
$SURFV
 70
     6
  9
$UCSNAME
  2

  9
$UCSORG
 10
0.0
 20
0.0
 30
0.0
  9
$UCSXDIR
 10
1.0
 20
0.0
 30
0.0
  9
$UCSYDIR
 10
0.0
 20
1.0
 30
0.0
  9
$PUCSNAME
  2

  9
$PUCSORG
 10
0.0
 20
0.0
 30
0.0
  9
$PUCSXDIR
 10
1.0
 20
0.0
 30
0.0
  9
$PUCSYDIR
 10
0.0
 20
1.0
 30
0.0
  9
$USERI1
 70
     0
  9
$USERI2
 70
     0
  9
$USERI3
 70
     0
  9
$USERI4
 70
     0
  9
$USERI5
 70
     0
  9
$USERR1
 40
0.0
  9
$USERR2
 40
0.0
  9
$USERR3
 40
0.0
  9
$USERR4
 40
0.0
  9
$USERR5
 40
0.0
  9
$WORLDVIEW
 70
     1
  9
$SHADEDGE
 70
     3
  9
$SHADEDIF
 70
    70
  9
$TILEMODE
 70
     1
  9
$MAXACTVP
 70
    64
  9
$PLIMCHECK
 70
     0
  9
$PEXTMIN
 10
1.000000000000000E+20
 20
1.000000000000000E+20
 30
1.000000000000000E+20
  9
$PEXTMAX
 10
-1.000000000000000E+20
 20
-1.000000000000000E+20
 30
-1.000000000000000E+20
  9
$PLIMMIN
 10
0.0
 20
0.0
  9
$PLIMMAX
 10
12.0
 20
9.0
  9
$UNITMODE
 70
     0
  9
$VISRETAIN
 70
     1
  9
$PLINEGEN
 70
     0
  9
$PSLTSCALE
 70
     1
  0
ENDSEC
  0
SECTION
  2
TABLES
  0
TABLE
  2
VPORT
 70
     1
  0
VPORT
  2
*ACTIVE
 70
     0
 10
0.0
 20
0.0
 11
1.0
 21
1.0
 12
0.0
 22
0.0
 13
0.0
 23
0.0
 14
0.5
 24
0.5
 15
0.5
 25
0.5
 16
840.2973022460938
 26
480.1285400390625
 36
840.2973022460938
 17
33.4949951171875
 27
-310.7730102539062
 37
0.0
 40
727.3840181985762
 41
1.972972972850329
 42
50.0
 43
0.0
 44
0.0
 50
0.0
 51
0.0
 71
     0
 72
   100
 73
     1
 74
     3
 75
     0
 76
     0
 77
     0
 78
     0
  0
ENDTAB
  0
TABLE
  2
LTYPE
 70
     1
  0
LTYPE
  2
CONTINUOUS
 70
     0
  3
Solid line
 72
    65
 73
     0
 40
0.0
  0
ENDTAB
  0
TABLE
  2
LAYER
 70
     2
  0
LAYER
  2
0
 70
     0
 62
     7
  6
CONTINUOUS
  0
LAYER
  2
LAYER_1
 70
     0
 62
     7
  6
CONTINUOUS
  0
ENDTAB
  0
TABLE
  2
STYLE
 70
     1
  0
STYLE
  2
STANDARD
 70
     0
 40
0.0
 41
1.0
 50
0.0
 71
     0
 42
0.2
  3
txt
  4

  0
ENDTAB
  0
TABLE
  2
VIEW
 70
     0
  0
ENDTAB
  0
TABLE
  2
UCS
 70
     0
  0
ENDTAB
  0
TABLE
  2
APPID
 70
     1
  0
APPID
  2
ACAD
 70
     0
  0
ENDTAB
  0
TABLE
  2
DIMSTYLE
 70
     1
  0
DIMSTYLE
  2
STANDARD
 70
     0
  3

  4

  5

  6

  7

 40
1.0
 41
0.18
 42
0.0625
 43
0.38
 44
0.18
 45
0.0
 46
0.0
 47
0.0
 48
0.0
140
0.18
141
0.09
142
0.0
143
25.4
144
1.0
145
0.0
146
1.0
147
0.09
 71
     0
 72
     0
 73
     1
 74
     1
 75
     0
 76
     0
 77
     0
 78
     0
170
     0
171
     2
172
     0
173
     0
174
     0
175
     0
176
     0
177
     0
178
     0
  0
ENDTAB
  0
ENDSEC
  0
SECTION
  2
BLOCKS
  0
BLOCK
  8
0
  2
$MODEL_SPACE
 70
     0
 10
0.0
 20
0.0
 30
0.0
  3
$MODEL_SPACE
  1

  0
ENDBLK
  5
21
  8
0
  0
BLOCK
 67
     1
  8
0
  2
$PAPER_SPACE
 70
     0
 10
0.0
 20
0.0
 30
0.0
  3
$PAPER_SPACE
  1

  0
ENDBLK
  5
1D
 67
     1
  8
0
  0
BLOCK
  8
0
  2
E3_NODE
 70
     0
 10
0.0
 20
0.0
 30
0.0
  3
E3_NODE
  1

  0
POLYLINE
  5
3C
  8
0
 62
     9
 66
     1
 10
0.0
 20
0.0
 30
0.0
 70
    64
 71
    14
 72
    12
  0
VERTEX
  5
3D
  8
0
 10
8.600000381469727
 20
-8.059000015258789
 30
16.73500061035156
 70
   192
  0
VERTEX
  5
3E
  8
0
 10
8.600000381469727
 20
8.059000015258789
 30
16.73500061035156
 70
   192
  0
VERTEX
  5
3F
  8
0
 10
8.600000381469727
 20
14.52200031280518
 30
11.58100032806396
 70
   192
  0
VERTEX
  5
40
  8
0
 10
8.600000381469727
 20
18.10899925231934
 30
4.132999897003174
 70
   192
  0
VERTEX
  5
41
  8
0
 10
8.600000381469727
 20
-18.10899925231934
 30
-4.132999897003174
 70
   192
  0
VERTEX
  5
42
  8
0
 10
8.600000381469727
 20
-18.10899925231934
 30
4.132999897003174
 70
   192
  0
VERTEX
  5
43
  8
0
 10
8.600000381469727
 20
0.0
 30
-18.57500076293945
 70
   192
  0
VERTEX
  5
44
  8
0
 10
8.600000381469727
 20
-8.059000015258789
 30
-16.73500061035156
 70
   192
  0
VERTEX
  5
45
  8
0
 10
8.600000381469727
 20
18.10899925231934
 30
-4.132999897003174
 70
   192
  0
VERTEX
  5
46
  8
0
 10
8.600000381469727
 20
14.52200031280518
 30
-11.58100032806396
 70
   192
  0
VERTEX
  5
47
  8
0
 10
8.600000381469727
 20
0.0
 30
18.57500076293945
 70
   192
  0
VERTEX
  5
48
  8
0
 10
8.600000381469727
 20
-14.52200031280518
 30
11.58100032806396
 70
   192
  0
VERTEX
  5
49
  8
0
 10
8.600000381469727
 20
8.059000015258789
 30
-16.73500061035156
 70
   192
  0
VERTEX
  5
4A
  8
0
 10
8.600000381469727
 20
-14.52200031280518
 30
-11.58100032806396
 70
   192
  0
VERTEX
  5
4B
  8
0
 62
     9
 10
0.0
 20
0.0
 30
0.0
 70
   128
 71
     3
 72
     2
 73
     1
  0
VERTEX
  5
4C
  8
0
 62
     9
 10
0.0
 20
0.0
 30
0.0
 70
   128
 71
     6
 72
     5
 73
     4
  0
VERTEX
  5
4D
  8
0
 62
     9
 10
0.0
 20
0.0
 30
0.0
 70
   128
 71
     8
 72
     7
 73
     5
  0
VERTEX
  5
4E
  8
0
 62
     9
 10
0.0
 20
0.0
 30
0.0
 70
   128
 71
    10
 72
     9
 73
     5
  0
VERTEX
  5
4F
  8
0
 62
     9
 10
0.0
 20
0.0
 30
0.0
 70
   128
 71
     2
 72
    11
 73
     1
  0
VERTEX
  5
50
  8
0
 62
     9
 10
0.0
 20
0.0
 30
0.0
 70
   128
 71
     4
 72
    12
 73
     6
  0
VERTEX
  5
51
  8
0
 62
     9
 10
0.0
 20
0.0
 30
0.0
 70
   128
 71
     7
 72
    13
 73
     5
  0
VERTEX
  5
52
  8
0
 62
     9
 10
0.0
 20
0.0
 30
0.0
 70
   128
 71
     9
 72
     4
 73
     5
  0
VERTEX
  5
53
  8
0
 62
     9
 10
0.0
 20
0.0
 30
0.0
 70
   128
 71
     4
 72
     1
 73
    12
  0
VERTEX
  5
54
  8
0
 62
     9
 10
0.0
 20
0.0
 30
0.0
 70
   128
 71
     5
 72
    13
 73
    10
  0
VERTEX
  5
55
  8
0
 62
     9
 10
0.0
 20
0.0
 30
0.0
 70
   128
 71
     5
 72
    14
 73
     8
  0
VERTEX
  5
56
  8
0
 62
     9
 10
0.0
 20
0.0
 30
0.0
 70
   128
 71
     1
 72
     4
 73
     3
  0
SEQEND
  5
57
  8
0
 62
     9
  0
ENDBLK
  5
5B
  8
0
  0
BLOCK
  8
0
  2
E3_NODE_1_
 70
     0
 10
0.0
 20
0.0
 30
0.0
  3
E3_NODE_1_
  1

  0
POLYLINE
  5
5D
  8
0
 62
     9
 66
     1
 10
0.0
 20
0.0
 30
0.0
 70
    64
 71
    62
 72
    90
  0
VERTEX
  5
5E
  8
0
 10
8.600000381469727
 20
0.0
 30
-18.57500076293945
 70
   192
  0
VERTEX
  5
5F
  8
0
 10
8.600000381469727
 20
8.059000015258789
 30
-16.73500061035156
 70
   192
  0
VERTEX
  5
60
  8
0
 10
20.20199966430664
 20
5.514999866485596
 30
-11.45100021362305
 70
   192
  0
VERTEX
  5
61
  8
0
 10
8.600000381469727
 20
14.52200031280518
 30
-11.58100032806396
 70
   192
  0
VERTEX
  5
62
  8
0
 10
20.20199966430664
 20
9.937000274658203
 30
-7.925000190734863
 70
   192
  0
VERTEX
  5
63
  8
0
 10
8.600000381469727
 20
18.10899925231934
 30
-4.132999897003174
 70
   192
  0
VERTEX
  5
64
  8
0
 10
20.20199966430664
 20
12.39099979400635
 30
-2.828000068664551
 70
   192
  0
VERTEX
  5
65
  8
0
 10
8.600000381469727
 20
18.10899925231934
 30
4.132999897003174
 70
   192
  0
VERTEX
  5
66
  8
0
 10
20.20199966430664
 20
12.39099979400635
 30
2.828000068664551
 70
   192
  0
VERTEX
  5
67
  8
0
 10
8.600000381469727
 20
14.52200031280518
 30
11.58100032806396
 70
   192
  0
VERTEX
  5
68
  8
0
 10
20.20199966430664
 20
9.937000274658203
 30
7.925000190734863
 70
   192
  0
VERTEX
  5
69
  8
0
 10
8.600000381469727
 20
8.059000015258789
 30
16.73500061035156
 70
   192
  0
VERTEX
  5
6A
  8
0
 10
20.20199966430664
 20
5.514999866485596
 30
11.45100021362305
 70
   192
  0
VERTEX
  5
6B
  8
0
 10
8.600000381469727
 20
0.0
 30
18.57500076293945
 70
   192
  0
VERTEX
  5
6C
  8
0
 10
20.20199966430664
 20
0.0
 30
12.71000003814697
 70
   192
  0
VERTEX
  5
6D
  8
0
 10
8.600000381469727
 20
-8.059000015258789
 30
16.73500061035156
 70
   192
  0
VERTEX
  5
6E
  8
0
 10
20.20199966430664
 20
-5.514999866485596
 30
11.45100021362305
 70
   192
  0
VERTEX
  5
6F
  8
0
 10
8.600000381469727
 20
-14.52200031280518
 30
11.58100032806396
 70
   192
  0
VERTEX
  5
70
  8
0
 10
20.20199966430664
 20
-9.937000274658203
 30
7.925000190734863
 70
   192
  0
VERTEX
  5
71
  8
0
 10
8.600000381469727
 20
-18.10899925231934
 30
4.132999897003174
 70
   192
  0
VERTEX
  5
72
  8
0
 10
20.20199966430664
 20
-12.39099979400635
 30
2.828000068664551
 70
   192
  0
VERTEX
  5
73
  8
0
 10
8.600000381469727
 20
-18.10899925231934
 30
-4.132999897003174
 70
   192
  0
VERTEX
  5
74
  8
0
 10
20.20199966430664
 20
-12.39099979400635
 30
-2.828000068664551
 70
   192
  0
VERTEX
  5
75
  8
0
 10
8.600000381469727
 20
-14.52200031280518
 30
-11.58100032806396
 70
   192
  0
VERTEX
  5
76
  8
0
 10
20.20199966430664
 20
-9.937000274658203
 30
-7.925000190734863
 70
   192
  0
VERTEX
  5
77
  8
0
 10
8.600000381469727
 20
-8.059000015258789
 30
-16.73500061035156
 70
   192
  0
VERTEX
  5
78
  8
0
 10
20.20199966430664
 20
-5.514999866485596
 30
-11.45100021362305
 70
   192
  0
VERTEX
  5
79
  8
0
 10
20.20199966430664
 20
0.0
 30
-12.71000003814697
 70
   192
  0
VERTEX
  5
7A
  8
0
 10
32.92300033569336
 20
4.354000091552734
 30
-9.041000366210938
 70
   192
  0
VERTEX
  5
7B
  8
0
 10
32.92300033569336
 20
7.84499979019165
 30
-6.25600004196167
 70
   192
  0
VERTEX
  5
7C
  8
0
 10
32.92300033569336
 20
9.782999992370605
 30
-2.233000040054321
 70
   192
  0
VERTEX
  5
7D
  8
0
 10
32.92300033569336
 20
9.782999992370605
 30
2.233000040054321
 70
   192
  0
VERTEX
  5
7E
  8
0
 10
32.92300033569336
 20
7.84499979019165
 30
6.25600004196167
 70
   192
  0
VERTEX
  5
7F
  8
0
 10
32.92300033569336
 20
4.354000091552734
 30
9.041000366210938
 70
   192
  0
VERTEX
  5
80
  8
0
 10
32.92300033569336
 20
0.0
 30
10.03400039672852
 70
   192
  0
VERTEX
  5
81
  8
0
 10
32.92300033569336
 20
-4.354000091552734
 30
9.041000366210938
 70
   192
  0
VERTEX
  5
82
  8
0
 10
32.92300033569336
 20
-7.84499979019165
 30
6.25600004196167
 70
   192
  0
VERTEX
  5
83
  8
0
 10
32.92300033569336
 20
-9.782999992370605
 30
2.233000040054321
 70
   192
  0
VERTEX
  5
84
  8
0
 10
32.92300033569336
 20
-9.782999992370605
 30
-2.233000040054321
 70
   192
  0
VERTEX
  5
85
  8
0
 10
32.92300033569336
 20
-7.84499979019165
 30
-6.25600004196167
 70
   192
  0
VERTEX
  5
86
  8
0
 10
32.92300033569336
 20
-4.354000091552734
 30
-9.041000366210938
 70
   192
  0
VERTEX
  5
87
  8
0
 10
32.92300033569336
 20
0.0
 30
-10.03400039672852
 70
   192
  0
VERTEX
  5
88
  8
0
 10
45.90399932861328
 20
4.65500020980835
 30
-9.666000366210938
 70
   192
  0
VERTEX
  5
89
  8
0
 10
45.90399932861328
 20
0.0
 30
-10.72900009155273
 70
   192
  0
VERTEX
  5
8A
  8
0
 10
45.90399932861328
 20
7.460999965667725
 30
-7.428999900817871
 70
   192
  0
VERTEX
  5
8B
  8
0
 10
45.90399932861328
 20
8.387999534606934
 30
-6.689000129699707
 70
   192
  0
VERTEX
  5
8C
  8
0
 10
45.90399932861328
 20
10.46000003814697
 30
-2.38700008392334
 70
   192
  0
VERTEX
  5
8D
  8
0
 10
45.90399932861328
 20
10.46000003814697
 30
0.0
 70
   192
  0
VERTEX
  5
8E
  8
0
 10
45.90399932861328
 20
10.46000003814697
 30
2.38700008392334
 70
   192
  0
VERTEX
  5
8F
  8
0
 10
45.90399932861328
 20
4.65500020980835
 30
9.666000366210938
 70
   192
  0
VERTEX
  5
90
  8
0
 10
45.90399932861328
 20
7.460999965667725
 30
7.428999900817871
 70
   192
  0
VERTEX
  5
91
  8
0
 10
45.90399932861328
 20
0.0
 30
10.72900009155273
 70
   192
  0
VERTEX
  5
92
  8
0
 10
45.90399932861328
 20
-7.460999965667725
 30
7.428999900817871
 70
   192
  0
VERTEX
  5
93
  8
0
 10
45.90399932861328
 20
-8.387999534606934
 30
6.689000129699707
 70
   192
  0
VERTEX
  5
94
  8
0
 10
45.90399932861328
 20
-10.46000003814697
 30
0.0
 70
   192
  0
VERTEX
  5
95
  8
0
 10
45.90399932861328
 20
-10.46000003814697
 30
-2.38700008392334
 70
   192
  0
VERTEX
  5
96
  8
0
 10
45.90399932861328
 20
-8.387999534606934
 30
-6.689000129699707
 70
   192
  0
VERTEX
  5
97
  8
0
 10
45.90399932861328
 20
-4.65500020980835
 30
-9.666000366210938
 70
   192
  0
VERTEX
  5
98
  8
0
 10
45.90399932861328
 20
-7.460999965667725
 30
-7.428999900817871
 70
   192
  0
VERTEX
  5
99
  8
0
 10
45.90399932861328
 20
-10.46000003814697
 30
2.38700008392334
 70
   192
  0
VERTEX
  5
9A
  8
0
 10
45.90399932861328
 20
-4.65500020980835
 30
9.666000366210938
 70
   192
  0
VERTEX
  5
9B
  8
0
 10
45.90399932861328
 20
8.387999534606934
 30
6.689000129699707
 70
   192
  0
VERTEX
  5
9C
  8
0
 62
     9
 10
0.0
 20
0.0
 30
0.0
 70
   128
 71
     3
 72
     2
 73
     1
  0
VERTEX
  5
9D
  8
0
 62
     9
 10
0.0
 20
0.0
 30
0.0
 70
   128
 71
     3
 72
     5
 73
     4
  0
VERTEX
  5
9E
  8
0
 62
     9
 10
0.0
 20
0.0
 30
0.0
 70
   128
 71
     7
 72
     6
 73
     4
  0
VERTEX
  5
9F
  8
0
 62
     9
 10
0.0
 20
0.0
 30
0.0
 70
   128
 71
     9
 72
     8
 73
     6
  0
VERTEX
  5
A0
  8
0
 62
     9
 10
0.0
 20
0.0
 30
0.0
 70
   128
 71
    11
 72
    10
 73
     8
  0
VERTEX
  5
A1
  8
0
 62
     9
 10
0.0
 20
0.0
 30
0.0
 70
   128
 71
    13
 72
    12
 73
    10
  0
VERTEX
  5
A2
  8
0
 62
     9
 10
0.0
 20
0.0
 30
0.0
 70
   128
 71
    13
 72
    15
 73
    14
  0
VERTEX
  5
A3
  8
0
 62
     9
 10
0.0
 20
0.0
 30
0.0
 70
   128
 71
    15
 72
    17
 73
    16
  0
VERTEX
  5
A4
  8
0
 62
     9
 10
0.0
 20
0.0
 30
0.0
 70
   128
 71
    19
 72
    18
 73
    16
  0
VERTEX
  5
A5
  8
0
 62
     9
 10
0.0
 20
0.0
 30
0.0
 70
   128
 71
    19
 72
    21
 73
    20
  0
VERTEX
  5
A6
  8
0
 62
     9
 10
0.0
 20
0.0
 30
0.0
 70
   128
 71
    23
 72
    22
 73
    20
  0
VERTEX
  5
A7
  8
0
 62
     9
 10
0.0
 20
0.0
 30
0.0
 70
   128
 71
    25
 72
    24
 73
    22
  0
VERTEX
  5
A8
  8
0
 62
     9
 10
0.0
 20
0.0
 30
0.0
 70
   128
 71
    25
 72
    27
 73
    26
  0
VERTEX
  5
A9
  8
0
 62
     9
 10
0.0
 20
0.0
 30
0.0
 70
   128
 71
    27
 72
    28
 73
     1
  0
VERTEX
  5
AA
  8
0
 62
     9
 10
0.0
 20
0.0
 30
0.0
 70
   128
 71
    29
 72
     3
 73
    28
  0
VERTEX
  5
AB
  8
0
 62
     9
 10
0.0
 20
0.0
 30
0.0
 70
   128
 71
    30
 72
     5
 73
     3
  0
VERTEX
  5
AC
  8
0
 62
     9
 10
0.0
 20
0.0
 30
0.0
 70
   128
 71
    31
 72
     7
 73
     5
  0
VERTEX
  5
AD
  8
0
 62
     9
 10
0.0
 20
0.0
 30
0.0
 70
   128
 71
    32
 72
     9
 73
     7
  0
VERTEX
  5
AE
  8
0
 62
     9
 10
0.0
 20
0.0
 30
0.0
 70
   128
 71
    33
 72
    11
 73
     9
  0
VERTEX
  5
AF
  8
0
 62
     9
 10
0.0
 20
0.0
 30
0.0
 70
   128
 71
    34
 72
    13
 73
    11
  0
VERTEX
  5
B0
  8
0
 62
     9
 10
0.0
 20
0.0
 30
0.0
 70
   128
 71
    35
 72
    15
 73
    13
  0
VERTEX
  5
B1
  8
0
 62
     9
 10
0.0
 20
0.0
 30
0.0
 70
   128
 71
    36
 72
    17
 73
    15
  0
VERTEX
  5
B2
  8
0
 62
     9
 10
0.0
 20
0.0
 30
0.0
 70
   128
 71
    37
 72
    19
 73
    17
  0
VERTEX
  5
B3
  8
0
 62
     9
 10
0.0
 20
0.0
 30
0.0
 70
   128
 71
    38
 72
    21
 73
    19
  0
VERTEX
  5
B4
  8
0
 62
     9
 10
0.0
 20
0.0
 30
0.0
 70
   128
 71
    39
 72
    23
 73
    21
  0
VERTEX
  5
B5
  8
0
 62
     9
 10
0.0
 20
0.0
 30
0.0
 70
   128
 71
    40
 72
    25
 73
    23
  0
VERTEX
  5
B6
  8
0
 62
     9
 10
0.0
 20
0.0
 30
0.0
 70
   128
 71
    41
 72
    27
 73
    25
  0
VERTEX
  5
B7
  8
0
 62
     9
 10
0.0
 20
0.0
 30
0.0
 70
   128
 71
    42
 72
    28
 73
    27
  0
VERTEX
  5
B8
  8
0
 62
     9
 10
0.0
 20
0.0
 30
0.0
 70
   128
 71
    42
 72
    44
 73
    43
  0
VERTEX
  5
B9
  8
0
 62
     9
 10
0.0
 20
0.0
 30
0.0
 70
   128
 71
    45
 72
    30
 73
    29
  0
VERTEX
  5
BA
  8
0
 62
     9
 10
0.0
 20
0.0
 30
0.0
 70
   128
 71
    45
 72
    46
 73
    30
  0
VERTEX
  5
BB
  8
0
 62
     9
 10
0.0
 20
0.0
 30
0.0
 70
   128
 71
    30
 72
    46
 73
    47
  0
VERTEX
  5
BC
  8
0
 62
     9
 10
0.0
 20
0.0
 30
0.0
 70
   128
 71
    48
 72
    32
 73
    31
  0
VERTEX
  5
BD
  8
0
 62
     9
 10
0.0
 20
0.0
 30
0.0
 70
   128
 71
    48
 72
    49
 73
    32
  0
VERTEX
  5
BE
  8
0
 62
     9
 10
0.0
 20
0.0
 30
0.0
 70
   128
 71
    33
 72
    32
 73
    49
  0
VERTEX
  5
BF
  8
0
 62
     9
 10
0.0
 20
0.0
 30
0.0
 70
   128
 71
    51
 72
    50
 73
    34
  0
VERTEX
  5
C0
  8
0
 62
     9
 10
0.0
 20
0.0
 30
0.0
 70
   128
 71
    34
 72
    33
 73
    51
  0
VERTEX
  5
C1
  8
0
 62
     9
 10
0.0
 20
0.0
 30
0.0
 70
   128
 71
    35
 72
    34
 73
    50
  0
VERTEX
  5
C2
  8
0
 62
     9
 10
0.0
 20
0.0
 30
0.0
 70
   128
 71
    36
 72
    35
 73
    52
  0
VERTEX
  5
C3
  8
0
 62
     9
 10
0.0
 20
0.0
 30
0.0
 70
   128
 71
    53
 72
    37
 73
    36
  0
VERTEX
  5
C4
  8
0
 62
     9
 10
0.0
 20
0.0
 30
0.0
 70
   128
 71
    53
 72
    54
 73
    37
  0
VERTEX
  5
C5
  8
0
 62
     9
 10
0.0
 20
0.0
 30
0.0
 70
   128
 71
    38
 72
    37
 73
    54
  0
VERTEX
  5
C6
  8
0
 62
     9
 10
0.0
 20
0.0
 30
0.0
 70
   128
 71
    55
 72
    39
 73
    38
  0
VERTEX
  5
C7
  8
0
 62
     9
 10
0.0
 20
0.0
 30
0.0
 70
   128
 71
    55
 72
    56
 73
    39
  0
VERTEX
  5
C8
  8
0
 62
     9
 10
0.0
 20
0.0
 30
0.0
 70
   128
 71
    39
 72
    56
 73
    57
  0
VERTEX
  5
C9
  8
0
 62
     9
 10
0.0
 20
0.0
 30
0.0
 70
   128
 71
    59
 72
    58
 73
    41
  0
VERTEX
  5
CA
  8
0
 62
     9
 10
0.0
 20
0.0
 30
0.0
 70
   128
 71
    41
 72
    40
 73
    59
  0
VERTEX
  5
CB
  8
0
 62
     9
 10
0.0
 20
0.0
 30
0.0
 70
   128
 71
    41
 72
    58
 73
    44
  0
VERTEX
  5
CC
  8
0
 62
     9
 10
0.0
 20
0.0
 30
0.0
 70
   128
 71
    44
 72
    42
 73
    41
  0
VERTEX
  5
CD
  8
0
 62
     9
 10
0.0
 20
0.0
 30
0.0
 70
   128
 71
    40
 72
    57
 73
    59
  0
VERTEX
  5
CE
  8
0
 62
     9
 10
0.0
 20
0.0
 30
0.0
 70
   128
 71
    57
 72
    40
 73
    39
  0
VERTEX
  5
CF
  8
0
 62
     9
 10
0.0
 20
0.0
 30
0.0
 70
   128
 71
    38
 72
    60
 73
    55
  0
VERTEX
  5
D0
  8
0
 62
     9
 10
0.0
 20
0.0
 30
0.0
 70
   128
 71
    54
 72
    60
 73
    38
  0
VERTEX
  5
D1
  8
0
 62
     9
 10
0.0
 20
0.0
 30
0.0
 70
   128
 71
    36
 72
    61
 73
    53
  0
VERTEX
  5
D2
  8
0
 62
     9
 10
0.0
 20
0.0
 30
0.0
 70
   128
 71
    52
 72
    61
 73
    36
  0
VERTEX
  5
D3
  8
0
 62
     9
 10
0.0
 20
0.0
 30
0.0
 70
   128
 71
    50
 72
    52
 73
    35
  0
VERTEX
  5
D4
  8
0
 62
     9
 10
0.0
 20
0.0
 30
0.0
 70
   128
 71
    33
 72
    62
 73
    51
  0
VERTEX
  5
D5
  8
0
 62
     9
 10
0.0
 20
0.0
 30
0.0
 70
   128
 71
    49
 72
    62
 73
    33
  0
VERTEX
  5
D6
  8
0
 62
     9
 10
0.0
 20
0.0
 30
0.0
 70
   128
 71
    31
 72
    47
 73
    48
  0
VERTEX
  5
D7
  8
0
 62
     9
 10
0.0
 20
0.0
 30
0.0
 70
   128
 71
    47
 72
    31
 73
    30
  0
VERTEX
  5
D8
  8
0
 62
     9
 10
0.0
 20
0.0
 30
0.0
 70
   128
 71
    29
 72
    43
 73
    45
  0
VERTEX
  5
D9
  8
0
 62
     9
 10
0.0
 20
0.0
 30
0.0
 70
   128
 71
    43
 72
    29
 73
    42
  0
VERTEX
  5
DA
  8
0
 62
     9
 10
0.0
 20
0.0
 30
0.0
 70
   128
 71
    27
 72
    41
 73
    42
  0
VERTEX
  5
DB
  8
0
 62
     9
 10
0.0
 20
0.0
 30
0.0
 70
   128
 71
    25
 72
    40
 73
    41
  0
VERTEX
  5
DC
  8
0
 62
     9
 10
0.0
 20
0.0
 30
0.0
 70
   128
 71
    23
 72
    39
 73
    40
  0
VERTEX
  5
DD
  8
0
 62
     9
 10
0.0
 20
0.0
 30
0.0
 70
   128
 71
    21
 72
    38
 73
    39
  0
VERTEX
  5
DE
  8
0
 62
     9
 10
0.0
 20
0.0
 30
0.0
 70
   128
 71
    19
 72
    37
 73
    38
  0
VERTEX
  5
DF
  8
0
 62
     9
 10
0.0
 20
0.0
 30
0.0
 70
   128
 71
    17
 72
    36
 73
    37
  0
VERTEX
  5
E0
  8
0
 62
     9
 10
0.0
 20
0.0
 30
0.0
 70
   128
 71
    15
 72
    35
 73
    36
  0
VERTEX
  5
E1
  8
0
 62
     9
 10
0.0
 20
0.0
 30
0.0
 70
   128
 71
    13
 72
    34
 73
    35
  0
VERTEX
  5
E2
  8
0
 62
     9
 10
0.0
 20
0.0
 30
0.0
 70
   128
 71
    11
 72
    33
 73
    34
  0
VERTEX
  5
E3
  8
0
 62
     9
 10
0.0
 20
0.0
 30
0.0
 70
   128
 71
     9
 72
    32
 73
    33
  0
VERTEX
  5
E4
  8
0
 62
     9
 10
0.0
 20
0.0
 30
0.0
 70
   128
 71
     7
 72
    31
 73
    32
  0
VERTEX
  5
E5
  8
0
 62
     9
 10
0.0
 20
0.0
 30
0.0
 70
   128
 71
     5
 72
    30
 73
    31
  0
VERTEX
  5
E6
  8
0
 62
     9
 10
0.0
 20
0.0
 30
0.0
 70
   128
 71
     3
 72
    29
 73
    30
  0
VERTEX
  5
E7
  8
0
 62
     9
 10
0.0
 20
0.0
 30
0.0
 70
   128
 71
    28
 72
    42
 73
    29
  0
VERTEX
  5
E8
  8
0
 62
     9
 10
0.0
 20
0.0
 30
0.0
 70
   128
 71
     1
 72
    26
 73
    27
  0
VERTEX
  5
E9
  8
0
 62
     9
 10
0.0
 20
0.0
 30
0.0
 70
   128
 71
    26
 72
    24
 73
    25
  0
VERTEX
  5
EA
  8
0
 62
     9
 10
0.0
 20
0.0
 30
0.0
 70
   128
 71
    22
 72
    23
 73
    25
  0
VERTEX
  5
EB
  8
0
 62
     9
 10
0.0
 20
0.0
 30
0.0
 70
   128
 71
    20
 72
    21
 73
    23
  0
VERTEX
  5
EC
  8
0
 62
     9
 10
0.0
 20
0.0
 30
0.0
 70
   128
 71
    20
 72
    18
 73
    19
  0
VERTEX
  5
ED
  8
0
 62
     9
 10
0.0
 20
0.0
 30
0.0
 70
   128
 71
    16
 72
    17
 73
    19
  0
VERTEX
  5
EE
  8
0
 62
     9
 10
0.0
 20
0.0
 30
0.0
 70
   128
 71
    16
 72
    14
 73
    15
  0
VERTEX
  5
EF
  8
0
 62
     9
 10
0.0
 20
0.0
 30
0.0
 70
   128
 71
    14
 72
    12
 73
    13
  0
VERTEX
  5
F0
  8
0
 62
     9
 10
0.0
 20
0.0
 30
0.0
 70
   128
 71
    10
 72
    11
 73
    13
  0
VERTEX
  5
F1
  8
0
 62
     9
 10
0.0
 20
0.0
 30
0.0
 70
   128
 71
     8
 72
     9
 73
    11
  0
VERTEX
  5
F2
  8
0
 62
     9
 10
0.0
 20
0.0
 30
0.0
 70
   128
 71
     6
 72
     7
 73
     9
  0
VERTEX
  5
F3
  8
0
 62
     9
 10
0.0
 20
0.0
 30
0.0
 70
   128
 71
     4
 72
     5
 73
     7
  0
VERTEX
  5
F4
  8
0
 62
     9
 10
0.0
 20
0.0
 30
0.0
 70
   128
 71
     4
 72
     2
 73
     3
  0
VERTEX
  5
F5
  8
0
 62
     9
 10
0.0
 20
0.0
 30
0.0
 70
   128
 71
     1
 72
    28
 73
     3
  0
SEQEND
  5
F6
  8
0
 62
     9
  0
ENDBLK
  5
F9
  8
0
  0
BLOCK
  8
0
  2
E3_NODE_2_
 70
     0
 10
0.0
 20
0.0
 30
0.0
  3
E3_NODE_2_
  1

  0
POLYLINE
  5
FB
  8
0
 62
     9
 66
     1
 10
0.0
 20
0.0
 30
0.0
 70
    64
 71
    28
 72
    28
  0
VERTEX
  5
FC
  8
0
 10
47.02799987792969
 20
0.0
 30
9.717000007629395
 70
   192
  0
VERTEX
  5
FD
  8
0
 10
47.02799987792969
 20
6.870999813079834
 30
6.870999813079834
 70
   192
  0
VERTEX
  5
FE
  8
0
 10
45.90399932861328
 20
4.65500020980835
 30
9.666000366210938
 70
   192
  0
VERTEX
  5
FF
  8
0
 10
45.90399932861328
 20
7.460999965667725
 30
7.428999900817871
 70
   192
  0
VERTEX
  5
100
  8
0
 10
47.02799987792969
 20
9.717000007629395
 30
0.0
 70
   192
  0
VERTEX
  5
101
  8
0
 10
45.90399932861328
 20
10.46000003814697
 30
2.38700008392334
 70
   192
  0
VERTEX
  5
102
  8
0
 10
45.90399932861328
 20
8.387999534606934
 30
6.689000129699707
 70
   192
  0
VERTEX
  5
103
  8
0
 10
45.90399932861328
 20
10.46000003814697
 30
0.0
 70
   192
  0
VERTEX
  5
104
  8
0
 10
47.02799987792969
 20
6.870999813079834
 30
-6.870999813079834
 70
   192
  0
VERTEX
  5
105
  8
0
 10
45.90399932861328
 20
8.387999534606934
 30
-6.689000129699707
 70
   192
  0
VERTEX
  5
106
  8
0
 10
45.90399932861328
 20
10.46000003814697
 30
-2.38700008392334
 70
   192
  0
VERTEX
  5
107
  8
0
 10
45.90399932861328
 20
7.460999965667725
 30
-7.428999900817871
 70
   192
  0
VERTEX
  5
108
  8
0
 10
47.02799987792969
 20
0.0
 30
-9.717000007629395
 70
   192
  0
VERTEX
  5
109
  8
0
 10
45.90399932861328
 20
0.0
 30
-10.72900009155273
 70
   192
  0
VERTEX
  5
10A
  8
0
 10
45.90399932861328
 20
4.65500020980835
 30
-9.666000366210938
 70
   192
  0
VERTEX
  5
10B
  8
0
 10
47.02799987792969
 20
-6.870999813079834
 30
-6.870999813079834
 70
   192
  0
VERTEX
  5
10C
  8
0
 10
45.90399932861328
 20
-4.65500020980835
 30
-9.666000366210938
 70
   192
  0
VERTEX
  5
10D
  8
0
 10
45.90399932861328
 20
-7.460999965667725
 30
-7.428999900817871
 70
   192
  0
VERTEX
  5
10E
  8
0
 10
47.02799987792969
 20
-9.717000007629395
 30
0.0
 70
   192
  0
VERTEX
  5
10F
  8
0
 10
45.90399932861328
 20
-10.46000003814697
 30
-2.38700008392334
 70
   192
  0
VERTEX
  5
110
  8
0
 10
45.90399932861328
 20
-8.387999534606934
 30
-6.689000129699707
 70
   192
  0
VERTEX
  5
111
  8
0
 10
45.90399932861328
 20
-10.46000003814697
 30
0.0
 70
   192
  0
VERTEX
  5
112
  8
0
 10
47.02799987792969
 20
-6.870999813079834
 30
6.870999813079834
 70
   192
  0
VERTEX
  5
113
  8
0
 10
45.90399932861328
 20
-8.387999534606934
 30
6.689000129699707
 70
   192
  0
VERTEX
  5
114
  8
0
 10
45.90399932861328
 20
-10.46000003814697
 30
2.38700008392334
 70
   192
  0
VERTEX
  5
115
  8
0
 10
45.90399932861328
 20
-7.460999965667725
 30
7.428999900817871
 70
   192
  0
VERTEX
  5
116
  8
0
 10
45.90399932861328
 20
0.0
 30
10.72900009155273
 70
   192
  0
VERTEX
  5
117
  8
0
 10
45.90399932861328
 20
-4.65500020980835
 30
9.666000366210938
 70
   192
  0
VERTEX
  5
118
  8
0
 62
     9
 10
0.0
 20
0.0
 30
0.0
 70
   128
 71
     3
 72
     2
 73
     1
  0
VERTEX
  5
119
  8
0
 62
     9
 10
0.0
 20
0.0
 30
0.0
 70
   128
 71
     3
 72
     4
 73
     2
  0
VERTEX
  5
11A
  8
0
 62
     9
 10
0.0
 20
0.0
 30
0.0
 70
   128
 71
     6
 72
     5
 73
     2
  0
VERTEX
  5
11B
  8
0
 62
     9
 10
0.0
 20
0.0
 30
0.0
 70
   128
 71
     2
 72
     7
 73
     6
  0
VERTEX
  5
11C
  8
0
 62
     9
 10
0.0
 20
0.0
 30
0.0
 70
   128
 71
     6
 72
     8
 73
     5
  0
VERTEX
  5
11D
  8
0
 62
     9
 10
0.0
 20
0.0
 30
0.0
 70
   128
 71
    11
 72
    10
 73
     9
  0
VERTEX
  5
11E
  8
0
 62
     9
 10
0.0
 20
0.0
 30
0.0
 70
   128
 71
    10
 72
    12
 73
     9
  0
VERTEX
  5
11F
  8
0
 62
     9
 10
0.0
 20
0.0
 30
0.0
 70
   128
 71
     9
 72
     5
 73
    11
  0
VERTEX
  5
120
  8
0
 62
     9
 10
0.0
 20
0.0
 30
0.0
 70
   128
 71
    15
 72
    14
 73
    13
  0
VERTEX
  5
121
  8
0
 62
     9
 10
0.0
 20
0.0
 30
0.0
 70
   128
 71
    13
 72
     9
 73
    15
  0
VERTEX
  5
122
  8
0
 62
     9
 10
0.0
 20
0.0
 30
0.0
 70
   128
 71
    17
 72
    16
 73
    13
  0
VERTEX
  5
123
  8
0
 62
     9
 10
0.0
 20
0.0
 30
0.0
 70
   128
 71
    17
 72
    18
 73
    16
  0
VERTEX
  5
124
  8
0
 62
     9
 10
0.0
 20
0.0
 30
0.0
 70
   128
 71
    20
 72
    19
 73
    16
  0
VERTEX
  5
125
  8
0
 62
     9
 10
0.0
 20
0.0
 30
0.0
 70
   128
 71
    16
 72
    21
 73
    20
  0
VERTEX
  5
126
  8
0
 62
     9
 10
0.0
 20
0.0
 30
0.0
 70
   128
 71
    20
 72
    22
 73
    19
  0
VERTEX
  5
127
  8
0
 62
     9
 10
0.0
 20
0.0
 30
0.0
 70
   128
 71
    25
 72
    24
 73
    23
  0
VERTEX
  5
128
  8
0
 62
     9
 10
0.0
 20
0.0
 30
0.0
 70
   128
 71
    24
 72
    26
 73
    23
  0
VERTEX
  5
129
  8
0
 62
     9
 10
0.0
 20
0.0
 30
0.0
 70
   128
 71
    23
 72
    19
 73
    25
  0
VERTEX
  5
12A
  8
0
 62
     9
 10
0.0
 20
0.0
 30
0.0
 70
   128
 71
    28
 72
    27
 73
     1
  0
VERTEX
  5
12B
  8
0
 62
     9
 10
0.0
 20
0.0
 30
0.0
 70
   128
 71
     1
 72
    23
 73
    28
  0
VERTEX
  5
12C
  8
0
 62
     9
 10
0.0
 20
0.0
 30
0.0
 70
   128
 71
    23
 72
    26
 73
    28
  0
VERTEX
  5
12D
  8
0
 62
     9
 10
0.0
 20
0.0
 30
0.0
 70
   128
 71
    19
 72
    22
 73
    25
  0
VERTEX
  5
12E
  8
0
 62
     9
 10
0.0
 20
0.0
 30
0.0
 70
   128
 71
    16
 72
    18
 73
    21
  0
VERTEX
  5
12F
  8
0
 62
     9
 10
0.0
 20
0.0
 30
0.0
 70
   128
 71
    13
 72
    14
 73
    17
  0
VERTEX
  5
130
  8
0
 62
     9
 10
0.0
 20
0.0
 30
0.0
 70
   128
 71
     9
 72
    12
 73
    15
  0
VERTEX
  5
131
  8
0
 62
     9
 10
0.0
 20
0.0
 30
0.0
 70
   128
 71
     5
 72
     8
 73
    11
  0
VERTEX
  5
132
  8
0
 62
     9
 10
0.0
 20
0.0
 30
0.0
 70
   128
 71
     2
 72
     4
 73
     7
  0
VERTEX
  5
133
  8
0
 62
     9
 10
0.0
 20
0.0
 30
0.0
 70
   128
 71
     1
 72
    27
 73
     3
  0
SEQEND
  5
134
  8
0
 62
     9
  0
ENDBLK
  5
137
  8
0
  0
BLOCK
  8
0
  2
E3_NODE_3_
 70
     0
 10
0.0
 20
0.0
 30
0.0
  3
E3_NODE_3_
  1

  0
POLYLINE
  5
139
  8
0
 62
     9
 66
     1
 10
0.0
 20
0.0
 30
0.0
 70
    64
 71
    28
 72
    45
  0
VERTEX
  5
13A
  8
0
 10
67.38999938964844
 20
0.0
 30
0.0
 70
   192
  0
VERTEX
  5
13B
  8
0
 10
64.03299713134766
 20
-5.479000091552734
 30
-6.528999805450439
 70
   192
  0
VERTEX
  5
13C
  8
0
 10
64.03299713134766
 20
0.0
 30
-8.52299976348877
 70
   192
  0
VERTEX
  5
13D
  8
0
 10
64.03299713134766
 20
-8.394000053405762
 30
-1.480000019073486
 70
   192
  0
VERTEX
  5
13E
  8
0
 10
64.03299713134766
 20
-7.38100004196167
 30
4.26200008392334
 70
   192
  0
VERTEX
  5
13F
  8
0
 10
64.03299713134766
 20
-2.914999961853027
 30
8.008999824523926
 70
   192
  0
VERTEX
  5
140
  8
0
 10
64.03299713134766
 20
2.914999961853027
 30
8.008999824523926
 70
   192
  0
VERTEX
  5
141
  8
0
 10
64.03299713134766
 20
7.38100004196167
 30
4.26200008392334
 70
   192
  0
VERTEX
  5
142
  8
0
 10
64.03299713134766
 20
8.394000053405762
 30
-1.480000019073486
 70
   192
  0
VERTEX
  5
143
  8
0
 10
64.03299713134766
 20
5.479000091552734
 30
-6.528999805450439
 70
   192
  0
VERTEX
  5
144
  8
0
 10
55.76599884033203
 20
-8.015000343322754
 30
-9.552000045776367
 70
   192
  0
VERTEX
  5
145
  8
0
 10
55.76599884033203
 20
0.0
 30
-12.4689998626709
 70
   192
  0
VERTEX
  5
146
  8
0
 10
55.76599884033203
 20
-12.2790002822876
 30
-2.164999961853027
 70
   192
  0
VERTEX
  5
147
  8
0
 10
55.76599884033203
 20
-10.79800033569336
 30
6.234000205993652
 70
   192
  0
VERTEX
  5
148
  8
0
 10
55.76599884033203
 20
-4.264999866485596
 30
11.71700000762939
 70
   192
  0
VERTEX
  5
149
  8
0
 10
55.76599884033203
 20
4.264999866485596
 30
11.71700000762939
 70
   192
  0
VERTEX
  5
14A
  8
0
 10
55.76599884033203
 20
10.79800033569336
 30
6.234000205993652
 70
   192
  0
VERTEX
  5
14B
  8
0
 10
55.76599884033203
 20
12.2790002822876
 30
-2.164999961853027
 70
   192
  0
VERTEX
  5
14C
  8
0
 10
55.76599884033203
 20
8.015000343322754
 30
-9.552000045776367
 70
   192
  0
VERTEX
  5
14D
  8
0
 10
47.02799987792969
 20
-6.245999813079834
 30
-7.443999767303467
 70
   192
  0
VERTEX
  5
14E
  8
0
 10
47.02799987792969
 20
0.0
 30
-9.717000007629395
 70
   192
  0
VERTEX
  5
14F
  8
0
 10
47.02799987792969
 20
-9.569000244140625
 30
-1.687000036239624
 70
   192
  0
VERTEX
  5
150
  8
0
 10
47.02799987792969
 20
-8.414999961853027
 30
4.859000205993652
 70
   192
  0
VERTEX
  5
151
  8
0
 10
47.02799987792969
 20
-3.322999954223633
 30
9.130999565124512
 70
   192
  0
VERTEX
  5
152
  8
0
 10
47.02799987792969
 20
3.322999954223633
 30
9.130999565124512
 70
   192
  0
VERTEX
  5
153
  8
0
 10
47.02799987792969
 20
8.414999961853027
 30
4.859000205993652
 70
   192
  0
VERTEX
  5
154
  8
0
 10
47.02799987792969
 20
9.569000244140625
 30
-1.687000036239624
 70
   192
  0
VERTEX
  5
155
  8
0
 10
47.02799987792969
 20
6.245999813079834
 30
-7.443999767303467
 70
   192
  0
VERTEX
  5
156
  8
0
 62
     9
 10
0.0
 20
0.0
 30
0.0
 70
   128
 71
     3
 72
     2
 73
     1
  0
VERTEX
  5
157
  8
0
 62
     9
 10
0.0
 20
0.0
 30
0.0
 70
   128
 71
     2
 72
     4
 73
     1
  0
VERTEX
  5
158
  8
0
 62
     9
 10
0.0
 20
0.0
 30
0.0
 70
   128
 71
     4
 72
     5
 73
     1
  0
VERTEX
  5
159
  8
0
 62
     9
 10
0.0
 20
0.0
 30
0.0
 70
   128
 71
     5
 72
     6
 73
     1
  0
VERTEX
  5
15A
  8
0
 62
     9
 10
0.0
 20
0.0
 30
0.0
 70
   128
 71
     6
 72
     7
 73
     1
  0
VERTEX
  5
15B
  8
0
 62
     9
 10
0.0
 20
0.0
 30
0.0
 70
   128
 71
     7
 72
     8
 73
     1
  0
VERTEX
  5
15C
  8
0
 62
     9
 10
0.0
 20
0.0
 30
0.0
 70
   128
 71
     8
 72
     9
 73
     1
  0
VERTEX
  5
15D
  8
0
 62
     9
 10
0.0
 20
0.0
 30
0.0
 70
   128
 71
     9
 72
    10
 73
     1
  0
VERTEX
  5
15E
  8
0
 62
     9
 10
0.0
 20
0.0
 30
0.0
 70
   128
 71
    10
 72
     3
 73
     1
  0
VERTEX
  5
15F
  8
0
 62
     9
 10
0.0
 20
0.0
 30
0.0
 70
   128
 71
    11
 72
     2
 73
     3
  0
VERTEX
  5
160
  8
0
 62
     9
 10
0.0
 20
0.0
 30
0.0
 70
   128
 71
    12
 72
    11
 73
     3
  0
VERTEX
  5
161
  8
0
 62
     9
 10
0.0
 20
0.0
 30
0.0
 70
   128
 71
    13
 72
     4
 73
     2
  0
VERTEX
  5
162
  8
0
 62
     9
 10
0.0
 20
0.0
 30
0.0
 70
   128
 71
    11
 72
    13
 73
     2
  0
VERTEX
  5
163
  8
0
 62
     9
 10
0.0
 20
0.0
 30
0.0
 70
   128
 71
    14
 72
     5
 73
     4
  0
VERTEX
  5
164
  8
0
 62
     9
 10
0.0
 20
0.0
 30
0.0
 70
   128
 71
    13
 72
    14
 73
     4
  0
VERTEX
  5
165
  8
0
 62
     9
 10
0.0
 20
0.0
 30
0.0
 70
   128
 71
    15
 72
     6
 73
     5
  0
VERTEX
  5
166
  8
0
 62
     9
 10
0.0
 20
0.0
 30
0.0
 70
   128
 71
    14
 72
    15
 73
     5
  0
VERTEX
  5
167
  8
0
 62
     9
 10
0.0
 20
0.0
 30
0.0
 70
   128
 71
    16
 72
     7
 73
     6
  0
VERTEX
  5
168
  8
0
 62
     9
 10
0.0
 20
0.0
 30
0.0
 70
   128
 71
    15
 72
    16
 73
     6
  0
VERTEX
  5
169
  8
0
 62
     9
 10
0.0
 20
0.0
 30
0.0
 70
   128
 71
    17
 72
     8
 73
     7
  0
VERTEX
  5
16A
  8
0
 62
     9
 10
0.0
 20
0.0
 30
0.0
 70
   128
 71
    16
 72
    17
 73
     7
  0
VERTEX
  5
16B
  8
0
 62
     9
 10
0.0
 20
0.0
 30
0.0
 70
   128
 71
    18
 72
     9
 73
     8
  0
VERTEX
  5
16C
  8
0
 62
     9
 10
0.0
 20
0.0
 30
0.0
 70
   128
 71
    17
 72
    18
 73
     8
  0
VERTEX
  5
16D
  8
0
 62
     9
 10
0.0
 20
0.0
 30
0.0
 70
   128
 71
    19
 72
    10
 73
     9
  0
VERTEX
  5
16E
  8
0
 62
     9
 10
0.0
 20
0.0
 30
0.0
 70
   128
 71
    18
 72
    19
 73
     9
  0
VERTEX
  5
16F
  8
0
 62
     9
 10
0.0
 20
0.0
 30
0.0
 70
   128
 71
    12
 72
     3
 73
    10
  0
VERTEX
  5
170
  8
0
 62
     9
 10
0.0
 20
0.0
 30
0.0
 70
   128
 71
    19
 72
    12
 73
    10
  0
VERTEX
  5
171
  8
0
 62
     9
 10
0.0
 20
0.0
 30
0.0
 70
   128
 71
    20
 72
    11
 73
    12
  0
VERTEX
  5
172
  8
0
 62
     9
 10
0.0
 20
0.0
 30
0.0
 70
   128
 71
    21
 72
    20
 73
    12
  0
VERTEX
  5
173
  8
0
 62
     9
 10
0.0
 20
0.0
 30
0.0
 70
   128
 71
    22
 72
    13
 73
    11
  0
VERTEX
  5
174
  8
0
 62
     9
 10
0.0
 20
0.0
 30
0.0
 70
   128
 71
    20
 72
    22
 73
    11
  0
VERTEX
  5
175
  8
0
 62
     9
 10
0.0
 20
0.0
 30
0.0
 70
   128
 71
    23
 72
    14
 73
    13
  0
VERTEX
  5
176
  8
0
 62
     9
 10
0.0
 20
0.0
 30
0.0
 70
   128
 71
    22
 72
    23
 73
    13
  0
VERTEX
  5
177
  8
0
 62
     9
 10
0.0
 20
0.0
 30
0.0
 70
   128
 71
    24
 72
    15
 73
    14
  0
VERTEX
  5
178
  8
0
 62
     9
 10
0.0
 20
0.0
 30
0.0
 70
   128
 71
    23
 72
    24
 73
    14
  0
VERTEX
  5
179
  8
0
 62
     9
 10
0.0
 20
0.0
 30
0.0
 70
   128
 71
    25
 72
    16
 73
    15
  0
VERTEX
  5
17A
  8
0
 62
     9
 10
0.0
 20
0.0
 30
0.0
 70
   128
 71
    24
 72
    25
 73
    15
  0
VERTEX
  5
17B
  8
0
 62
     9
 10
0.0
 20
0.0
 30
0.0
 70
   128
 71
    26
 72
    17
 73
    16
  0
VERTEX
  5
17C
  8
0
 62
     9
 10
0.0
 20
0.0
 30
0.0
 70
   128
 71
    25
 72
    26
 73
    16
  0
VERTEX
  5
17D
  8
0
 62
     9
 10
0.0
 20
0.0
 30
0.0
 70
   128
 71
    27
 72
    18
 73
    17
  0
VERTEX
  5
17E
  8
0
 62
     9
 10
0.0
 20
0.0
 30
0.0
 70
   128
 71
    26
 72
    27
 73
    17
  0
VERTEX
  5
17F
  8
0
 62
     9
 10
0.0
 20
0.0
 30
0.0
 70
   128
 71
    28
 72
    19
 73
    18
  0
VERTEX
  5
180
  8
0
 62
     9
 10
0.0
 20
0.0
 30
0.0
 70
   128
 71
    27
 72
    28
 73
    18
  0
VERTEX
  5
181
  8
0
 62
     9
 10
0.0
 20
0.0
 30
0.0
 70
   128
 71
    21
 72
    12
 73
    19
  0
VERTEX
  5
182
  8
0
 62
     9
 10
0.0
 20
0.0
 30
0.0
 70
   128
 71
    28
 72
    21
 73
    19
  0
SEQEND
  5
183
  8
0
 62
     9
  0
ENDBLK
  5
186
  8
0
  0
BLOCK
  8
0
  2
E3_NODE_4_
 70
     0
 10
0.0
 20
0.0
 30
0.0
  3
E3_NODE_4_
  1

  0
POLYLINE
  5
188
  8
0
 62
     9
 66
     1
 10
0.0
 20
0.0
 30
0.0
 70
    64
 71
    36
 72
    48
  0
VERTEX
  5
189
  8
0
 10
3.622999906539917
 20
-609.9349975585938
 30
-20.11100006103516
 70
   192
  0
VERTEX
  5
18A
  8
0
 10
6.703000068664551
 20
-612.10498046875
 30
-16.35199928283691
 70
   192
  0
VERTEX
  5
18B
  8
0
 10
6.703000068664551
 20
-621.5460205078125
 30
-18.88199996948242
 70
   192
  0
VERTEX
  5
18C
  8
0
 10
3.622999906539917
 20
-601.4349975585938
 30
-11.61100006103516
 70
   192
  0
VERTEX
  5
18D
  8
0
 10
6.703000068664551
 20
-605.1939697265625
 30
-9.440999984741211
 70
   192
  0
VERTEX
  5
18E
  8
0
 10
3.622999906539917
 20
-598.323974609375
 30
0.0
 70
   192
  0
VERTEX
  5
18F
  8
0
 10
6.703000068664551
 20
-602.6640014648438
 30
0.0
 70
   192
  0
VERTEX
  5
190
  8
0
 10
3.622999906539917
 20
-601.4349975585938
 30
11.61100006103516
 70
   192
  0
VERTEX
  5
191
  8
0
 10
6.703000068664551
 20
-605.1939697265625
 30
9.440999984741211
 70
   192
  0
VERTEX
  5
192
  8
0
 10
3.622999906539917
 20
-609.9349975585938
 30
20.11100006103516
 70
   192
  0
VERTEX
  5
193
  8
0
 10
6.703000068664551
 20
-612.10498046875
 30
16.35199928283691
 70
   192
  0
VERTEX
  5
194
  8
0
 10
3.622999906539917
 20
-621.5460205078125
 30
23.22200012207031
 70
   192
  0
VERTEX
  5
195
  8
0
 10
6.703000068664551
 20
-621.5460205078125
 30
18.88199996948242
 70
   192
  0
VERTEX
  5
196
  8
0
 10
3.622999906539917
 20
-633.156982421875
 30
20.11100006103516
 70
   192
  0
VERTEX
  5
197
  8
0
 10
6.703000068664551
 20
-630.9869995117188
 30
16.35199928283691
 70
   192
  0
VERTEX
  5
198
  8
0
 10
3.622999906539917
 20
-641.656982421875
 30
11.61100006103516
 70
   192
  0
VERTEX
  5
199
  8
0
 10
6.703000068664551
 20
-637.8980102539062
 30
9.440999984741211
 70
   192
  0
VERTEX
  5
19A
  8
0
 10
3.622999906539917
 20
-644.7680053710938
 30
0.0
 70
   192
  0
VERTEX
  5
19B
  8
0
 10
6.703000068664551
 20
-640.427978515625
 30
0.0
 70
   192
  0
VERTEX
  5
19C
  8
0
 10
3.622999906539917
 20
-641.656982421875
 30
-11.61100006103516
 70
   192
  0
VERTEX
  5
19D
  8
0
 10
6.703000068664551
 20
-637.8980102539062
 30
-9.440999984741211
 70
   192
  0
VERTEX
  5
19E
  8
0
 10
3.622999906539917
 20
-633.156982421875
 30
-20.11100006103516
 70
   192
  0
VERTEX
  5
19F
  8
0
 10
6.703000068664551
 20
-630.9869995117188
 30
-16.35199928283691
 70
   192
  0
VERTEX
  5
1A0
  8
0
 10
3.622999906539917
 20
-621.5460205078125
 30
-23.22200012207031
 70
   192
  0
VERTEX
  5
1A1
  8
0
 10
11.30000019073486
 20
-613.4459838867188
 30
-14.0290002822876
 70
   192
  0
VERTEX
  5
1A2
  8
0
 10
11.30000019073486
 20
-621.5460205078125
 30
-16.20000076293945
 70
   192
  0
VERTEX
  5
1A3
  8
0
 10
11.30000019073486
 20
-607.5170288085938
 30
-8.100000381469727
 70
   192
  0
VERTEX
  5
1A4
  8
0
 10
11.30000019073486
 20
-605.3460083007812
 30
0.0
 70
   192
  0
VERTEX
  5
1A5
  8
0
 10
11.30000019073486
 20
-607.5170288085938
 30
8.100000381469727
 70
   192
  0
VERTEX
  5
1A6
  8
0
 10
11.30000019073486
 20
-613.4459838867188
 30
14.0290002822876
 70
   192
  0
VERTEX
  5
1A7
  8
0
 10
11.30000019073486
 20
-621.5460205078125
 30
16.20000076293945
 70
   192
  0
VERTEX
  5
1A8
  8
0
 10
11.30000019073486
 20
-629.64599609375
 30
14.0290002822876
 70
   192
  0
VERTEX
  5
1A9
  8
0
 10
11.30000019073486
 20
-635.5750122070312
 30
8.100000381469727
 70
   192
  0
VERTEX
  5
1AA
  8
0
 10
11.30000019073486
 20
-637.7459716796875
 30
0.0
 70
   192
  0
VERTEX
  5
1AB
  8
0
 10
11.30000019073486
 20
-635.5750122070312
 30
-8.100000381469727
 70
   192
  0
VERTEX
  5
1AC
  8
0
 10
11.30000019073486
 20
-629.64599609375
 30
-14.0290002822876
 70
   192
  0
VERTEX
  5
1AD
  8
0
 62
     9
 10
0.0
 20
0.0
 30
0.0
 70
   128
 71
     3
 72
     2
 73
     1
  0
VERTEX
  5
1AE
  8
0
 62
     9
 10
0.0
 20
0.0
 30
0.0
 70
   128
 71
     2
 72
     5
 73
     4
  0
VERTEX
  5
1AF
  8
0
 62
     9
 10
0.0
 20
0.0
 30
0.0
 70
   128
 71
     7
 72
     6
 73
     4
  0
VERTEX
  5
1B0
  8
0
 62
     9
 10
0.0
 20
0.0
 30
0.0
 70
   128
 71
     7
 72
     9
 73
     8
  0
VERTEX
  5
1B1
  8
0
 62
     9
 10
0.0
 20
0.0
 30
0.0
 70
   128
 71
    11
 72
    10
 73
     8
  0
VERTEX
  5
1B2
  8
0
 62
     9
 10
0.0
 20
0.0
 30
0.0
 70
   128
 71
    13
 72
    12
 73
    10
  0
VERTEX
  5
1B3
  8
0
 62
     9
 10
0.0
 20
0.0
 30
0.0
 70
   128
 71
    13
 72
    15
 73
    14
  0
VERTEX
  5
1B4
  8
0
 62
     9
 10
0.0
 20
0.0
 30
0.0
 70
   128
 71
    15
 72
    17
 73
    16
  0
VERTEX
  5
1B5
  8
0
 62
     9
 10
0.0
 20
0.0
 30
0.0
 70
   128
 71
    19
 72
    18
 73
    16
  0
VERTEX
  5
1B6
  8
0
 62
     9
 10
0.0
 20
0.0
 30
0.0
 70
   128
 71
    19
 72
    21
 73
    20
  0
VERTEX
  5
1B7
  8
0
 62
     9
 10
0.0
 20
0.0
 30
0.0
 70
   128
 71
    21
 72
    23
 73
    22
  0
VERTEX
  5
1B8
  8
0
 62
     9
 10
0.0
 20
0.0
 30
0.0
 70
   128
 71
    23
 72
     3
 73
    24
  0
VERTEX
  5
1B9
  8
0
 62
     9
 10
0.0
 20
0.0
 30
0.0
 70
   128
 71
    26
 72
    25
 73
     2
  0
VERTEX
  5
1BA
  8
0
 62
     9
 10
0.0
 20
0.0
 30
0.0
 70
   128
 71
    25
 72
    27
 73
     5
  0
VERTEX
  5
1BB
  8
0
 62
     9
 10
0.0
 20
0.0
 30
0.0
 70
   128
 71
    27
 72
    28
 73
     7
  0
VERTEX
  5
1BC
  8
0
 62
     9
 10
0.0
 20
0.0
 30
0.0
 70
   128
 71
    29
 72
     9
 73
     7
  0
VERTEX
  5
1BD
  8
0
 62
     9
 10
0.0
 20
0.0
 30
0.0
 70
   128
 71
    30
 72
    11
 73
     9
  0
VERTEX
  5
1BE
  8
0
 62
     9
 10
0.0
 20
0.0
 30
0.0
 70
   128
 71
    31
 72
    13
 73
    11
  0
VERTEX
  5
1BF
  8
0
 62
     9
 10
0.0
 20
0.0
 30
0.0
 70
   128
 71
    31
 72
    32
 73
    15
  0
VERTEX
  5
1C0
  8
0
 62
     9
 10
0.0
 20
0.0
 30
0.0
 70
   128
 71
    32
 72
    33
 73
    17
  0
VERTEX
  5
1C1
  8
0
 62
     9
 10
0.0
 20
0.0
 30
0.0
 70
   128
 71
    33
 72
    34
 73
    19
  0
VERTEX
  5
1C2
  8
0
 62
     9
 10
0.0
 20
0.0
 30
0.0
 70
   128
 71
    35
 72
    21
 73
    19
  0
VERTEX
  5
1C3
  8
0
 62
     9
 10
0.0
 20
0.0
 30
0.0
 70
   128
 71
    36
 72
    23
 73
    21
  0
VERTEX
  5
1C4
  8
0
 62
     9
 10
0.0
 20
0.0
 30
0.0
 70
   128
 71
    26
 72
     3
 73
    23
  0
VERTEX
  5
1C5
  8
0
 62
     9
 10
0.0
 20
0.0
 30
0.0
 70
   128
 71
    23
 72
    36
 73
    26
  0
VERTEX
  5
1C6
  8
0
 62
     9
 10
0.0
 20
0.0
 30
0.0
 70
   128
 71
    21
 72
    35
 73
    36
  0
VERTEX
  5
1C7
  8
0
 62
     9
 10
0.0
 20
0.0
 30
0.0
 70
   128
 71
    19
 72
    34
 73
    35
  0
VERTEX
  5
1C8
  8
0
 62
     9
 10
0.0
 20
0.0
 30
0.0
 70
   128
 71
    19
 72
    17
 73
    33
  0
VERTEX
  5
1C9
  8
0
 62
     9
 10
0.0
 20
0.0
 30
0.0
 70
   128
 71
    17
 72
    15
 73
    32
  0
VERTEX
  5
1CA
  8
0
 62
     9
 10
0.0
 20
0.0
 30
0.0
 70
   128
 71
    15
 72
    13
 73
    31
  0
VERTEX
  5
1CB
  8
0
 62
     9
 10
0.0
 20
0.0
 30
0.0
 70
   128
 71
    11
 72
    30
 73
    31
  0
VERTEX
  5
1CC
  8
0
 62
     9
 10
0.0
 20
0.0
 30
0.0
 70
   128
 71
     9
 72
    29
 73
    30
  0
VERTEX
  5
1CD
  8
0
 62
     9
 10
0.0
 20
0.0
 30
0.0
 70
   128
 71
     7
 72
    28
 73
    29
  0
VERTEX
  5
1CE
  8
0
 62
     9
 10
0.0
 20
0.0
 30
0.0
 70
   128
 71
     7
 72
     5
 73
    27
  0
VERTEX
  5
1CF
  8
0
 62
     9
 10
0.0
 20
0.0
 30
0.0
 70
   128
 71
     5
 72
     2
 73
    25
  0
VERTEX
  5
1D0
  8
0
 62
     9
 10
0.0
 20
0.0
 30
0.0
 70
   128
 71
     2
 72
     3
 73
    26
  0
VERTEX
  5
1D1
  8
0
 62
     9
 10
0.0
 20
0.0
 30
0.0
 70
   128
 71
    24
 72
    22
 73
    23
  0
VERTEX
  5
1D2
  8
0
 62
     9
 10
0.0
 20
0.0
 30
0.0
 70
   128
 71
    22
 72
    20
 73
    21
  0
VERTEX
  5
1D3
  8
0
 62
     9
 10
0.0
 20
0.0
 30
0.0
 70
   128
 71
    20
 72
    18
 73
    19
  0
VERTEX
  5
1D4
  8
0
 62
     9
 10
0.0
 20
0.0
 30
0.0
 70
   128
 71
    16
 72
    17
 73
    19
  0
VERTEX
  5
1D5
  8
0
 62
     9
 10
0.0
 20
0.0
 30
0.0
 70
   128
 71
    16
 72
    14
 73
    15
  0
VERTEX
  5
1D6
  8
0
 62
     9
 10
0.0
 20
0.0
 30
0.0
 70
   128
 71
    14
 72
    12
 73
    13
  0
VERTEX
  5
1D7
  8
0
 62
     9
 10
0.0
 20
0.0
 30
0.0
 70
   128
 71
    10
 72
    11
 73
    13
  0
VERTEX
  5
1D8
  8
0
 62
     9
 10
0.0
 20
0.0
 30
0.0
 70
   128
 71
     8
 72
     9
 73
    11
  0
VERTEX
  5
1D9
  8
0
 62
     9
 10
0.0
 20
0.0
 30
0.0
 70
   128
 71
     8
 72
     6
 73
     7
  0
VERTEX
  5
1DA
  8
0
 62
     9
 10
0.0
 20
0.0
 30
0.0
 70
   128
 71
     4
 72
     5
 73
     7
  0
VERTEX
  5
1DB
  8
0
 62
     9
 10
0.0
 20
0.0
 30
0.0
 70
   128
 71
     4
 72
     1
 73
     2
  0
VERTEX
  5
1DC
  8
0
 62
     9
 10
0.0
 20
0.0
 30
0.0
 70
   128
 71
     1
 72
    24
 73
     3
  0
SEQEND
  5
1DD
  8
0
 62
     9
  0
ENDBLK
  5
1E0
  8
0
  0
BLOCK
  8
0
  2
E3_NODE_5_
 70
     0
 10
0.0
 20
0.0
 30
0.0
  3
E3_NODE_5_
  1

  0
POLYLINE
  5
1E2
  8
0
 62
     9
 66
     1
 10
0.0
 20
0.0
 30
0.0
 70
    64
 71
    24
 72
    24
  0
VERTEX
  5
1E3
  8
0
 10
2.519999980926514
 20
-609.5709838867188
 30
-20.74099922180176
 70
   192
  0
VERTEX
  5
1E4
  8
0
 10
3.622999906539917
 20
-609.9349975585938
 30
-20.11100006103516
 70
   192
  0
VERTEX
  5
1E5
  8
0
 10
3.622999906539917
 20
-621.5460205078125
 30
-23.22200012207031
 70
   192
  0
VERTEX
  5
1E6
  8
0
 10
2.519999980926514
 20
-600.8049926757812
 30
-11.97500038146973
 70
   192
  0
VERTEX
  5
1E7
  8
0
 10
3.622999906539917
 20
-601.4349975585938
 30
-11.61100006103516
 70
   192
  0
VERTEX
  5
1E8
  8
0
 10
2.519999980926514
 20
-597.5960083007812
 30
0.0
 70
   192
  0
VERTEX
  5
1E9
  8
0
 10
3.622999906539917
 20
-598.323974609375
 30
0.0
 70
   192
  0
VERTEX
  5
1EA
  8
0
 10
2.519999980926514
 20
-600.8049926757812
 30
11.97500038146973
 70
   192
  0
VERTEX
  5
1EB
  8
0
 10
3.622999906539917
 20
-601.4349975585938
 30
11.61100006103516
 70
   192
  0
VERTEX
  5
1EC
  8
0
 10
2.519999980926514
 20
-609.5709838867188
 30
20.74099922180176
 70
   192
  0
VERTEX
  5
1ED
  8
0
 10
3.622999906539917
 20
-609.9349975585938
 30
20.11100006103516
 70
   192
  0
VERTEX
  5
1EE
  8
0
 10
2.519999980926514
 20
-621.5460205078125
 30
23.95000076293945
 70
   192
  0
VERTEX
  5
1EF
  8
0
 10
3.622999906539917
 20
-621.5460205078125
 30
23.22200012207031
 70
   192
  0
VERTEX
  5
1F0
  8
0
 10
2.519999980926514
 20
-633.52099609375
 30
20.74099922180176
 70
   192
  0
VERTEX
  5
1F1
  8
0
 10
3.622999906539917
 20
-633.156982421875
 30
20.11100006103516
 70
   192
  0
VERTEX
  5
1F2
  8
0
 10
2.519999980926514
 20
-642.2869873046875
 30
11.97500038146973
 70
   192
  0
VERTEX
  5
1F3
  8
0
 10
3.622999906539917
 20
-641.656982421875
 30
11.61100006103516
 70
   192
  0
VERTEX
  5
1F4
  8
0
 10
2.519999980926514
 20
-645.4959716796875
 30
0.0
 70
   192
  0
VERTEX
  5
1F5
  8
0
 10
3.622999906539917
 20
-644.7680053710938
 30
0.0
 70
   192
  0
VERTEX
  5
1F6
  8
0
 10
2.519999980926514
 20
-642.2869873046875
 30
-11.97500038146973
 70
   192
  0
VERTEX
  5
1F7
  8
0
 10
3.622999906539917
 20
-641.656982421875
 30
-11.61100006103516
 70
   192
  0
VERTEX
  5
1F8
  8
0
 10
2.519999980926514
 20
-633.52099609375
 30
-20.74099922180176
 70
   192
  0
VERTEX
  5
1F9
  8
0
 10
3.622999906539917
 20
-633.156982421875
 30
-20.11100006103516
 70
   192
  0
VERTEX
  5
1FA
  8
0
 10
2.519999980926514
 20
-621.5460205078125
 30
-23.95000076293945
 70
   192
  0
VERTEX
  5
1FB
  8
0
 62
     9
 10
0.0
 20
0.0
 30
0.0
 70
   128
 71
     3
 72
     2
 73
     1
  0
VERTEX
  5
1FC
  8
0
 62
     9
 10
0.0
 20
0.0
 30
0.0
 70
   128
 71
     2
 72
     5
 73
     4
  0
VERTEX
  5
1FD
  8
0
 62
     9
 10
0.0
 20
0.0
 30
0.0
 70
   128
 71
     5
 72
     7
 73
     6
  0
VERTEX
  5
1FE
  8
0
 62
     9
 10
0.0
 20
0.0
 30
0.0
 70
   128
 71
     9
 72
     8
 73
     6
  0
VERTEX
  5
1FF
  8
0
 62
     9
 10
0.0
 20
0.0
 30
0.0
 70
   128
 71
    11
 72
    10
 73
     8
  0
VERTEX
  5
200
  8
0
 62
     9
 10
0.0
 20
0.0
 30
0.0
 70
   128
 71
    13
 72
    12
 73
    10
  0
VERTEX
  5
201
  8
0
 62
     9
 10
0.0
 20
0.0
 30
0.0
 70
   128
 71
    13
 72
    15
 73
    14
  0
VERTEX
  5
202
  8
0
 62
     9
 10
0.0
 20
0.0
 30
0.0
 70
   128
 71
    15
 72
    17
 73
    16
  0
VERTEX
  5
203
  8
0
 62
     9
 10
0.0
 20
0.0
 30
0.0
 70
   128
 71
    17
 72
    19
 73
    18
  0
VERTEX
  5
204
  8
0
 62
     9
 10
0.0
 20
0.0
 30
0.0
 70
   128
 71
    21
 72
    20
 73
    18
  0
VERTEX
  5
205
  8
0
 62
     9
 10
0.0
 20
0.0
 30
0.0
 70
   128
 71
    23
 72
    22
 73
    20
  0
VERTEX
  5
206
  8
0
 62
     9
 10
0.0
 20
0.0
 30
0.0
 70
   128
 71
     3
 72
    24
 73
    22
  0
VERTEX
  5
207
  8
0
 62
     9
 10
0.0
 20
0.0
 30
0.0
 70
   128
 71
    22
 72
    23
 73
     3
  0
VERTEX
  5
208
  8
0
 62
     9
 10
0.0
 20
0.0
 30
0.0
 70
   128
 71
    20
 72
    21
 73
    23
  0
VERTEX
  5
209
  8
0
 62
     9
 10
0.0
 20
0.0
 30
0.0
 70
   128
 71
    18
 72
    19
 73
    21
  0
VERTEX
  5
20A
  8
0
 62
     9
 10
0.0
 20
0.0
 30
0.0
 70
   128
 71
    18
 72
    16
 73
    17
  0
VERTEX
  5
20B
  8
0
 62
     9
 10
0.0
 20
0.0
 30
0.0
 70
   128
 71
    16
 72
    14
 73
    15
  0
VERTEX
  5
20C
  8
0
 62
     9
 10
0.0
 20
0.0
 30
0.0
 70
   128
 71
    14
 72
    12
 73
    13
  0
VERTEX
  5
20D
  8
0
 62
     9
 10
0.0
 20
0.0
 30
0.0
 70
   128
 71
    10
 72
    11
 73
    13
  0
VERTEX
  5
20E
  8
0
 62
     9
 10
0.0
 20
0.0
 30
0.0
 70
   128
 71
     8
 72
     9
 73
    11
  0
VERTEX
  5
20F
  8
0
 62
     9
 10
0.0
 20
0.0
 30
0.0
 70
   128
 71
     6
 72
     7
 73
     9
  0
VERTEX
  5
210
  8
0
 62
     9
 10
0.0
 20
0.0
 30
0.0
 70
   128
 71
     6
 72
     4
 73
     5
  0
VERTEX
  5
211
  8
0
 62
     9
 10
0.0
 20
0.0
 30
0.0
 70
   128
 71
     4
 72
     1
 73
     2
  0
VERTEX
  5
212
  8
0
 62
     9
 10
0.0
 20
0.0
 30
0.0
 70
   128
 71
     1
 72
    24
 73
     3
  0
SEQEND
  5
213
  8
0
 62
     9
  0
ENDBLK
  5
216
  8
0
  0
BLOCK
  8
0
  2
E3_NODE_6_
 70
     0
 10
0.0
 20
0.0
 30
0.0
  3
E3_NODE_6_
  1

  0
POLYLINE
  5
218
  8
0
 62
     9
 66
     1
 10
0.0
 20
0.0
 30
0.0
 70
    64
 71
    24
 72
    24
  0
VERTEX
  5
219
  8
0
 10
2.519999980926514
 20
-609.5709838867188
 30
-20.74099922180176
 70
   192
  0
VERTEX
  5
21A
  8
0
 10
2.519999980926514
 20
-621.5460205078125
 30
-23.95000076293945
 70
   192
  0
VERTEX
  5
21B
  8
0
 10
-0.4000000059604645
 20
-621.5460205078125
 30
-22.95000076293945
 70
   192
  0
VERTEX
  5
21C
  8
0
 10
2.519999980926514
 20
-600.8049926757812
 30
-11.97500038146973
 70
   192
  0
VERTEX
  5
21D
  8
0
 10
-0.4000000059604645
 20
-610.0709838867188
 30
-19.875
 70
   192
  0
VERTEX
  5
21E
  8
0
 10
-0.4000000059604645
 20
-601.6710205078125
 30
-11.47500038146973
 70
   192
  0
VERTEX
  5
21F
  8
0
 10
-0.4000000059604645
 20
-598.5960083007812
 30
0.0
 70
   192
  0
VERTEX
  5
220
  8
0
 10
2.519999980926514
 20
-600.8049926757812
 30
11.97500038146973
 70
   192
  0
VERTEX
  5
221
  8
0
 10
2.519999980926514
 20
-597.5960083007812
 30
0.0
 70
   192
  0
VERTEX
  5
222
  8
0
 10
-0.4000000059604645
 20
-601.6710205078125
 30
11.47500038146973
 70
   192
  0
VERTEX
  5
223
  8
0
 10
-0.4000000059604645
 20
-610.0709838867188
 30
19.875
 70
   192
  0
VERTEX
  5
224
  8
0
 10
2.519999980926514
 20
-609.5709838867188
 30
20.74099922180176
 70
   192
  0
VERTEX
  5
225
  8
0
 10
-0.4000000059604645
 20
-621.5460205078125
 30
22.95000076293945
 70
   192
  0
VERTEX
  5
226
  8
0
 10
2.519999980926514
 20
-633.52099609375
 30
20.74099922180176
 70
   192
  0
VERTEX
  5
227
  8
0
 10
2.519999980926514
 20
-621.5460205078125
 30
23.95000076293945
 70
   192
  0
VERTEX
  5
228
  8
0
 10
2.519999980926514
 20
-642.2869873046875
 30
11.97500038146973
 70
   192
  0
VERTEX
  5
229
  8
0
 10
-0.4000000059604645
 20
-633.02099609375
 30
19.875
 70
   192
  0
VERTEX
  5
22A
  8
0
 10
-0.4000000059604645
 20
-641.4210205078125
 30
11.47500038146973
 70
   192
  0
VERTEX
  5
22B
  8
0
 10
-0.4000000059604645
 20
-644.4959716796875
 30
0.0
 70
   192
  0
VERTEX
  5
22C
  8
0
 10
2.519999980926514
 20
-645.4959716796875
 30
0.0
 70
   192
  0
VERTEX
  5
22D
  8
0
 10
-0.4000000059604645
 20
-641.4210205078125
 30
-11.47500038146973
 70
   192
  0
VERTEX
  5
22E
  8
0
 10
2.519999980926514
 20
-642.2869873046875
 30
-11.97500038146973
 70
   192
  0
VERTEX
  5
22F
  8
0
 10
-0.4000000059604645
 20
-633.02099609375
 30
-19.875
 70
   192
  0
VERTEX
  5
230
  8
0
 10
2.519999980926514
 20
-633.52099609375
 30
-20.74099922180176
 70
   192
  0
VERTEX
  5
231
  8
0
 62
     9
 10
0.0
 20
0.0
 30
0.0
 70
   128
 71
     3
 72
     2
 73
     1
  0
VERTEX
  5
232
  8
0
 62
     9
 10
0.0
 20
0.0
 30
0.0
 70
   128
 71
     5
 72
     1
 73
     4
  0
VERTEX
  5
233
  8
0
 62
     9
 10
0.0
 20
0.0
 30
0.0
 70
   128
 71
     7
 72
     6
 73
     4
  0
VERTEX
  5
234
  8
0
 62
     9
 10
0.0
 20
0.0
 30
0.0
 70
   128
 71
     7
 72
     9
 73
     8
  0
VERTEX
  5
235
  8
0
 62
     9
 10
0.0
 20
0.0
 30
0.0
 70
   128
 71
    11
 72
    10
 73
     8
  0
VERTEX
  5
236
  8
0
 62
     9
 10
0.0
 20
0.0
 30
0.0
 70
   128
 71
    13
 72
    11
 73
    12
  0
VERTEX
  5
237
  8
0
 62
     9
 10
0.0
 20
0.0
 30
0.0
 70
   128
 71
    13
 72
    15
 73
    14
  0
VERTEX
  5
238
  8
0
 62
     9
 10
0.0
 20
0.0
 30
0.0
 70
   128
 71
    17
 72
    14
 73
    16
  0
VERTEX
  5
239
  8
0
 62
     9
 10
0.0
 20
0.0
 30
0.0
 70
   128
 71
    19
 72
    18
 73
    16
  0
VERTEX
  5
23A
  8
0
 62
     9
 10
0.0
 20
0.0
 30
0.0
 70
   128
 71
    21
 72
    19
 73
    20
  0
VERTEX
  5
23B
  8
0
 62
     9
 10
0.0
 20
0.0
 30
0.0
 70
   128
 71
    23
 72
    21
 73
    22
  0
VERTEX
  5
23C
  8
0
 62
     9
 10
0.0
 20
0.0
 30
0.0
 70
   128
 71
    23
 72
    24
 73
     2
  0
VERTEX
  5
23D
  8
0
 62
     9
 10
0.0
 20
0.0
 30
0.0
 70
   128
 71
     2
 72
     3
 73
    23
  0
VERTEX
  5
23E
  8
0
 62
     9
 10
0.0
 20
0.0
 30
0.0
 70
   128
 71
    22
 72
    24
 73
    23
  0
VERTEX
  5
23F
  8
0
 62
     9
 10
0.0
 20
0.0
 30
0.0
 70
   128
 71
    20
 72
    22
 73
    21
  0
VERTEX
  5
240
  8
0
 62
     9
 10
0.0
 20
0.0
 30
0.0
 70
   128
 71
    16
 72
    20
 73
    19
  0
VERTEX
  5
241
  8
0
 62
     9
 10
0.0
 20
0.0
 30
0.0
 70
   128
 71
    16
 72
    18
 73
    17
  0
VERTEX
  5
242
  8
0
 62
     9
 10
0.0
 20
0.0
 30
0.0
 70
   128
 71
    14
 72
    17
 73
    13
  0
VERTEX
  5
243
  8
0
 62
     9
 10
0.0
 20
0.0
 30
0.0
 70
   128
 71
    12
 72
    15
 73
    13
  0
VERTEX
  5
244
  8
0
 62
     9
 10
0.0
 20
0.0
 30
0.0
 70
   128
 71
     8
 72
    12
 73
    11
  0
VERTEX
  5
245
  8
0
 62
     9
 10
0.0
 20
0.0
 30
0.0
 70
   128
 71
     8
 72
    10
 73
     7
  0
VERTEX
  5
246
  8
0
 62
     9
 10
0.0
 20
0.0
 30
0.0
 70
   128
 71
     4
 72
     9
 73
     7
  0
VERTEX
  5
247
  8
0
 62
     9
 10
0.0
 20
0.0
 30
0.0
 70
   128
 71
     4
 72
     6
 73
     5
  0
VERTEX
  5
248
  8
0
 62
     9
 10
0.0
 20
0.0
 30
0.0
 70
   128
 71
     1
 72
     5
 73
     3
  0
SEQEND
  5
249
  8
0
 62
     9
  0
ENDBLK
  5
24C
  8
0
  0
BLOCK
  8
0
  2
E3_NODE_7_
 70
     0
 10
0.0
 20
0.0
 30
0.0
  3
E3_NODE_7_
  1

  0
POLYLINE
  5
24E
  8
0
 62
     9
 66
     1
 10
0.0
 20
0.0
 30
0.0
 70
    64
 71
    12
 72
    10
  0
VERTEX
  5
24F
  8
0
 10
-0.4000000059604645
 20
-641.4210205078125
 30
11.47500038146973
 70
   192
  0
VERTEX
  5
250
  8
0
 10
-0.4000000059604645
 20
-621.5460205078125
 30
22.95000076293945
 70
   192
  0
VERTEX
  5
251
  8
0
 10
-0.4000000059604645
 20
-610.0709838867188
 30
19.875
 70
   192
  0
VERTEX
  5
252
  8
0
 10
-0.4000000059604645
 20
-601.6710205078125
 30
-11.47500038146973
 70
   192
  0
VERTEX
  5
253
  8
0
 10
-0.4000000059604645
 20
-621.5460205078125
 30
-22.95000076293945
 70
   192
  0
VERTEX
  5
254
  8
0
 10
-0.4000000059604645
 20
-633.02099609375
 30
-19.875
 70
   192
  0
VERTEX
  5
255
  8
0
 10
-0.4000000059604645
 20
-633.02099609375
 30
19.875
 70
   192
  0
VERTEX
  5
256
  8
0
 10
-0.4000000059604645
 20
-601.6710205078125
 30
11.47500038146973
 70
   192
  0
VERTEX
  5
257
  8
0
 10
-0.4000000059604645
 20
-641.4210205078125
 30
-11.47500038146973
 70
   192
  0
VERTEX
  5
258
  8
0
 10
-0.4000000059604645
 20
-644.4959716796875
 30
0.0
 70
   192
  0
VERTEX
  5
259
  8
0
 10
-0.4000000059604645
 20
-610.0709838867188
 30
-19.875
 70
   192
  0
VERTEX
  5
25A
  8
0
 10
-0.4000000059604645
 20
-598.5960083007812
 30
0.0
 70
   192
  0
VERTEX
  5
25B
  8
0
 62
     9
 10
0.0
 20
0.0
 30
0.0
 70
   128
 71
     3
 72
     2
 73
     1
  0
VERTEX
  5
25C
  8
0
 62
     9
 10
0.0
 20
0.0
 30
0.0
 70
   128
 71
     6
 72
     5
 73
     4
  0
VERTEX
  5
25D
  8
0
 62
     9
 10
0.0
 20
0.0
 30
0.0
 70
   128
 71
     2
 72
     7
 73
     1
  0
VERTEX
  5
25E
  8
0
 62
     9
 10
0.0
 20
0.0
 30
0.0
 70
   128
 71
    10
 72
     9
 73
     8
  0
VERTEX
  5
25F
  8
0
 62
     9
 10
0.0
 20
0.0
 30
0.0
 70
   128
 71
     5
 72
    11
 73
     4
  0
VERTEX
  5
260
  8
0
 62
     9
 10
0.0
 20
0.0
 30
0.0
 70
   128
 71
    12
 72
     8
 73
     9
  0
VERTEX
  5
261
  8
0
 62
     9
 10
0.0
 20
0.0
 30
0.0
 70
   128
 71
     8
 72
     1
 73
    10
  0
VERTEX
  5
262
  8
0
 62
     9
 10
0.0
 20
0.0
 30
0.0
 70
   128
 71
     9
 72
     4
 73
    12
  0
VERTEX
  5
263
  8
0
 62
     9
 10
0.0
 20
0.0
 30
0.0
 70
   128
 71
     4
 72
     9
 73
     6
  0
VERTEX
  5
264
  8
0
 62
     9
 10
0.0
 20
0.0
 30
0.0
 70
   128
 71
     1
 72
     8
 73
     3
  0
SEQEND
  5
265
  8
0
 62
     9
  0
ENDBLK
  5
268
  8
0
  0
BLOCK
  8
0
  2
E3_NODE_8_
 70
     0
 10
0.0
 20
0.0
 30
0.0
  3
E3_NODE_8_
  1

  0
POLYLINE
  5
26A
  8
0
 62
     9
 66
     1
 10
0.0
 20
0.0
 30
0.0
 70
    64
 71
    36
 72
    48
  0
VERTEX
  5
26B
  8
0
 10
3.622999906539917
 20
-20.11100006103516
 30
-11.61100006103516
 70
   192
  0
VERTEX
  5
26C
  8
0
 10
6.703000068664551
 20
-16.35199928283691
 30
-9.440999984741211
 70
   192
  0
VERTEX
  5
26D
  8
0
 10
6.703000068664551
 20
-18.88199996948242
 30
0.0
 70
   192
  0
VERTEX
  5
26E
  8
0
 10
3.622999906539917
 20
-11.61100006103516
 30
-20.11100006103516
 70
   192
  0
VERTEX
  5
26F
  8
0
 10
6.703000068664551
 20
-9.440999984741211
 30
-16.35199928283691
 70
   192
  0
VERTEX
  5
270
  8
0
 10
3.622999906539917
 20
0.0
 30
-23.22200012207031
 70
   192
  0
VERTEX
  5
271
  8
0
 10
6.703000068664551
 20
0.0
 30
-18.88199996948242
 70
   192
  0
VERTEX
  5
272
  8
0
 10
3.622999906539917
 20
11.61100006103516
 30
-20.11100006103516
 70
   192
  0
VERTEX
  5
273
  8
0
 10
6.703000068664551
 20
9.440999984741211
 30
-16.35199928283691
 70
   192
  0
VERTEX
  5
274
  8
0
 10
3.622999906539917
 20
20.11100006103516
 30
-11.61100006103516
 70
   192
  0
VERTEX
  5
275
  8
0
 10
6.703000068664551
 20
16.35199928283691
 30
-9.440999984741211
 70
   192
  0
VERTEX
  5
276
  8
0
 10
3.622999906539917
 20
23.22200012207031
 30
0.0
 70
   192
  0
VERTEX
  5
277
  8
0
 10
6.703000068664551
 20
18.88199996948242
 30
0.0
 70
   192
  0
VERTEX
  5
278
  8
0
 10
3.622999906539917
 20
20.11100006103516
 30
11.61100006103516
 70
   192
  0
VERTEX
  5
279
  8
0
 10
6.703000068664551
 20
16.35199928283691
 30
9.440999984741211
 70
   192
  0
VERTEX
  5
27A
  8
0
 10
3.622999906539917
 20
11.61100006103516
 30
20.11100006103516
 70
   192
  0
VERTEX
  5
27B
  8
0
 10
6.703000068664551
 20
9.440999984741211
 30
16.35199928283691
 70
   192
  0
VERTEX
  5
27C
  8
0
 10
3.622999906539917
 20
0.0
 30
23.22200012207031
 70
   192
  0
VERTEX
  5
27D
  8
0
 10
6.703000068664551
 20
0.0
 30
18.88199996948242
 70
   192
  0
VERTEX
  5
27E
  8
0
 10
3.622999906539917
 20
-11.61100006103516
 30
20.11100006103516
 70
   192
  0
VERTEX
  5
27F
  8
0
 10
6.703000068664551
 20
-9.440999984741211
 30
16.35199928283691
 70
   192
  0
VERTEX
  5
280
  8
0
 10
3.622999906539917
 20
-20.11100006103516
 30
11.61100006103516
 70
   192
  0
VERTEX
  5
281
  8
0
 10
6.703000068664551
 20
-16.35199928283691
 30
9.440999984741211
 70
   192
  0
VERTEX
  5
282
  8
0
 10
3.622999906539917
 20
-23.22200012207031
 30
0.0
 70
   192
  0
VERTEX
  5
283
  8
0
 10
11.30000019073486
 20
-14.0290002822876
 30
-8.100000381469727
 70
   192
  0
VERTEX
  5
284
  8
0
 10
11.30000019073486
 20
-16.20000076293945
 30
0.0
 70
   192
  0
VERTEX
  5
285
  8
0
 10
11.30000019073486
 20
-8.100000381469727
 30
-14.0290002822876
 70
   192
  0
VERTEX
  5
286
  8
0
 10
11.30000019073486
 20
0.0
 30
-16.20000076293945
 70
   192
  0
VERTEX
  5
287
  8
0
 10
11.30000019073486
 20
8.100000381469727
 30
-14.0290002822876
 70
   192
  0
VERTEX
  5
288
  8
0
 10
11.30000019073486
 20
14.0290002822876
 30
-8.100000381469727
 70
   192
  0
VERTEX
  5
289
  8
0
 10
11.30000019073486
 20
16.20000076293945
 30
0.0
 70
   192
  0
VERTEX
  5
28A
  8
0
 10
11.30000019073486
 20
14.0290002822876
 30
8.100000381469727
 70
   192
  0
VERTEX
  5
28B
  8
0
 10
11.30000019073486
 20
8.100000381469727
 30
14.0290002822876
 70
   192
  0
VERTEX
  5
28C
  8
0
 10
11.30000019073486
 20
0.0
 30
16.20000076293945
 70
   192
  0
VERTEX
  5
28D
  8
0
 10
11.30000019073486
 20
-8.100000381469727
 30
14.0290002822876
 70
   192
  0
VERTEX
  5
28E
  8
0
 10
11.30000019073486
 20
-14.0290002822876
 30
8.100000381469727
 70
   192
  0
VERTEX
  5
28F
  8
0
 62
     9
 10
0.0
 20
0.0
 30
0.0
 70
   128
 71
     3
 72
     2
 73
     1
  0
VERTEX
  5
290
  8
0
 62
     9
 10
0.0
 20
0.0
 30
0.0
 70
   128
 71
     2
 72
     5
 73
     4
  0
VERTEX
  5
291
  8
0
 62
     9
 10
0.0
 20
0.0
 30
0.0
 70
   128
 71
     5
 72
     7
 73
     6
  0
VERTEX
  5
292
  8
0
 62
     9
 10
0.0
 20
0.0
 30
0.0
 70
   128
 71
     7
 72
     9
 73
     8
  0
VERTEX
  5
293
  8
0
 62
     9
 10
0.0
 20
0.0
 30
0.0
 70
   128
 71
     9
 72
    11
 73
    10
  0
VERTEX
  5
294
  8
0
 62
     9
 10
0.0
 20
0.0
 30
0.0
 70
   128
 71
    11
 72
    13
 73
    12
  0
VERTEX
  5
295
  8
0
 62
     9
 10
0.0
 20
0.0
 30
0.0
 70
   128
 71
    15
 72
    14
 73
    12
  0
VERTEX
  5
296
  8
0
 62
     9
 10
0.0
 20
0.0
 30
0.0
 70
   128
 71
    17
 72
    16
 73
    14
  0
VERTEX
  5
297
  8
0
 62
     9
 10
0.0
 20
0.0
 30
0.0
 70
   128
 71
    17
 72
    19
 73
    18
  0
VERTEX
  5
298
  8
0
 62
     9
 10
0.0
 20
0.0
 30
0.0
 70
   128
 71
    21
 72
    20
 73
    18
  0
VERTEX
  5
299
  8
0
 62
     9
 10
0.0
 20
0.0
 30
0.0
 70
   128
 71
    23
 72
    22
 73
    20
  0
VERTEX
  5
29A
  8
0
 62
     9
 10
0.0
 20
0.0
 30
0.0
 70
   128
 71
    23
 72
     3
 73
    24
  0
VERTEX
  5
29B
  8
0
 62
     9
 10
0.0
 20
0.0
 30
0.0
 70
   128
 71
    26
 72
    25
 73
     2
  0
VERTEX
  5
29C
  8
0
 62
     9
 10
0.0
 20
0.0
 30
0.0
 70
   128
 71
    27
 72
     5
 73
     2
  0
VERTEX
  5
29D
  8
0
 62
     9
 10
0.0
 20
0.0
 30
0.0
 70
   128
 71
    28
 72
     7
 73
     5
  0
VERTEX
  5
29E
  8
0
 62
     9
 10
0.0
 20
0.0
 30
0.0
 70
   128
 71
    28
 72
    29
 73
     9
  0
VERTEX
  5
29F
  8
0
 62
     9
 10
0.0
 20
0.0
 30
0.0
 70
   128
 71
    30
 72
    11
 73
     9
  0
VERTEX
  5
2A0
  8
0
 62
     9
 10
0.0
 20
0.0
 30
0.0
 70
   128
 71
    30
 72
    31
 73
    13
  0
VERTEX
  5
2A1
  8
0
 62
     9
 10
0.0
 20
0.0
 30
0.0
 70
   128
 71
    32
 72
    15
 73
    13
  0
VERTEX
  5
2A2
  8
0
 62
     9
 10
0.0
 20
0.0
 30
0.0
 70
   128
 71
    33
 72
    17
 73
    15
  0
VERTEX
  5
2A3
  8
0
 62
     9
 10
0.0
 20
0.0
 30
0.0
 70
   128
 71
    33
 72
    34
 73
    19
  0
VERTEX
  5
2A4
  8
0
 62
     9
 10
0.0
 20
0.0
 30
0.0
 70
   128
 71
    35
 72
    21
 73
    19
  0
VERTEX
  5
2A5
  8
0
 62
     9
 10
0.0
 20
0.0
 30
0.0
 70
   128
 71
    35
 72
    36
 73
    23
  0
VERTEX
  5
2A6
  8
0
 62
     9
 10
0.0
 20
0.0
 30
0.0
 70
   128
 71
    36
 72
    26
 73
     3
  0
VERTEX
  5
2A7
  8
0
 62
     9
 10
0.0
 20
0.0
 30
0.0
 70
   128
 71
     3
 72
    23
 73
    36
  0
VERTEX
  5
2A8
  8
0
 62
     9
 10
0.0
 20
0.0
 30
0.0
 70
   128
 71
    23
 72
    21
 73
    35
  0
VERTEX
  5
2A9
  8
0
 62
     9
 10
0.0
 20
0.0
 30
0.0
 70
   128
 71
    19
 72
    34
 73
    35
  0
VERTEX
  5
2AA
  8
0
 62
     9
 10
0.0
 20
0.0
 30
0.0
 70
   128
 71
    19
 72
    17
 73
    33
  0
VERTEX
  5
2AB
  8
0
 62
     9
 10
0.0
 20
0.0
 30
0.0
 70
   128
 71
    15
 72
    32
 73
    33
  0
VERTEX
  5
2AC
  8
0
 62
     9
 10
0.0
 20
0.0
 30
0.0
 70
   128
 71
    13
 72
    31
 73
    32
  0
VERTEX
  5
2AD
  8
0
 62
     9
 10
0.0
 20
0.0
 30
0.0
 70
   128
 71
    13
 72
    11
 73
    30
  0
VERTEX
  5
2AE
  8
0
 62
     9
 10
0.0
 20
0.0
 30
0.0
 70
   128
 71
     9
 72
    29
 73
    30
  0
VERTEX
  5
2AF
  8
0
 62
     9
 10
0.0
 20
0.0
 30
0.0
 70
   128
 71
     9
 72
     7
 73
    28
  0
VERTEX
  5
2B0
  8
0
 62
     9
 10
0.0
 20
0.0
 30
0.0
 70
   128
 71
     5
 72
    27
 73
    28
  0
VERTEX
  5
2B1
  8
0
 62
     9
 10
0.0
 20
0.0
 30
0.0
 70
   128
 71
     2
 72
    25
 73
    27
  0
VERTEX
  5
2B2
  8
0
 62
     9
 10
0.0
 20
0.0
 30
0.0
 70
   128
 71
     2
 72
     3
 73
    26
  0
VERTEX
  5
2B3
  8
0
 62
     9
 10
0.0
 20
0.0
 30
0.0
 70
   128
 71
    24
 72
    22
 73
    23
  0
VERTEX
  5
2B4
  8
0
 62
     9
 10
0.0
 20
0.0
 30
0.0
 70
   128
 71
    20
 72
    21
 73
    23
  0
VERTEX
  5
2B5
  8
0
 62
     9
 10
0.0
 20
0.0
 30
0.0
 70
   128
 71
    18
 72
    19
 73
    21
  0
VERTEX
  5
2B6
  8
0
 62
     9
 10
0.0
 20
0.0
 30
0.0
 70
   128
 71
    18
 72
    16
 73
    17
  0
VERTEX
  5
2B7
  8
0
 62
     9
 10
0.0
 20
0.0
 30
0.0
 70
   128
 71
    14
 72
    15
 73
    17
  0
VERTEX
  5
2B8
  8
0
 62
     9
 10
0.0
 20
0.0
 30
0.0
 70
   128
 71
    12
 72
    13
 73
    15
  0
VERTEX
  5
2B9
  8
0
 62
     9
 10
0.0
 20
0.0
 30
0.0
 70
   128
 71
    12
 72
    10
 73
    11
  0
VERTEX
  5
2BA
  8
0
 62
     9
 10
0.0
 20
0.0
 30
0.0
 70
   128
 71
    10
 72
     8
 73
     9
  0
VERTEX
  5
2BB
  8
0
 62
     9
 10
0.0
 20
0.0
 30
0.0
 70
   128
 71
     8
 72
     6
 73
     7
  0
VERTEX
  5
2BC
  8
0
 62
     9
 10
0.0
 20
0.0
 30
0.0
 70
   128
 71
     6
 72
     4
 73
     5
  0
VERTEX
  5
2BD
  8
0
 62
     9
 10
0.0
 20
0.0
 30
0.0
 70
   128
 71
     4
 72
     1
 73
     2
  0
VERTEX
  5
2BE
  8
0
 62
     9
 10
0.0
 20
0.0
 30
0.0
 70
   128
 71
     1
 72
    24
 73
     3
  0
SEQEND
  5
2BF
  8
0
 62
     9
  0
ENDBLK
  5
2C2
  8
0
  0
BLOCK
  8
0
  2
E3_NODE_9_
 70
     0
 10
0.0
 20
0.0
 30
0.0
  3
E3_NODE_9_
  1

  0
POLYLINE
  5
2C4
  8
0
 62
     9
 66
     1
 10
0.0
 20
0.0
 30
0.0
 70
    64
 71
    24
 72
    24
  0
VERTEX
  5
2C5
  8
0
 10
2.519999980926514
 20
-23.95000076293945
 30
0.0
 70
   192
  0
VERTEX
  5
2C6
  8
0
 10
2.519999980926514
 20
-20.74099922180176
 30
-11.97500038146973
 70
   192
  0
VERTEX
  5
2C7
  8
0
 10
3.622999906539917
 20
-20.11100006103516
 30
-11.61100006103516
 70
   192
  0
VERTEX
  5
2C8
  8
0
 10
2.519999980926514
 20
-11.97500038146973
 30
-20.74099922180176
 70
   192
  0
VERTEX
  5
2C9
  8
0
 10
3.622999906539917
 20
-11.61100006103516
 30
-20.11100006103516
 70
   192
  0
VERTEX
  5
2CA
  8
0
 10
2.519999980926514
 20
0.0
 30
-23.95000076293945
 70
   192
  0
VERTEX
  5
2CB
  8
0
 10
3.622999906539917
 20
0.0
 30
-23.22200012207031
 70
   192
  0
VERTEX
  5
2CC
  8
0
 10
2.519999980926514
 20
11.97500038146973
 30
-20.74099922180176
 70
   192
  0
VERTEX
  5
2CD
  8
0
 10
3.622999906539917
 20
11.61100006103516
 30
-20.11100006103516
 70
   192
  0
VERTEX
  5
2CE
  8
0
 10
2.519999980926514
 20
20.74099922180176
 30
-11.97500038146973
 70
   192
  0
VERTEX
  5
2CF
  8
0
 10
3.622999906539917
 20
20.11100006103516
 30
-11.61100006103516
 70
   192
  0
VERTEX
  5
2D0
  8
0
 10
2.519999980926514
 20
23.95000076293945
 30
0.0
 70
   192
  0
VERTEX
  5
2D1
  8
0
 10
3.622999906539917
 20
23.22200012207031
 30
0.0
 70
   192
  0
VERTEX
  5
2D2
  8
0
 10
2.519999980926514
 20
20.74099922180176
 30
11.97500038146973
 70
   192
  0
VERTEX
  5
2D3
  8
0
 10
3.622999906539917
 20
20.11100006103516
 30
11.61100006103516
 70
   192
  0
VERTEX
  5
2D4
  8
0
 10
2.519999980926514
 20
11.97500038146973
 30
20.74099922180176
 70
   192
  0
VERTEX
  5
2D5
  8
0
 10
3.622999906539917
 20
11.61100006103516
 30
20.11100006103516
 70
   192
  0
VERTEX
  5
2D6
  8
0
 10
2.519999980926514
 20
0.0
 30
23.95000076293945
 70
   192
  0
VERTEX
  5
2D7
  8
0
 10
3.622999906539917
 20
0.0
 30
23.22200012207031
 70
   192
  0
VERTEX
  5
2D8
  8
0
 10
2.519999980926514
 20
-11.97500038146973
 30
20.74099922180176
 70
   192
  0
VERTEX
  5
2D9
  8
0
 10
3.622999906539917
 20
-11.61100006103516
 30
20.11100006103516
 70
   192
  0
VERTEX
  5
2DA
  8
0
 10
2.519999980926514
 20
-20.74099922180176
 30
11.97500038146973
 70
   192
  0
VERTEX
  5
2DB
  8
0
 10
3.622999906539917
 20
-20.11100006103516
 30
11.61100006103516
 70
   192
  0
VERTEX
  5
2DC
  8
0
 10
3.622999906539917
 20
-23.22200012207031
 30
0.0
 70
   192
  0
VERTEX
  5
2DD
  8
0
 62
     9
 10
0.0
 20
0.0
 30
0.0
 70
   128
 71
     3
 72
     2
 73
     1
  0
VERTEX
  5
2DE
  8
0
 62
     9
 10
0.0
 20
0.0
 30
0.0
 70
   128
 71
     3
 72
     5
 73
     4
  0
VERTEX
  5
2DF
  8
0
 62
     9
 10
0.0
 20
0.0
 30
0.0
 70
   128
 71
     5
 72
     7
 73
     6
  0
VERTEX
  5
2E0
  8
0
 62
     9
 10
0.0
 20
0.0
 30
0.0
 70
   128
 71
     9
 72
     8
 73
     6
  0
VERTEX
  5
2E1
  8
0
 62
     9
 10
0.0
 20
0.0
 30
0.0
 70
   128
 71
     9
 72
    11
 73
    10
  0
VERTEX
  5
2E2
  8
0
 62
     9
 10
0.0
 20
0.0
 30
0.0
 70
   128
 71
    13
 72
    12
 73
    10
  0
VERTEX
  5
2E3
  8
0
 62
     9
 10
0.0
 20
0.0
 30
0.0
 70
   128
 71
    13
 72
    15
 73
    14
  0
VERTEX
  5
2E4
  8
0
 62
     9
 10
0.0
 20
0.0
 30
0.0
 70
   128
 71
    17
 72
    16
 73
    14
  0
VERTEX
  5
2E5
  8
0
 62
     9
 10
0.0
 20
0.0
 30
0.0
 70
   128
 71
    19
 72
    18
 73
    16
  0
VERTEX
  5
2E6
  8
0
 62
     9
 10
0.0
 20
0.0
 30
0.0
 70
   128
 71
    19
 72
    21
 73
    20
  0
VERTEX
  5
2E7
  8
0
 62
     9
 10
0.0
 20
0.0
 30
0.0
 70
   128
 71
    21
 72
    23
 73
    22
  0
VERTEX
  5
2E8
  8
0
 62
     9
 10
0.0
 20
0.0
 30
0.0
 70
   128
 71
    24
 72
     1
 73
    22
  0
VERTEX
  5
2E9
  8
0
 62
     9
 10
0.0
 20
0.0
 30
0.0
 70
   128
 71
    22
 72
    23
 73
    24
  0
VERTEX
  5
2EA
  8
0
 62
     9
 10
0.0
 20
0.0
 30
0.0
 70
   128
 71
    22
 72
    20
 73
    21
  0
VERTEX
  5
2EB
  8
0
 62
     9
 10
0.0
 20
0.0
 30
0.0
 70
   128
 71
    20
 72
    18
 73
    19
  0
VERTEX
  5
2EC
  8
0
 62
     9
 10
0.0
 20
0.0
 30
0.0
 70
   128
 71
    16
 72
    17
 73
    19
  0
VERTEX
  5
2ED
  8
0
 62
     9
 10
0.0
 20
0.0
 30
0.0
 70
   128
 71
    14
 72
    15
 73
    17
  0
VERTEX
  5
2EE
  8
0
 62
     9
 10
0.0
 20
0.0
 30
0.0
 70
   128
 71
    14
 72
    12
 73
    13
  0
VERTEX
  5
2EF
  8
0
 62
     9
 10
0.0
 20
0.0
 30
0.0
 70
   128
 71
    10
 72
    11
 73
    13
  0
VERTEX
  5
2F0
  8
0
 62
     9
 10
0.0
 20
0.0
 30
0.0
 70
   128
 71
    10
 72
     8
 73
     9
  0
VERTEX
  5
2F1
  8
0
 62
     9
 10
0.0
 20
0.0
 30
0.0
 70
   128
 71
     6
 72
     7
 73
     9
  0
VERTEX
  5
2F2
  8
0
 62
     9
 10
0.0
 20
0.0
 30
0.0
 70
   128
 71
     6
 72
     4
 73
     5
  0
VERTEX
  5
2F3
  8
0
 62
     9
 10
0.0
 20
0.0
 30
0.0
 70
   128
 71
     4
 72
     2
 73
     3
  0
VERTEX
  5
2F4
  8
0
 62
     9
 10
0.0
 20
0.0
 30
0.0
 70
   128
 71
     1
 72
    24
 73
     3
  0
SEQEND
  5
2F5
  8
0
 62
     9
  0
ENDBLK
  5
2F8
  8
0
  0
BLOCK
  8
0
  2
E3_NODE_10_
 70
     0
 10
0.0
 20
0.0
 30
0.0
  3
E3_NODE_10_
  1

  0
POLYLINE
  5
2FA
  8
0
 62
     9
 66
     1
 10
0.0
 20
0.0
 30
0.0
 70
    64
 71
    24
 72
    24
  0
VERTEX
  5
2FB
  8
0
 10
2.519999980926514
 20
-23.95000076293945
 30
0.0
 70
   192
  0
VERTEX
  5
2FC
  8
0
 10
-0.4000000059604645
 20
-22.95000076293945
 30
0.0
 70
   192
  0
VERTEX
  5
2FD
  8
0
 10
-0.4000000059604645
 20
-19.875
 30
-11.47500038146973
 70
   192
  0
VERTEX
  5
2FE
  8
0
 10
2.519999980926514
 20
-20.74099922180176
 30
-11.97500038146973
 70
   192
  0
VERTEX
  5
2FF
  8
0
 10
-0.4000000059604645
 20
-11.47500038146973
 30
-19.875
 70
   192
  0
VERTEX
  5
300
  8
0
 10
2.519999980926514
 20
-11.97500038146973
 30
-20.74099922180176
 70
   192
  0
VERTEX
  5
301
  8
0
 10
-0.4000000059604645
 20
0.0
 30
-22.95000076293945
 70
   192
  0
VERTEX
  5
302
  8
0
 10
2.519999980926514
 20
0.0
 30
-23.95000076293945
 70
   192
  0
VERTEX
  5
303
  8
0
 10
-0.4000000059604645
 20
11.47500038146973
 30
-19.875
 70
   192
  0
VERTEX
  5
304
  8
0
 10
2.519999980926514
 20
20.74099922180176
 30
-11.97500038146973
 70
   192
  0
VERTEX
  5
305
  8
0
 10
2.519999980926514
 20
11.97500038146973
 30
-20.74099922180176
 70
   192
  0
VERTEX
  5
306
  8
0
 10
2.519999980926514
 20
23.95000076293945
 30
0.0
 70
   192
  0
VERTEX
  5
307
  8
0
 10
-0.4000000059604645
 20
19.875
 30
-11.47500038146973
 70
   192
  0
VERTEX
  5
308
  8
0
 10
2.519999980926514
 20
20.74099922180176
 30
11.97500038146973
 70
   192
  0
VERTEX
  5
309
  8
0
 10
-0.4000000059604645
 20
22.95000076293945
 30
0.0
 70
   192
  0
VERTEX
  5
30A
  8
0
 10
2.519999980926514
 20
11.97500038146973
 30
20.74099922180176
 70
   192
  0
VERTEX
  5
30B
  8
0
 10
-0.4000000059604645
 20
19.875
 30
11.47500038146973
 70
   192
  0
VERTEX
  5
30C
  8
0
 10
-0.4000000059604645
 20
11.47500038146973
 30
19.875
 70
   192
  0
VERTEX
  5
30D
  8
0
 10
-0.4000000059604645
 20
0.0
 30
22.95000076293945
 70
   192
  0
VERTEX
  5
30E
  8
0
 10
2.519999980926514
 20
-11.97500038146973
 30
20.74099922180176
 70
   192
  0
VERTEX
  5
30F
  8
0
 10
2.519999980926514
 20
0.0
 30
23.95000076293945
 70
   192
  0
VERTEX
  5
310
  8
0
 10
-0.4000000059604645
 20
-11.47500038146973
 30
19.875
 70
   192
  0
VERTEX
  5
311
  8
0
 10
-0.4000000059604645
 20
-19.875
 30
11.47500038146973
 70
   192
  0
VERTEX
  5
312
  8
0
 10
2.519999980926514
 20
-20.74099922180176
 30
11.97500038146973
 70
   192
  0
VERTEX
  5
313
  8
0
 62
     9
 10
0.0
 20
0.0
 30
0.0
 70
   128
 71
     3
 72
     2
 73
     1
  0
VERTEX
  5
314
  8
0
 62
     9
 10
0.0
 20
0.0
 30
0.0
 70
   128
 71
     5
 72
     3
 73
     4
  0
VERTEX
  5
315
  8
0
 62
     9
 10
0.0
 20
0.0
 30
0.0
 70
   128
 71
     7
 72
     5
 73
     6
  0
VERTEX
  5
316
  8
0
 62
     9
 10
0.0
 20
0.0
 30
0.0
 70
   128
 71
     9
 72
     7
 73
     8
  0
VERTEX
  5
317
  8
0
 62
     9
 10
0.0
 20
0.0
 30
0.0
 70
   128
 71
     9
 72
    11
 73
    10
  0
VERTEX
  5
318
  8
0
 62
     9
 10
0.0
 20
0.0
 30
0.0
 70
   128
 71
    13
 72
    10
 73
    12
  0
VERTEX
  5
319
  8
0
 62
     9
 10
0.0
 20
0.0
 30
0.0
 70
   128
 71
    15
 72
    12
 73
    14
  0
VERTEX
  5
31A
  8
0
 62
     9
 10
0.0
 20
0.0
 30
0.0
 70
   128
 71
    17
 72
    14
 73
    16
  0
VERTEX
  5
31B
  8
0
 62
     9
 10
0.0
 20
0.0
 30
0.0
 70
   128
 71
    19
 72
    18
 73
    16
  0
VERTEX
  5
31C
  8
0
 62
     9
 10
0.0
 20
0.0
 30
0.0
 70
   128
 71
    19
 72
    21
 73
    20
  0
VERTEX
  5
31D
  8
0
 62
     9
 10
0.0
 20
0.0
 30
0.0
 70
   128
 71
    23
 72
    22
 73
    20
  0
VERTEX
  5
31E
  8
0
 62
     9
 10
0.0
 20
0.0
 30
0.0
 70
   128
 71
     2
 72
    23
 73
    24
  0
VERTEX
  5
31F
  8
0
 62
     9
 10
0.0
 20
0.0
 30
0.0
 70
   128
 71
    24
 72
     1
 73
     2
  0
VERTEX
  5
320
  8
0
 62
     9
 10
0.0
 20
0.0
 30
0.0
 70
   128
 71
    20
 72
    24
 73
    23
  0
VERTEX
  5
321
  8
0
 62
     9
 10
0.0
 20
0.0
 30
0.0
 70
   128
 71
    20
 72
    22
 73
    19
  0
VERTEX
  5
322
  8
0
 62
     9
 10
0.0
 20
0.0
 30
0.0
 70
   128
 71
    16
 72
    21
 73
    19
  0
VERTEX
  5
323
  8
0
 62
     9
 10
0.0
 20
0.0
 30
0.0
 70
   128
 71
    16
 72
    18
 73
    17
  0
VERTEX
  5
324
  8
0
 62
     9
 10
0.0
 20
0.0
 30
0.0
 70
   128
 71
    14
 72
    17
 73
    15
  0
VERTEX
  5
325
  8
0
 62
     9
 10
0.0
 20
0.0
 30
0.0
 70
   128
 71
    12
 72
    15
 73
    13
  0
VERTEX
  5
326
  8
0
 62
     9
 10
0.0
 20
0.0
 30
0.0
 70
   128
 71
    10
 72
    13
 73
     9
  0
VERTEX
  5
327
  8
0
 62
     9
 10
0.0
 20
0.0
 30
0.0
 70
   128
 71
     8
 72
    11
 73
     9
  0
VERTEX
  5
328
  8
0
 62
     9
 10
0.0
 20
0.0
 30
0.0
 70
   128
 71
     6
 72
     8
 73
     7
  0
VERTEX
  5
329
  8
0
 62
     9
 10
0.0
 20
0.0
 30
0.0
 70
   128
 71
     4
 72
     6
 73
     5
  0
VERTEX
  5
32A
  8
0
 62
     9
 10
0.0
 20
0.0
 30
0.0
 70
   128
 71
     1
 72
     4
 73
     3
  0
SEQEND
  5
32B
  8
0
 62
     9
  0
ENDBLK
  5
32E
  8
0
  0
BLOCK
  8
0
  2
E3_NODE_11_
 70
     0
 10
0.0
 20
0.0
 30
0.0
  3
E3_NODE_11_
  1

  0
POLYLINE
  5
330
  8
0
 62
     9
 66
     1
 10
0.0
 20
0.0
 30
0.0
 70
    64
 71
    12
 72
    10
  0
VERTEX
  5
331
  8
0
 10
-0.4000000059604645
 20
11.47500038146973
 30
19.875
 70
   192
  0
VERTEX
  5
332
  8
0
 10
-0.4000000059604645
 20
-19.875
 30
11.47500038146973
 70
   192
  0
VERTEX
  5
333
  8
0
 10
-0.4000000059604645
 20
-11.47500038146973
 30
19.875
 70
   192
  0
VERTEX
  5
334
  8
0
 10
-0.4000000059604645
 20
-19.875
 30
-11.47500038146973
 70
   192
  0
VERTEX
  5
335
  8
0
 10
-0.4000000059604645
 20
11.47500038146973
 30
-19.875
 70
   192
  0
VERTEX
  5
336
  8
0
 10
-0.4000000059604645
 20
0.0
 30
-22.95000076293945
 70
   192
  0
VERTEX
  5
337
  8
0
 10
-0.4000000059604645
 20
0.0
 30
22.95000076293945
 70
   192
  0
VERTEX
  5
338
  8
0
 10
-0.4000000059604645
 20
19.875
 30
-11.47500038146973
 70
   192
  0
VERTEX
  5
339
  8
0
 10
-0.4000000059604645
 20
19.875
 30
11.47500038146973
 70
   192
  0
VERTEX
  5
33A
  8
0
 10
-0.4000000059604645
 20
22.95000076293945
 30
0.0
 70
   192
  0
VERTEX
  5
33B
  8
0
 10
-0.4000000059604645
 20
-22.95000076293945
 30
0.0
 70
   192
  0
VERTEX
  5
33C
  8
0
 10
-0.4000000059604645
 20
-11.47500038146973
 30
-19.875
 70
   192
  0
VERTEX
  5
33D
  8
0
 62
     9
 10
0.0
 20
0.0
 30
0.0
 70
   128
 71
     3
 72
     2
 73
     1
  0
VERTEX
  5
33E
  8
0
 62
     9
 10
0.0
 20
0.0
 30
0.0
 70
   128
 71
     6
 72
     5
 73
     4
  0
VERTEX
  5
33F
  8
0
 62
     9
 10
0.0
 20
0.0
 30
0.0
 70
   128
 71
     1
 72
     7
 73
     3
  0
VERTEX
  5
340
  8
0
 62
     9
 10
0.0
 20
0.0
 30
0.0
 70
   128
 71
     5
 72
     8
 73
     4
  0
VERTEX
  5
341
  8
0
 62
     9
 10
0.0
 20
0.0
 30
0.0
 70
   128
 71
    10
 72
     9
 73
     4
  0
VERTEX
  5
342
  8
0
 62
     9
 10
0.0
 20
0.0
 30
0.0
 70
   128
 71
     2
 72
    11
 73
     9
  0
VERTEX
  5
343
  8
0
 62
     9
 10
0.0
 20
0.0
 30
0.0
 70
   128
 71
     4
 72
     8
 73
    10
  0
VERTEX
  5
344
  8
0
 62
     9
 10
0.0
 20
0.0
 30
0.0
 70
   128
 71
    11
 72
     4
 73
     9
  0
VERTEX
  5
345
  8
0
 62
     9
 10
0.0
 20
0.0
 30
0.0
 70
   128
 71
     2
 72
     9
 73
     1
  0
VERTEX
  5
346
  8
0
 62
     9
 10
0.0
 20
0.0
 30
0.0
 70
   128
 71
     4
 72
    12
 73
     6
  0
SEQEND
  5
347
  8
0
 62
     9
  0
ENDBLK
  5
34A
  8
0
  0
BLOCK
  8
0
  2
E3_NODE_12_
 70
     0
 10
0.0
 20
0.0
 30
0.0
  3
E3_NODE_12_
  1

  0
POLYLINE
  5
34C
  8
0
 62
     9
 66
     1
 10
0.0
 20
0.0
 30
0.0
 70
    64
 71
    10
 72
    10
  0
VERTEX
  5
34D
  8
0
 10
54.88999938964844
 20
6.156000137329102
 30
-6.349999904632568
 70
   192
  0
VERTEX
  5
34E
  8
0
 10
60.92900085449219
 20
6.156000137329102
 30
-1.962000012397766
 70
   192
  0
VERTEX
  5
34F
  8
0
 10
60.92900085449219
 20
-627.7459716796875
 30
-1.962000012397766
 70
   192
  0
VERTEX
  5
350
  8
0
 10
54.88999938964844
 20
-627.7459716796875
 30
-6.349999904632568
 70
   192
  0
VERTEX
  5
351
  8
0
 10
58.62200164794922
 20
6.156000137329102
 30
5.13700008392334
 70
   192
  0
VERTEX
  5
352
  8
0
 10
58.62200164794922
 20
-627.7459716796875
 30
5.13700008392334
 70
   192
  0
VERTEX
  5
353
  8
0
 10
51.15700149536133
 20
6.156000137329102
 30
5.13700008392334
 70
   192
  0
VERTEX
  5
354
  8
0
 10
51.15700149536133
 20
-627.7459716796875
 30
5.13700008392334
 70
   192
  0
VERTEX
  5
355
  8
0
 10
48.85100173950195
 20
6.156000137329102
 30
-1.962000012397766
 70
   192
  0
VERTEX
  5
356
  8
0
 10
48.85100173950195
 20
-627.7459716796875
 30
-1.962000012397766
 70
   192
  0
VERTEX
  5
357
  8
0
 62
     9
 10
0.0
 20
0.0
 30
0.0
 70
   128
 71
     3
 72
     2
 73
     1
  0
VERTEX
  5
358
  8
0
 62
     9
 10
0.0
 20
0.0
 30
0.0
 70
   128
 71
     4
 72
     3
 73
     1
  0
VERTEX
  5
359
  8
0
 62
     9
 10
0.0
 20
0.0
 30
0.0
 70
   128
 71
     6
 72
     5
 73
     2
  0
VERTEX
  5
35A
  8
0
 62
     9
 10
0.0
 20
0.0
 30
0.0
 70
   128
 71
     3
 72
     6
 73
     2
  0
VERTEX
  5
35B
  8
0
 62
     9
 10
0.0
 20
0.0
 30
0.0
 70
   128
 71
     8
 72
     7
 73
     5
  0
VERTEX
  5
35C
  8
0
 62
     9
 10
0.0
 20
0.0
 30
0.0
 70
   128
 71
     6
 72
     8
 73
     5
  0
VERTEX
  5
35D
  8
0
 62
     9
 10
0.0
 20
0.0
 30
0.0
 70
   128
 71
    10
 72
     9
 73
     7
  0
VERTEX
  5
35E
  8
0
 62
     9
 10
0.0
 20
0.0
 30
0.0
 70
   128
 71
     8
 72
    10
 73
     7
  0
VERTEX
  5
35F
  8
0
 62
     9
 10
0.0
 20
0.0
 30
0.0
 70
   128
 71
     4
 72
     1
 73
     9
  0
VERTEX
  5
360
  8
0
 62
     9
 10
0.0
 20
0.0
 30
0.0
 70
   128
 71
    10
 72
     4
 73
     9
  0
SEQEND
  5
361
  8
0
 62
     9
  0
ENDBLK
  5
364
  8
0
  0
BLOCK
  8
0
  2
E3_NODE_13_
 70
     0
 10
0.0
 20
0.0
 30
0.0
  3
E3_NODE_13_
  1

  0
POLYLINE
  5
366
  8
0
 62
     9
 66
     1
 10
0.0
 20
0.0
 30
0.0
 70
    64
 71
    11
 72
     9
  0
VERTEX
  5
367
  8
0
 10
8.600000381469727
 20
-631.5880126953125
 30
-15.62600040435791
 70
   192
  0
VERTEX
  5
368
  8
0
 10
8.600000381469727
 20
-626.7789916992188
 30
17.82200050354004
 70
   192
  0
VERTEX
  5
369
  8
0
 10
8.600000381469727
 20
-616.31298828125
 30
17.82200050354004
 70
   192
  0
VERTEX
  5
36A
  8
0
 10
8.600000381469727
 20
-607.5079956054688
 30
12.16399955749512
 70
   192
  0
VERTEX
  5
36B
  8
0
 10
8.600000381469727
 20
-611.5040283203125
 30
-15.62600040435791
 70
   192
  0
VERTEX
  5
36C
  8
0
 10
8.600000381469727
 20
-621.5460205078125
 30
-18.57500076293945
 70
   192
  0
VERTEX
  5
36D
  8
0
 10
8.600000381469727
 20
-603.1610107421875
 30
2.642999887466431
 70
   192
  0
VERTEX
  5
36E
  8
0
 10
8.600000381469727
 20
-604.6500244140625
 30
-7.716000080108643
 70
   192
  0
VERTEX
  5
36F
  8
0
 10
8.600000381469727
 20
-635.583984375
 30
12.16399955749512
 70
   192
  0
VERTEX
  5
370
  8
0
 10
8.600000381469727
 20
-638.4420166015625
 30
-7.716000080108643
 70
   192
  0
VERTEX
  5
371
  8
0
 10
8.600000381469727
 20
-639.9320068359375
 30
2.642999887466431
 70
   192
  0
VERTEX
  5
372
  8
0
 62
     9
 10
0.0
 20
0.0
 30
0.0
 70
   128
 71
     3
 72
     2
 73
     1
  0
VERTEX
  5
373
  8
0
 62
     9
 10
0.0
 20
0.0
 30
0.0
 70
   128
 71
     6
 72
     5
 73
     4
  0
VERTEX
  5
374
  8
0
 62
     9
 10
0.0
 20
0.0
 30
0.0
 70
   128
 71
     8
 72
     7
 73
     4
  0
VERTEX
  5
375
  8
0
 62
     9
 10
0.0
 20
0.0
 30
0.0
 70
   128
 71
     2
 72
     9
 73
     1
  0
VERTEX
  5
376
  8
0
 62
     9
 10
0.0
 20
0.0
 30
0.0
 70
   128
 71
    10
 72
     1
 73
     9
  0
VERTEX
  5
377
  8
0
 62
     9
 10
0.0
 20
0.0
 30
0.0
 70
   128
 71
     4
 72
     5
 73
     8
  0
VERTEX
  5
378
  8
0
 62
     9
 10
0.0
 20
0.0
 30
0.0
 70
   128
 71
     9
 72
    11
 73
    10
  0
VERTEX
  5
379
  8
0
 62
     9
 10
0.0
 20
0.0
 30
0.0
 70
   128
 71
     1
 72
     4
 73
     3
  0
VERTEX
  5
37A
  8
0
 62
     9
 10
0.0
 20
0.0
 30
0.0
 70
   128
 71
     4
 72
     1
 73
     6
  0
SEQEND
  5
37B
  8
0
 62
     9
  0
ENDBLK
  5
37E
  8
0
  0
BLOCK
  8
0
  2
E3_NODE_14_
 70
     0
 10
0.0
 20
0.0
 30
0.0
  3
E3_NODE_14_
  1

  0
POLYLINE
  5
380
  8
0
 62
     9
 66
     1
 10
0.0
 20
0.0
 30
0.0
 70
    64
 71
    49
 72
    71
  0
VERTEX
  5
381
  8
0
 10
8.600000381469727
 20
-611.5040283203125
 30
-15.62600040435791
 70
   192
  0
VERTEX
  5
382
  8
0
 10
20.20199966430664
 20
-614.6740112304688
 30
-10.69200038909912
 70
   192
  0
VERTEX
  5
383
  8
0
 10
20.20199966430664
 20
-621.5460205078125
 30
-12.71000003814697
 70
   192
  0
VERTEX
  5
384
  8
0
 10
8.600000381469727
 20
-604.6500244140625
 30
-7.716000080108643
 70
   192
  0
VERTEX
  5
385
  8
0
 10
20.20199966430664
 20
-609.9849853515625
 30
-5.28000020980835
 70
   192
  0
VERTEX
  5
386
  8
0
 10
8.600000381469727
 20
-603.1610107421875
 30
2.642999887466431
 70
   192
  0
VERTEX
  5
387
  8
0
 10
20.20199966430664
 20
-608.9650268554688
 30
1.809000015258789
 70
   192
  0
VERTEX
  5
388
  8
0
 10
8.600000381469727
 20
-607.5079956054688
 30
12.16399955749512
 70
   192
  0
VERTEX
  5
389
  8
0
 10
20.20199966430664
 20
-611.9400024414062
 30
8.322999954223633
 70
   192
  0
VERTEX
  5
38A
  8
0
 10
8.600000381469727
 20
-616.31298828125
 30
17.82200050354004
 70
   192
  0
VERTEX
  5
38B
  8
0
 10
20.20199966430664
 20
-617.9650268554688
 30
12.19499969482422
 70
   192
  0
VERTEX
  5
38C
  8
0
 10
8.600000381469727
 20
-626.7789916992188
 30
17.82200050354004
 70
   192
  0
VERTEX
  5
38D
  8
0
 10
20.20199966430664
 20
-625.1270141601562
 30
12.19499969482422
 70
   192
  0
VERTEX
  5
38E
  8
0
 10
8.600000381469727
 20
-635.583984375
 30
12.16399955749512
 70
   192
  0
VERTEX
  5
38F
  8
0
 10
20.20199966430664
 20
-631.1519775390625
 30
8.322999954223633
 70
   192
  0
VERTEX
  5
390
  8
0
 10
8.600000381469727
 20
-639.9320068359375
 30
2.642999887466431
 70
   192
  0
VERTEX
  5
391
  8
0
 10
20.20199966430664
 20
-634.1270141601562
 30
1.809000015258789
 70
   192
  0
VERTEX
  5
392
  8
0
 10
8.600000381469727
 20
-638.4420166015625
 30
-7.716000080108643
 70
   192
  0
VERTEX
  5
393
  8
0
 10
20.20199966430664
 20
-633.1069946289062
 30
-5.28000020980835
 70
   192
  0
VERTEX
  5
394
  8
0
 10
8.600000381469727
 20
-631.5880126953125
 30
-15.62600040435791
 70
   192
  0
VERTEX
  5
395
  8
0
 10
20.20199966430664
 20
-628.4180297851562
 30
-10.69200038909912
 70
   192
  0
VERTEX
  5
396
  8
0
 10
8.600000381469727
 20
-621.5460205078125
 30
-18.57500076293945
 70
   192
  0
VERTEX
  5
397
  8
0
 10
32.92300033569336
 20
-616.1209716796875
 30
-8.442000389099121
 70
   192
  0
VERTEX
  5
398
  8
0
 10
32.92300033569336
 20
-612.4180297851562
 30
-4.168000221252441
 70
   192
  0
VERTEX
  5
399
  8
0
 10
32.92300033569336
 20
-611.614013671875
 30
1.427999973297119
 70
   192
  0
VERTEX
  5
39A
  8
0
 10
32.92300033569336
 20
-613.9619750976562
 30
6.571000099182129
 70
   192
  0
VERTEX
  5
39B
  8
0
 10
32.92300033569336
 20
-618.718994140625
 30
9.628000259399414
 70
   192
  0
VERTEX
  5
39C
  8
0
 10
32.92300033569336
 20
-624.3729858398438
 30
9.628000259399414
 70
   192
  0
VERTEX
  5
39D
  8
0
 10
32.92300033569336
 20
-629.1300048828125
 30
6.571000099182129
 70
   192
  0
VERTEX
  5
39E
  8
0
 10
32.92300033569336
 20
-631.47802734375
 30
1.427999973297119
 70
   192
  0
VERTEX
  5
39F
  8
0
 10
32.92300033569336
 20
-630.6740112304688
 30
-4.168000221252441
 70
   192
  0
VERTEX
  5
3A0
  8
0
 10
32.92300033569336
 20
-626.9710083007812
 30
-8.442000389099121
 70
   192
  0
VERTEX
  5
3A1
  8
0
 10
32.92300033569336
 20
-621.5460205078125
 30
-10.03400039672852
 70
   192
  0
VERTEX
  5
3A2
  8
0
 10
45.90399932861328
 20
-615.7459716796875
 30
-9.026000022888184
 70
   192
  0
VERTEX
  5
3A3
  8
0
 10
45.90399932861328
 20
-621.5460205078125
 30
-10.72900009155273
 70
   192
  0
VERTEX
  5
3A4
  8
0
 10
45.90399932861328
 20
-612.43701171875
 30
-5.206999778747559
 70
   192
  0
VERTEX
  5
3A5
  8
0
 10
45.90399932861328
 20
-611.7869873046875
 30
-4.456999778747559
 70
   192
  0
VERTEX
  5
3A6
  8
0
 10
45.90399932861328
 20
-612.6060180664062
 30
5.203999996185303
 70
   192
  0
VERTEX
  5
3A7
  8
0
 10
45.90399932861328
 20
-613.43798828125
 30
7.026000022888184
 70
   192
  0
VERTEX
  5
3A8
  8
0
 10
45.90399932861328
 20
-624.5689697265625
 30
10.29399967193604
 70
   192
  0
VERTEX
  5
3A9
  8
0
 10
45.90399932861328
 20
-621.5460205078125
 30
10.72900009155273
 70
   192
  0
VERTEX
  5
3AA
  8
0
 10
45.90399932861328
 20
-629.6539916992188
 30
7.026000022888184
 70
   192
  0
VERTEX
  5
3AB
  8
0
 10
45.90399932861328
 20
-632.166015625
 30
1.526999950408936
 70
   192
  0
VERTEX
  5
3AC
  8
0
 10
45.90399932861328
 20
-630.4860229492188
 30
5.203999996185303
 70
   192
  0
VERTEX
  5
3AD
  8
0
 10
45.90399932861328
 20
-631.3049926757812
 30
-4.456999778747559
 70
   192
  0
VERTEX
  5
3AE
  8
0
 10
45.90399932861328
 20
-627.3460083007812
 30
-9.026000022888184
 70
   192
  0
VERTEX
  5
3AF
  8
0
 10
45.90399932861328
 20
-630.655029296875
 30
-5.206999778747559
 70
   192
  0
VERTEX
  5
3B0
  8
0
 10
45.90399932861328
 20
-618.5230102539062
 30
10.29399967193604
 70
   192
  0
VERTEX
  5
3B1
  8
0
 10
45.90399932861328
 20
-610.927001953125
 30
1.526999950408936
 70
   192
  0
VERTEX
  5
3B2
  8
0
 62
     9
 10
0.0
 20
0.0
 30
0.0
 70
   128
 71
     3
 72
     2
 73
     1
  0
VERTEX
  5
3B3
  8
0
 62
     9
 10
0.0
 20
0.0
 30
0.0
 70
   128
 71
     2
 72
     5
 73
     4
  0
VERTEX
  5
3B4
  8
0
 62
     9
 10
0.0
 20
0.0
 30
0.0
 70
   128
 71
     5
 72
     7
 73
     6
  0
VERTEX
  5
3B5
  8
0
 62
     9
 10
0.0
 20
0.0
 30
0.0
 70
   128
 71
     9
 72
     8
 73
     6
  0
VERTEX
  5
3B6
  8
0
 62
     9
 10
0.0
 20
0.0
 30
0.0
 70
   128
 71
    11
 72
    10
 73
     8
  0
VERTEX
  5
3B7
  8
0
 62
     9
 10
0.0
 20
0.0
 30
0.0
 70
   128
 71
    13
 72
    12
 73
    10
  0
VERTEX
  5
3B8
  8
0
 62
     9
 10
0.0
 20
0.0
 30
0.0
 70
   128
 71
    15
 72
    14
 73
    12
  0
VERTEX
  5
3B9
  8
0
 62
     9
 10
0.0
 20
0.0
 30
0.0
 70
   128
 71
    15
 72
    17
 73
    16
  0
VERTEX
  5
3BA
  8
0
 62
     9
 10
0.0
 20
0.0
 30
0.0
 70
   128
 71
    19
 72
    18
 73
    16
  0
VERTEX
  5
3BB
  8
0
 62
     9
 10
0.0
 20
0.0
 30
0.0
 70
   128
 71
    21
 72
    20
 73
    18
  0
VERTEX
  5
3BC
  8
0
 62
     9
 10
0.0
 20
0.0
 30
0.0
 70
   128
 71
     3
 72
    22
 73
    20
  0
VERTEX
  5
3BD
  8
0
 62
     9
 10
0.0
 20
0.0
 30
0.0
 70
   128
 71
    23
 72
     2
 73
     3
  0
VERTEX
  5
3BE
  8
0
 62
     9
 10
0.0
 20
0.0
 30
0.0
 70
   128
 71
    24
 72
     5
 73
     2
  0
VERTEX
  5
3BF
  8
0
 62
     9
 10
0.0
 20
0.0
 30
0.0
 70
   128
 71
    25
 72
     7
 73
     5
  0
VERTEX
  5
3C0
  8
0
 62
     9
 10
0.0
 20
0.0
 30
0.0
 70
   128
 71
    26
 72
     9
 73
     7
  0
VERTEX
  5
3C1
  8
0
 62
     9
 10
0.0
 20
0.0
 30
0.0
 70
   128
 71
    27
 72
    11
 73
     9
  0
VERTEX
  5
3C2
  8
0
 62
     9
 10
0.0
 20
0.0
 30
0.0
 70
   128
 71
    28
 72
    13
 73
    11
  0
VERTEX
  5
3C3
  8
0
 62
     9
 10
0.0
 20
0.0
 30
0.0
 70
   128
 71
    29
 72
    15
 73
    13
  0
VERTEX
  5
3C4
  8
0
 62
     9
 10
0.0
 20
0.0
 30
0.0
 70
   128
 71
    30
 72
    17
 73
    15
  0
VERTEX
  5
3C5
  8
0
 62
     9
 10
0.0
 20
0.0
 30
0.0
 70
   128
 71
    31
 72
    19
 73
    17
  0
VERTEX
  5
3C6
  8
0
 62
     9
 10
0.0
 20
0.0
 30
0.0
 70
   128
 71
    32
 72
    21
 73
    19
  0
VERTEX
  5
3C7
  8
0
 62
     9
 10
0.0
 20
0.0
 30
0.0
 70
   128
 71
    33
 72
     3
 73
    21
  0
VERTEX
  5
3C8
  8
0
 62
     9
 10
0.0
 20
0.0
 30
0.0
 70
   128
 71
    33
 72
    35
 73
    34
  0
VERTEX
  5
3C9
  8
0
 62
     9
 10
0.0
 20
0.0
 30
0.0
 70
   128
 71
    36
 72
    24
 73
    23
  0
VERTEX
  5
3CA
  8
0
 62
     9
 10
0.0
 20
0.0
 30
0.0
 70
   128
 71
    36
 72
    37
 73
    24
  0
VERTEX
  5
3CB
  8
0
 62
     9
 10
0.0
 20
0.0
 30
0.0
 70
   128
 71
    25
 72
    24
 73
    37
  0
VERTEX
  5
3CC
  8
0
 62
     9
 10
0.0
 20
0.0
 30
0.0
 70
   128
 71
    38
 72
    26
 73
    25
  0
VERTEX
  5
3CD
  8
0
 62
     9
 10
0.0
 20
0.0
 30
0.0
 70
   128
 71
    38
 72
    39
 73
    26
  0
VERTEX
  5
3CE
  8
0
 62
     9
 10
0.0
 20
0.0
 30
0.0
 70
   128
 71
    27
 72
    26
 73
    39
  0
VERTEX
  5
3CF
  8
0
 62
     9
 10
0.0
 20
0.0
 30
0.0
 70
   128
 71
    41
 72
    40
 73
    28
  0
VERTEX
  5
3D0
  8
0
 62
     9
 10
0.0
 20
0.0
 30
0.0
 70
   128
 71
    28
 72
    27
 73
    41
  0
VERTEX
  5
3D1
  8
0
 62
     9
 10
0.0
 20
0.0
 30
0.0
 70
   128
 71
    28
 72
    40
 73
    42
  0
VERTEX
  5
3D2
  8
0
 62
     9
 10
0.0
 20
0.0
 30
0.0
 70
   128
 71
    44
 72
    43
 73
    30
  0
VERTEX
  5
3D3
  8
0
 62
     9
 10
0.0
 20
0.0
 30
0.0
 70
   128
 71
    30
 72
    29
 73
    44
  0
VERTEX
  5
3D4
  8
0
 62
     9
 10
0.0
 20
0.0
 30
0.0
 70
   128
 71
    30
 72
    43
 73
    45
  0
VERTEX
  5
3D5
  8
0
 62
     9
 10
0.0
 20
0.0
 30
0.0
 70
   128
 71
    47
 72
    46
 73
    32
  0
VERTEX
  5
3D6
  8
0
 62
     9
 10
0.0
 20
0.0
 30
0.0
 70
   128
 71
    32
 72
    31
 73
    47
  0
VERTEX
  5
3D7
  8
0
 62
     9
 10
0.0
 20
0.0
 30
0.0
 70
   128
 71
    32
 72
    46
 73
    35
  0
VERTEX
  5
3D8
  8
0
 62
     9
 10
0.0
 20
0.0
 30
0.0
 70
   128
 71
    35
 72
    33
 73
    32
  0
VERTEX
  5
3D9
  8
0
 62
     9
 10
0.0
 20
0.0
 30
0.0
 70
   128
 71
    31
 72
    45
 73
    47
  0
VERTEX
  5
3DA
  8
0
 62
     9
 10
0.0
 20
0.0
 30
0.0
 70
   128
 71
    45
 72
    31
 73
    30
  0
VERTEX
  5
3DB
  8
0
 62
     9
 10
0.0
 20
0.0
 30
0.0
 70
   128
 71
    29
 72
    42
 73
    44
  0
VERTEX
  5
3DC
  8
0
 62
     9
 10
0.0
 20
0.0
 30
0.0
 70
   128
 71
    42
 72
    29
 73
    28
  0
VERTEX
  5
3DD
  8
0
 62
     9
 10
0.0
 20
0.0
 30
0.0
 70
   128
 71
    27
 72
    48
 73
    41
  0
VERTEX
  5
3DE
  8
0
 62
     9
 10
0.0
 20
0.0
 30
0.0
 70
   128
 71
    39
 72
    48
 73
    27
  0
VERTEX
  5
3DF
  8
0
 62
     9
 10
0.0
 20
0.0
 30
0.0
 70
   128
 71
    25
 72
    49
 73
    38
  0
VERTEX
  5
3E0
  8
0
 62
     9
 10
0.0
 20
0.0
 30
0.0
 70
   128
 71
    37
 72
    49
 73
    25
  0
VERTEX
  5
3E1
  8
0
 62
     9
 10
0.0
 20
0.0
 30
0.0
 70
   128
 71
    23
 72
    34
 73
    36
  0
VERTEX
  5
3E2
  8
0
 62
     9
 10
0.0
 20
0.0
 30
0.0
 70
   128
 71
    34
 72
    23
 73
    33
  0
VERTEX
  5
3E3
  8
0
 62
     9
 10
0.0
 20
0.0
 30
0.0
 70
   128
 71
    21
 72
    32
 73
    33
  0
VERTEX
  5
3E4
  8
0
 62
     9
 10
0.0
 20
0.0
 30
0.0
 70
   128
 71
    19
 72
    31
 73
    32
  0
VERTEX
  5
3E5
  8
0
 62
     9
 10
0.0
 20
0.0
 30
0.0
 70
   128
 71
    17
 72
    30
 73
    31
  0
VERTEX
  5
3E6
  8
0
 62
     9
 10
0.0
 20
0.0
 30
0.0
 70
   128
 71
    15
 72
    29
 73
    30
  0
VERTEX
  5
3E7
  8
0
 62
     9
 10
0.0
 20
0.0
 30
0.0
 70
   128
 71
    13
 72
    28
 73
    29
  0
VERTEX
  5
3E8
  8
0
 62
     9
 10
0.0
 20
0.0
 30
0.0
 70
   128
 71
    11
 72
    27
 73
    28
  0
VERTEX
  5
3E9
  8
0
 62
     9
 10
0.0
 20
0.0
 30
0.0
 70
   128
 71
     9
 72
    26
 73
    27
  0
VERTEX
  5
3EA
  8
0
 62
     9
 10
0.0
 20
0.0
 30
0.0
 70
   128
 71
     7
 72
    25
 73
    26
  0
VERTEX
  5
3EB
  8
0
 62
     9
 10
0.0
 20
0.0
 30
0.0
 70
   128
 71
     5
 72
    24
 73
    25
  0
VERTEX
  5
3EC
  8
0
 62
     9
 10
0.0
 20
0.0
 30
0.0
 70
   128
 71
     2
 72
    23
 73
    24
  0
VERTEX
  5
3ED
  8
0
 62
     9
 10
0.0
 20
0.0
 30
0.0
 70
   128
 71
     3
 72
    33
 73
    23
  0
VERTEX
  5
3EE
  8
0
 62
     9
 10
0.0
 20
0.0
 30
0.0
 70
   128
 71
    20
 72
    21
 73
     3
  0
VERTEX
  5
3EF
  8
0
 62
     9
 10
0.0
 20
0.0
 30
0.0
 70
   128
 71
    18
 72
    19
 73
    21
  0
VERTEX
  5
3F0
  8
0
 62
     9
 10
0.0
 20
0.0
 30
0.0
 70
   128
 71
    16
 72
    17
 73
    19
  0
VERTEX
  5
3F1
  8
0
 62
     9
 10
0.0
 20
0.0
 30
0.0
 70
   128
 71
    16
 72
    14
 73
    15
  0
VERTEX
  5
3F2
  8
0
 62
     9
 10
0.0
 20
0.0
 30
0.0
 70
   128
 71
    12
 72
    13
 73
    15
  0
VERTEX
  5
3F3
  8
0
 62
     9
 10
0.0
 20
0.0
 30
0.0
 70
   128
 71
    10
 72
    11
 73
    13
  0
VERTEX
  5
3F4
  8
0
 62
     9
 10
0.0
 20
0.0
 30
0.0
 70
   128
 71
     8
 72
     9
 73
    11
  0
VERTEX
  5
3F5
  8
0
 62
     9
 10
0.0
 20
0.0
 30
0.0
 70
   128
 71
     6
 72
     7
 73
     9
  0
VERTEX
  5
3F6
  8
0
 62
     9
 10
0.0
 20
0.0
 30
0.0
 70
   128
 71
     6
 72
     4
 73
     5
  0
VERTEX
  5
3F7
  8
0
 62
     9
 10
0.0
 20
0.0
 30
0.0
 70
   128
 71
     4
 72
     1
 73
     2
  0
VERTEX
  5
3F8
  8
0
 62
     9
 10
0.0
 20
0.0
 30
0.0
 70
   128
 71
     1
 72
    22
 73
     3
  0
SEQEND
  5
3F9
  8
0
 62
     9
  0
ENDBLK
  5
3FC
  8
0
  0
BLOCK
  8
0
  2
E3_NODE_15_
 70
     0
 10
0.0
 20
0.0
 30
0.0
  3
E3_NODE_15_
  1

  0
POLYLINE
  5
3FE
  8
0
 62
     9
 66
     1
 10
0.0
 20
0.0
 30
0.0
 70
    64
 71
    22
 72
    22
  0
VERTEX
  5
3FF
  8
0
 10
47.02799987792969
 20
-613.1309814453125
 30
4.857999801635742
 70
   192
  0
VERTEX
  5
400
  8
0
 10
45.90399932861328
 20
-613.43798828125
 30
7.026000022888184
 70
   192
  0
VERTEX
  5
401
  8
0
 10
45.90399932861328
 20
-618.5230102539062
 30
10.29399967193604
 70
   192
  0
VERTEX
  5
402
  8
0
 10
45.90399932861328
 20
-612.6060180664062
 30
5.203999996185303
 70
   192
  0
VERTEX
  5
403
  8
0
 10
47.02799987792969
 20
-621.5460205078125
 30
9.717000007629395
 70
   192
  0
VERTEX
  5
404
  8
0
 10
47.02799987792969
 20
-613.1309814453125
 30
-4.859000205993652
 70
   192
  0
VERTEX
  5
405
  8
0
 10
45.90399932861328
 20
-611.7869873046875
 30
-4.456999778747559
 70
   192
  0
VERTEX
  5
406
  8
0
 10
45.90399932861328
 20
-610.927001953125
 30
1.526999950408936
 70
   192
  0
VERTEX
  5
407
  8
0
 10
45.90399932861328
 20
-612.43701171875
 30
-5.206999778747559
 70
   192
  0
VERTEX
  5
408
  8
0
 10
47.02799987792969
 20
-621.5460205078125
 30
-9.717000007629395
 70
   192
  0
VERTEX
  5
409
  8
0
 10
45.90399932861328
 20
-621.5460205078125
 30
-10.72900009155273
 70
   192
  0
VERTEX
  5
40A
  8
0
 10
45.90399932861328
 20
-615.7459716796875
 30
-9.026000022888184
 70
   192
  0
VERTEX
  5
40B
  8
0
 10
47.02799987792969
 20
-629.9609985351562
 30
-4.859000205993652
 70
   192
  0
VERTEX
  5
40C
  8
0
 10
45.90399932861328
 20
-627.3460083007812
 30
-9.026000022888184
 70
   192
  0
VERTEX
  5
40D
  8
0
 10
45.90399932861328
 20
-630.655029296875
 30
-5.206999778747559
 70
   192
  0
VERTEX
  5
40E
  8
0
 10
47.02799987792969
 20
-629.9609985351562
 30
4.857999801635742
 70
   192
  0
VERTEX
  5
40F
  8
0
 10
45.90399932861328
 20
-632.166015625
 30
1.526999950408936
 70
   192
  0
VERTEX
  5
410
  8
0
 10
45.90399932861328
 20
-631.3049926757812
 30
-4.456999778747559
 70
   192
  0
VERTEX
  5
411
  8
0
 10
45.90399932861328
 20
-630.4860229492188
 30
5.203999996185303
 70
   192
  0
VERTEX
  5
412
  8
0
 10
45.90399932861328
 20
-624.5689697265625
 30
10.29399967193604
 70
   192
  0
VERTEX
  5
413
  8
0
 10
45.90399932861328
 20
-629.6539916992188
 30
7.026000022888184
 70
   192
  0
VERTEX
  5
414
  8
0
 10
45.90399932861328
 20
-621.5460205078125
 30
10.72900009155273
 70
   192
  0
VERTEX
  5
415
  8
0
 62
     9
 10
0.0
 20
0.0
 30
0.0
 70
   128
 71
     3
 72
     2
 73
     1
  0
VERTEX
  5
416
  8
0
 62
     9
 10
0.0
 20
0.0
 30
0.0
 70
   128
 71
     2
 72
     4
 73
     1
  0
VERTEX
  5
417
  8
0
 62
     9
 10
0.0
 20
0.0
 30
0.0
 70
   128
 71
     1
 72
     5
 73
     3
  0
VERTEX
  5
418
  8
0
 62
     9
 10
0.0
 20
0.0
 30
0.0
 70
   128
 71
     8
 72
     7
 73
     6
  0
VERTEX
  5
419
  8
0
 62
     9
 10
0.0
 20
0.0
 30
0.0
 70
   128
 71
     7
 72
     9
 73
     6
  0
VERTEX
  5
41A
  8
0
 62
     9
 10
0.0
 20
0.0
 30
0.0
 70
   128
 71
     6
 72
     1
 73
     8
  0
VERTEX
  5
41B
  8
0
 62
     9
 10
0.0
 20
0.0
 30
0.0
 70
   128
 71
    12
 72
    11
 73
    10
  0
VERTEX
  5
41C
  8
0
 62
     9
 10
0.0
 20
0.0
 30
0.0
 70
   128
 71
    10
 72
     6
 73
    12
  0
VERTEX
  5
41D
  8
0
 62
     9
 10
0.0
 20
0.0
 30
0.0
 70
   128
 71
    14
 72
    13
 73
    10
  0
VERTEX
  5
41E
  8
0
 62
     9
 10
0.0
 20
0.0
 30
0.0
 70
   128
 71
    14
 72
    15
 73
    13
  0
VERTEX
  5
41F
  8
0
 62
     9
 10
0.0
 20
0.0
 30
0.0
 70
   128
 71
    17
 72
    16
 73
    13
  0
VERTEX
  5
420
  8
0
 62
     9
 10
0.0
 20
0.0
 30
0.0
 70
   128
 71
    13
 72
    18
 73
    17
  0
VERTEX
  5
421
  8
0
 62
     9
 10
0.0
 20
0.0
 30
0.0
 70
   128
 71
    17
 72
    19
 73
    16
  0
VERTEX
  5
422
  8
0
 62
     9
 10
0.0
 20
0.0
 30
0.0
 70
   128
 71
    20
 72
     5
 73
    16
  0
VERTEX
  5
423
  8
0
 62
     9
 10
0.0
 20
0.0
 30
0.0
 70
   128
 71
    16
 72
    21
 73
    20
  0
VERTEX
  5
424
  8
0
 62
     9
 10
0.0
 20
0.0
 30
0.0
 70
   128
 71
    20
 72
    22
 73
     5
  0
VERTEX
  5
425
  8
0
 62
     9
 10
0.0
 20
0.0
 30
0.0
 70
   128
 71
    16
 72
    19
 73
    21
  0
VERTEX
  5
426
  8
0
 62
     9
 10
0.0
 20
0.0
 30
0.0
 70
   128
 71
    13
 72
    15
 73
    18
  0
VERTEX
  5
427
  8
0
 62
     9
 10
0.0
 20
0.0
 30
0.0
 70
   128
 71
    10
 72
    11
 73
    14
  0
VERTEX
  5
428
  8
0
 62
     9
 10
0.0
 20
0.0
 30
0.0
 70
   128
 71
     6
 72
     9
 73
    12
  0
VERTEX
  5
429
  8
0
 62
     9
 10
0.0
 20
0.0
 30
0.0
 70
   128
 71
     1
 72
     4
 73
     8
  0
VERTEX
  5
42A
  8
0
 62
     9
 10
0.0
 20
0.0
 30
0.0
 70
   128
 71
     5
 72
    22
 73
     3
  0
SEQEND
  5
42B
  8
0
 62
     9
  0
ENDBLK
  5
42E
  8
0
  0
BLOCK
  8
0
  2
E3_NODE_16_
 70
     0
 10
0.0
 20
0.0
 30
0.0
  3
E3_NODE_16_
  1

  0
POLYLINE
  5
430
  8
0
 62
     9
 66
     1
 10
0.0
 20
0.0
 30
0.0
 70
    64
 71
    28
 72
    45
  0
VERTEX
  5
431
  8
0
 10
67.38999938964844
 20
-621.5460205078125
 30
0.0
 70
   192
  0
VERTEX
  5
432
  8
0
 10
64.03299713134766
 20
-616.0670166015625
 30
6.528999805450439
 70
   192
  0
VERTEX
  5
433
  8
0
 10
64.03299713134766
 20
-621.5460205078125
 30
8.52299976348877
 70
   192
  0
VERTEX
  5
434
  8
0
 10
64.03299713134766
 20
-613.1519775390625
 30
1.480000019073486
 70
   192
  0
VERTEX
  5
435
  8
0
 10
64.03299713134766
 20
-614.1649780273438
 30
-4.26200008392334
 70
   192
  0
VERTEX
  5
436
  8
0
 10
64.03299713134766
 20
-618.6309814453125
 30
-8.008999824523926
 70
   192
  0
VERTEX
  5
437
  8
0
 10
64.03299713134766
 20
-624.4609985351562
 30
-8.008999824523926
 70
   192
  0
VERTEX
  5
438
  8
0
 10
64.03299713134766
 20
-628.927001953125
 30
-4.26200008392334
 70
   192
  0
VERTEX
  5
439
  8
0
 10
64.03299713134766
 20
-629.9400024414062
 30
1.480000019073486
 70
   192
  0
VERTEX
  5
43A
  8
0
 10
64.03299713134766
 20
-627.0250244140625
 30
6.528999805450439
 70
   192
  0
VERTEX
  5
43B
  8
0
 10
55.76599884033203
 20
-613.531005859375
 30
9.552000045776367
 70
   192
  0
VERTEX
  5
43C
  8
0
 10
55.76599884033203
 20
-621.5460205078125
 30
12.4689998626709
 70
   192
  0
VERTEX
  5
43D
  8
0
 10
55.76599884033203
 20
-609.2670288085938
 30
2.164999961853027
 70
   192
  0
VERTEX
  5
43E
  8
0
 10
55.76599884033203
 20
-610.7479858398438
 30
-6.234000205993652
 70
   192
  0
VERTEX
  5
43F
  8
0
 10
55.76599884033203
 20
-617.281005859375
 30
-11.71700000762939
 70
   192
  0
VERTEX
  5
440
  8
0
 10
55.76599884033203
 20
-625.8109741210938
 30
-11.71700000762939
 70
   192
  0
VERTEX
  5
441
  8
0
 10
55.76599884033203
 20
-632.343994140625
 30
-6.234000205993652
 70
   192
  0
VERTEX
  5
442
  8
0
 10
55.76599884033203
 20
-633.8250122070312
 30
2.164999961853027
 70
   192
  0
VERTEX
  5
443
  8
0
 10
55.76599884033203
 20
-629.5609741210938
 30
9.552000045776367
 70
   192
  0
VERTEX
  5
444
  8
0
 10
47.02799987792969
 20
-615.2999877929688
 30
7.443999767303467
 70
   192
  0
VERTEX
  5
445
  8
0
 10
47.02799987792969
 20
-621.5460205078125
 30
9.717000007629395
 70
   192
  0
VERTEX
  5
446
  8
0
 10
47.02799987792969
 20
-611.9769897460938
 30
1.687000036239624
 70
   192
  0
VERTEX
  5
447
  8
0
 10
47.02799987792969
 20
-613.1309814453125
 30
-4.859000205993652
 70
   192
  0
VERTEX
  5
448
  8
0
 10
47.02799987792969
 20
-618.2230224609375
 30
-9.130999565124512
 70
   192
  0
VERTEX
  5
449
  8
0
 10
47.02799987792969
 20
-624.8690185546875
 30
-9.130999565124512
 70
   192
  0
VERTEX
  5
44A
  8
0
 10
47.02799987792969
 20
-629.9609985351562
 30
-4.859000205993652
 70
   192
  0
VERTEX
  5
44B
  8
0
 10
47.02799987792969
 20
-631.114990234375
 30
1.687000036239624
 70
   192
  0
VERTEX
  5
44C
  8
0
 10
47.02799987792969
 20
-627.7919921875
 30
7.443999767303467
 70
   192
  0
VERTEX
  5
44D
  8
0
 62
     9
 10
0.0
 20
0.0
 30
0.0
 70
   128
 71
     3
 72
     2
 73
     1
  0
VERTEX
  5
44E
  8
0
 62
     9
 10
0.0
 20
0.0
 30
0.0
 70
   128
 71
     2
 72
     4
 73
     1
  0
VERTEX
  5
44F
  8
0
 62
     9
 10
0.0
 20
0.0
 30
0.0
 70
   128
 71
     4
 72
     5
 73
     1
  0
VERTEX
  5
450
  8
0
 62
     9
 10
0.0
 20
0.0
 30
0.0
 70
   128
 71
     5
 72
     6
 73
     1
  0
VERTEX
  5
451
  8
0
 62
     9
 10
0.0
 20
0.0
 30
0.0
 70
   128
 71
     6
 72
     7
 73
     1
  0
VERTEX
  5
452
  8
0
 62
     9
 10
0.0
 20
0.0
 30
0.0
 70
   128
 71
     7
 72
     8
 73
     1
  0
VERTEX
  5
453
  8
0
 62
     9
 10
0.0
 20
0.0
 30
0.0
 70
   128
 71
     8
 72
     9
 73
     1
  0
VERTEX
  5
454
  8
0
 62
     9
 10
0.0
 20
0.0
 30
0.0
 70
   128
 71
     9
 72
    10
 73
     1
  0
VERTEX
  5
455
  8
0
 62
     9
 10
0.0
 20
0.0
 30
0.0
 70
   128
 71
    10
 72
     3
 73
     1
  0
VERTEX
  5
456
  8
0
 62
     9
 10
0.0
 20
0.0
 30
0.0
 70
   128
 71
    11
 72
     2
 73
     3
  0
VERTEX
  5
457
  8
0
 62
     9
 10
0.0
 20
0.0
 30
0.0
 70
   128
 71
    12
 72
    11
 73
     3
  0
VERTEX
  5
458
  8
0
 62
     9
 10
0.0
 20
0.0
 30
0.0
 70
   128
 71
    13
 72
     4
 73
     2
  0
VERTEX
  5
459
  8
0
 62
     9
 10
0.0
 20
0.0
 30
0.0
 70
   128
 71
    11
 72
    13
 73
     2
  0
VERTEX
  5
45A
  8
0
 62
     9
 10
0.0
 20
0.0
 30
0.0
 70
   128
 71
    14
 72
     5
 73
     4
  0
VERTEX
  5
45B
  8
0
 62
     9
 10
0.0
 20
0.0
 30
0.0
 70
   128
 71
    13
 72
    14
 73
     4
  0
VERTEX
  5
45C
  8
0
 62
     9
 10
0.0
 20
0.0
 30
0.0
 70
   128
 71
    15
 72
     6
 73
     5
  0
VERTEX
  5
45D
  8
0
 62
     9
 10
0.0
 20
0.0
 30
0.0
 70
   128
 71
    14
 72
    15
 73
     5
  0
VERTEX
  5
45E
  8
0
 62
     9
 10
0.0
 20
0.0
 30
0.0
 70
   128
 71
    16
 72
     7
 73
     6
  0
VERTEX
  5
45F
  8
0
 62
     9
 10
0.0
 20
0.0
 30
0.0
 70
   128
 71
    15
 72
    16
 73
     6
  0
VERTEX
  5
460
  8
0
 62
     9
 10
0.0
 20
0.0
 30
0.0
 70
   128
 71
    17
 72
     8
 73
     7
  0
VERTEX
  5
461
  8
0
 62
     9
 10
0.0
 20
0.0
 30
0.0
 70
   128
 71
    16
 72
    17
 73
     7
  0
VERTEX
  5
462
  8
0
 62
     9
 10
0.0
 20
0.0
 30
0.0
 70
   128
 71
    18
 72
     9
 73
     8
  0
VERTEX
  5
463
  8
0
 62
     9
 10
0.0
 20
0.0
 30
0.0
 70
   128
 71
    17
 72
    18
 73
     8
  0
VERTEX
  5
464
  8
0
 62
     9
 10
0.0
 20
0.0
 30
0.0
 70
   128
 71
    19
 72
    10
 73
     9
  0
VERTEX
  5
465
  8
0
 62
     9
 10
0.0
 20
0.0
 30
0.0
 70
   128
 71
    18
 72
    19
 73
     9
  0
VERTEX
  5
466
  8
0
 62
     9
 10
0.0
 20
0.0
 30
0.0
 70
   128
 71
    12
 72
     3
 73
    10
  0
VERTEX
  5
467
  8
0
 62
     9
 10
0.0
 20
0.0
 30
0.0
 70
   128
 71
    19
 72
    12
 73
    10
  0
VERTEX
  5
468
  8
0
 62
     9
 10
0.0
 20
0.0
 30
0.0
 70
   128
 71
    20
 72
    11
 73
    12
  0
VERTEX
  5
469
  8
0
 62
     9
 10
0.0
 20
0.0
 30
0.0
 70
   128
 71
    21
 72
    20
 73
    12
  0
VERTEX
  5
46A
  8
0
 62
     9
 10
0.0
 20
0.0
 30
0.0
 70
   128
 71
    22
 72
    13
 73
    11
  0
VERTEX
  5
46B
  8
0
 62
     9
 10
0.0
 20
0.0
 30
0.0
 70
   128
 71
    20
 72
    22
 73
    11
  0
VERTEX
  5
46C
  8
0
 62
     9
 10
0.0
 20
0.0
 30
0.0
 70
   128
 71
    23
 72
    14
 73
    13
  0
VERTEX
  5
46D
  8
0
 62
     9
 10
0.0
 20
0.0
 30
0.0
 70
   128
 71
    22
 72
    23
 73
    13
  0
VERTEX
  5
46E
  8
0
 62
     9
 10
0.0
 20
0.0
 30
0.0
 70
   128
 71
    24
 72
    15
 73
    14
  0
VERTEX
  5
46F
  8
0
 62
     9
 10
0.0
 20
0.0
 30
0.0
 70
   128
 71
    23
 72
    24
 73
    14
  0
VERTEX
  5
470
  8
0
 62
     9
 10
0.0
 20
0.0
 30
0.0
 70
   128
 71
    25
 72
    16
 73
    15
  0
VERTEX
  5
471
  8
0
 62
     9
 10
0.0
 20
0.0
 30
0.0
 70
   128
 71
    24
 72
    25
 73
    15
  0
VERTEX
  5
472
  8
0
 62
     9
 10
0.0
 20
0.0
 30
0.0
 70
   128
 71
    26
 72
    17
 73
    16
  0
VERTEX
  5
473
  8
0
 62
     9
 10
0.0
 20
0.0
 30
0.0
 70
   128
 71
    25
 72
    26
 73
    16
  0
VERTEX
  5
474
  8
0
 62
     9
 10
0.0
 20
0.0
 30
0.0
 70
   128
 71
    27
 72
    18
 73
    17
  0
VERTEX
  5
475
  8
0
 62
     9
 10
0.0
 20
0.0
 30
0.0
 70
   128
 71
    26
 72
    27
 73
    17
  0
VERTEX
  5
476
  8
0
 62
     9
 10
0.0
 20
0.0
 30
0.0
 70
   128
 71
    28
 72
    19
 73
    18
  0
VERTEX
  5
477
  8
0
 62
     9
 10
0.0
 20
0.0
 30
0.0
 70
   128
 71
    27
 72
    28
 73
    18
  0
VERTEX
  5
478
  8
0
 62
     9
 10
0.0
 20
0.0
 30
0.0
 70
   128
 71
    21
 72
    12
 73
    19
  0
VERTEX
  5
479
  8
0
 62
     9
 10
0.0
 20
0.0
 30
0.0
 70
   128
 71
    28
 72
    21
 73
    19
  0
SEQEND
  5
47A
  8
0
 62
     9
  0
ENDBLK
  5
47D
  8
0
  0
ENDSEC
  0
SECTION
  2
ENTITIES
  0
INSERT
  5
58
  8
LAYER_1
  2
E3_NODE
 10
0.0
 20
0.0
 30
0.0
  0
INSERT
  5
F7
  8
LAYER_1
  2
E3_NODE_1_
 10
0.0
 20
0.0
 30
0.0
  0
INSERT
  5
135
  8
LAYER_1
  2
E3_NODE_2_
 10
0.0
 20
0.0
 30
0.0
  0
INSERT
  5
184
  8
LAYER_1
  2
E3_NODE_3_
 10
0.0
 20
0.0
 30
0.0
  0
INSERT
  5
1DE
  8
LAYER_1
  2
E3_NODE_4_
 10
0.0
 20
0.0
 30
0.0
  0
INSERT
  5
214
  8
LAYER_1
  2
E3_NODE_5_
 10
0.0
 20
0.0
 30
0.0
  0
INSERT
  5
24A
  8
LAYER_1
  2
E3_NODE_6_
 10
0.0
 20
0.0
 30
0.0
  0
INSERT
  5
266
  8
LAYER_1
  2
E3_NODE_7_
 10
0.0
 20
0.0
 30
0.0
  0
INSERT
  5
2C0
  8
LAYER_1
  2
E3_NODE_8_
 10
0.0
 20
0.0
 30
0.0
  0
INSERT
  5
2F6
  8
LAYER_1
  2
E3_NODE_9_
 10
0.0
 20
0.0
 30
0.0
  0
INSERT
  5
32C
  8
LAYER_1
  2
E3_NODE_10_
 10
0.0
 20
0.0
 30
0.0
  0
INSERT
  5
348
  8
LAYER_1
  2
E3_NODE_11_
 10
0.0
 20
0.0
 30
0.0
  0
INSERT
  5
362
  8
LAYER_1
  2
E3_NODE_12_
 10
0.0
 20
0.0
 30
0.0
  0
INSERT
  5
37C
  8
LAYER_1
  2
E3_NODE_13_
 10
0.0
 20
0.0
 30
0.0
  0
INSERT
  5
3FA
  8
LAYER_1
  2
E3_NODE_14_
 10
0.0
 20
0.0
 30
0.0
  0
INSERT
  5
42C
  8
LAYER_1
  2
E3_NODE_15_
 10
0.0
 20
0.0
 30
0.0
  0
INSERT
  5
47B
  8
LAYER_1
  2
E3_NODE_16_
 10
0.0
 20
0.0
 30
0.0
  0
ENDSEC
  0
EOF
