  0
SECTION
  2
HEADER
  9
$ACADVER
  1
AC1009
  9
$DWGCODEPAGE
  3
ansi_1252
  9
$INSBASE
 10
0.0
 20
0.0
 30
0.0
  9
$EXTMIN
 10
1.000000000000000E+20
 20
1.000000000000000E+20
 30
1.000000000000000E+20
  9
$EXTMAX
 10
-1.000000000000000E+20
 20
-1.000000000000000E+20
 30
-1.000000000000000E+20
  9
$LIMMIN
 10
0.0
 20
0.0
  9
$LIMMAX
 10
12.0
 20
9.0
  9
$ORTHOMODE
 70
     0
  9
$REGENMODE
 70
     1
  9
$FILLMODE
 70
     1
  9
$QTEXTMODE
 70
     0
  9
$MIRRTEXT
 70
     1
  9
$DRAGMODE
 70
     2
  9
$LTSCALE
 40
1.0
  9
$OSMODE
 70
    37
  9
$ATTMODE
 70
     1
  9
$TEXTSIZE
 40
0.2
  9
$TRACEWID
 40
0.05
  9
$TEXTSTYLE
  7
STANDARD
  9
$CLAYER
  8
0
  9
$CELTYPE
  6
BYLAYER
  9
$CECOLOR
 62
   256
  9
$DIMSCALE
 40
1.0
  9
$DIMASZ
 40
0.18
  9
$DIMEXO
 40
0.0625
  9
$DIMDLI
 40
0.38
  9
$DIMRND
 40
0.0
  9
$DIMDLE
 40
0.0
  9
$DIMEXE
 40
0.18
  9
$DIMTP
 40
0.0
  9
$DIMTM
 40
0.0
  9
$DIMTXT
 40
0.18
  9
$DIMCEN
 40
0.09
  9
$DIMTSZ
 40
0.0
  9
$DIMTOL
 70
     0
  9
$DIMLIM
 70
     0
  9
$DIMTIH
 70
     1
  9
$DIMTOH
 70
     1
  9
$DIMSE1
 70
     0
  9
$DIMSE2
 70
     0
  9
$DIMTAD
 70
     0
  9
$DIMZIN
 70
     0
  9
$DIMBLK
  1

  9
$DIMASO
 70
     1
  9
$DIMSHO
 70
     1
  9
$DIMPOST
  1

  9
$DIMAPOST
  1

  9
$DIMALT
 70
     0
  9
$DIMALTD
 70
     2
  9
$DIMALTF
 40
25.4
  9
$DIMLFAC
 40
1.0
  9
$DIMTOFL
 70
     0
  9
$DIMTVP
 40
0.0
  9
$DIMTIX
 70
     0
  9
$DIMSOXD
 70
     0
  9
$DIMSAH
 70
     0
  9
$DIMBLK1
  1

  9
$DIMBLK2
  1

  9
$DIMSTYLE
  2
STANDARD
  9
$DIMCLRD
 70
     0
  9
$DIMCLRE
 70
     0
  9
$DIMCLRT
 70
     0
  9
$DIMTFAC
 40
1.0
  9
$DIMGAP
 40
0.09
  9
$LUNITS
 70
     2
  9
$LUPREC
 70
     4
  9
$SKETCHINC
 40
0.1
  9
$FILLETRAD
 40
0.5
  9
$AUNITS
 70
     0
  9
$AUPREC
 70
     0
  9
$MENU
  1
.
  9
$ELEVATION
 40
0.0
  9
$PELEVATION
 40
0.0
  9
$THICKNESS
 40
0.0
  9
$LIMCHECK
 70
     0
  9
$CHAMFERA
 40
0.5
  9
$CHAMFERB
 40
0.5
  9
$SKPOLY
 70
     0
  9
$TDCREATE
 40
2458130.501996065
  9
$TDUPDATE
 40
2458130.501996065
  9
$TDINDWG
 40
0.0000000116
  9
$TDUSRTIMER
 40
0.0000000116
  9
$USRTIMER
 70
     1
  9
$ANGBASE
 50
0.0
  9
$ANGDIR
 70
     0
  9
$PDMODE
 70
     0
  9
$PDSIZE
 40
0.0
  9
$PLINEWID
 40
0.0
  9
$COORDS
 70
     1
  9
$SPLFRAME
 70
     0
  9
$SPLINETYPE
 70
     6
  9
$SPLINESEGS
 70
     8
  9
$ATTDIA
 70
     0
  9
$ATTREQ
 70
     1
  9
$HANDLING
 70
     1
  9
$HANDSEED
  5
9AE
  9
$SURFTAB1
 70
     6
  9
$SURFTAB2
 70
     6
  9
$SURFTYPE
 70
     6
  9
$SURFU
 70
     6
  9
$SURFV
 70
     6
  9
$UCSNAME
  2

  9
$UCSORG
 10
0.0
 20
0.0
 30
0.0
  9
$UCSXDIR
 10
1.0
 20
0.0
 30
0.0
  9
$UCSYDIR
 10
0.0
 20
1.0
 30
0.0
  9
$PUCSNAME
  2

  9
$PUCSORG
 10
0.0
 20
0.0
 30
0.0
  9
$PUCSXDIR
 10
1.0
 20
0.0
 30
0.0
  9
$PUCSYDIR
 10
0.0
 20
1.0
 30
0.0
  9
$USERI1
 70
     0
  9
$USERI2
 70
     0
  9
$USERI3
 70
     0
  9
$USERI4
 70
     0
  9
$USERI5
 70
     0
  9
$USERR1
 40
0.0
  9
$USERR2
 40
0.0
  9
$USERR3
 40
0.0
  9
$USERR4
 40
0.0
  9
$USERR5
 40
0.0
  9
$WORLDVIEW
 70
     1
  9
$SHADEDGE
 70
     3
  9
$SHADEDIF
 70
    70
  9
$TILEMODE
 70
     1
  9
$MAXACTVP
 70
    64
  9
$PLIMCHECK
 70
     0
  9
$PEXTMIN
 10
1.000000000000000E+20
 20
1.000000000000000E+20
 30
1.000000000000000E+20
  9
$PEXTMAX
 10
-1.000000000000000E+20
 20
-1.000000000000000E+20
 30
-1.000000000000000E+20
  9
$PLIMMIN
 10
0.0
 20
0.0
  9
$PLIMMAX
 10
12.0
 20
9.0
  9
$UNITMODE
 70
     0
  9
$VISRETAIN
 70
     1
  9
$PLINEGEN
 70
     0
  9
$PSLTSCALE
 70
     1
  0
ENDSEC
  0
SECTION
  2
TABLES
  0
TABLE
  2
VPORT
 70
     1
  0
VPORT
  2
*ACTIVE
 70
     0
 10
0.0
 20
0.0
 11
1.0
 21
1.0
 12
0.0
 22
0.0
 13
0.0
 23
0.0
 14
0.5
 24
0.5
 15
0.5
 25
0.5
 16
597.2352294921875
 26
-597.2352905273438
 36
598.0230712890625
 17
794.54638671875
 27
13.677734375
 37
-69.17071533203125
 40
426.0785581252659
 41
1.972972972850329
 42
50.0
 43
0.0
 44
0.0
 50
0.0
 51
0.0
 71
     0
 72
   100
 73
     1
 74
     3
 75
     0
 76
     0
 77
     0
 78
     0
  0
ENDTAB
  0
TABLE
  2
LTYPE
 70
     1
  0
LTYPE
  2
CONTINUOUS
 70
     0
  3
Solid line
 72
    65
 73
     0
 40
0.0
  0
ENDTAB
  0
TABLE
  2
LAYER
 70
     2
  0
LAYER
  2
0
 70
     0
 62
     7
  6
CONTINUOUS
  0
LAYER
  2
LAYER_1
 70
     0
 62
     7
  6
CONTINUOUS
  0
ENDTAB
  0
TABLE
  2
STYLE
 70
     1
  0
STYLE
  2
STANDARD
 70
     0
 40
0.0
 41
1.0
 50
0.0
 71
     0
 42
0.2
  3
txt
  4

  0
ENDTAB
  0
TABLE
  2
VIEW
 70
     0
  0
ENDTAB
  0
TABLE
  2
UCS
 70
     0
  0
ENDTAB
  0
TABLE
  2
APPID
 70
     1
  0
APPID
  2
ACAD
 70
     0
  0
ENDTAB
  0
TABLE
  2
DIMSTYLE
 70
     1
  0
DIMSTYLE
  2
STANDARD
 70
     0
  3

  4

  5

  6

  7

 40
1.0
 41
0.18
 42
0.0625
 43
0.38
 44
0.18
 45
0.0
 46
0.0
 47
0.0
 48
0.0
140
0.18
141
0.09
142
0.0
143
25.4
144
1.0
145
0.0
146
1.0
147
0.09
 71
     0
 72
     0
 73
     1
 74
     1
 75
     0
 76
     0
 77
     0
 78
     0
170
     0
171
     2
172
     0
173
     0
174
     0
175
     0
176
     0
177
     0
178
     0
  0
ENDTAB
  0
ENDSEC
  0
SECTION
  2
BLOCKS
  0
BLOCK
  8
0
  2
$MODEL_SPACE
 70
     0
 10
0.0
 20
0.0
 30
0.0
  3
$MODEL_SPACE
  1

  0
ENDBLK
  5
21
  8
0
  0
BLOCK
 67
     1
  8
0
  2
$PAPER_SPACE
 70
     0
 10
0.0
 20
0.0
 30
0.0
  3
$PAPER_SPACE
  1

  0
ENDBLK
  5
1D
 67
     1
  8
0
  0
BLOCK
  8
0
  2
12550-11
 70
     0
 10
0.0
 20
0.0
 30
0.0
  3
12550-11
  1

  0
POLYLINE
  5
3C
  8
0
 66
     1
 10
0.0
 20
0.0
 30
0.0
 70
    64
 71
   104
 72
   200
  0
VERTEX
  5
3D
  8
0
 10
1061.996337890625
 20
18.90938758850098
 30
-90.60231018066406
 70
   192
  0
VERTEX
  5
3E
  8
0
 10
1061.996337890625
 20
18.90937995910645
 30
-92.43051147460938
 70
   192
  0
VERTEX
  5
3F
  8
0
 10
1057.496337890625
 20
18.90937805175781
 30
-92.53910064697266
 70
   192
  0
VERTEX
  5
40
  8
0
 10
1057.496337890625
 20
18.23035430908203
 30
-94.286376953125
 70
   192
  0
VERTEX
  5
41
  8
0
 10
1061.996337890625
 20
18.3123836517334
 30
-94.17337799072266
 70
   192
  0
VERTEX
  5
42
  8
0
 10
1061.996337890625
 20
17.1184024810791
 30
-95.61373901367188
 70
   192
  0
VERTEX
  5
43
  8
0
 10
1057.496337890625
 20
17.08194351196289
 30
-95.66395568847656
 70
   192
  0
VERTEX
  5
44
  8
0
 10
1061.996337890625
 20
15.56440830230713
 30
-96.53372955322266
 70
   192
  0
VERTEX
  5
45
  8
0
 10
1057.496337890625
 20
15.56440830230713
 30
-96.53372955322266
 70
   192
  0
VERTEX
  5
46
  8
0
 10
1057.496337890625
 20
13.6777458190918
 30
-96.89568328857422
 70
   192
  0
VERTEX
  5
47
  8
0
 10
1061.996337890625
 20
13.6777458190918
 30
-96.89568328857422
 70
   192
  0
VERTEX
  5
48
  8
0
 10
1057.496337890625
 20
18.90938568115234
 30
-90.71090698242188
 70
   192
  0
VERTEX
  5
49
  8
0
 10
1057.496337890625
 20
18.31240272521973
 30
-88.96802520751953
 70
   192
  0
VERTEX
  5
4A
  8
0
 10
1061.996337890625
 20
18.23037528991699
 30
-88.85501861572266
 70
   192
  0
VERTEX
  5
4B
  8
0
 10
1057.496337890625
 20
17.11842727661133
 30
-87.52764892578125
 70
   192
  0
VERTEX
  5
4C
  8
0
 10
1061.996337890625
 20
17.08197021484375
 30
-87.47742462158203
 70
   192
  0
VERTEX
  5
4D
  8
0
 10
1061.996337890625
 20
15.56442642211914
 30
-86.60765075683594
 70
   192
  0
VERTEX
  5
4E
  8
0
 10
1057.496337890625
 20
15.56442642211914
 30
-86.60765075683594
 70
   192
  0
VERTEX
  5
4F
  8
0
 10
1061.996337890625
 20
13.6777458190918
 30
-86.24568176269531
 70
   192
  0
VERTEX
  5
50
  8
0
 10
1057.496337890625
 20
13.6777458190918
 30
-86.24568176269531
 70
   192
  0
VERTEX
  5
51
  8
0
 10
1063.996337890625
 20
19.58845329284668
 30
-90.57075500488281
 70
   192
  0
VERTEX
  5
52
  8
0
 10
1063.996337890625
 20
19.56462287902832
 30
-92.65986633300781
 70
   192
  0
VERTEX
  5
53
  8
0
 10
1061.996337890625
 20
19.56462287902832
 30
-92.65986633300781
 70
   192
  0
VERTEX
  5
54
  8
0
 10
1061.996337890625
 20
18.87407684326172
 30
-94.57048797607422
 70
   192
  0
VERTEX
  5
55
  8
0
 10
1063.996337890625
 20
18.87407684326172
 30
-94.57048797607422
 70
   192
  0
VERTEX
  5
56
  8
0
 10
1063.996337890625
 20
17.49894332885742
 30
-96.18962097167969
 70
   192
  0
VERTEX
  5
57
  8
0
 10
1061.996337890625
 20
17.49894332885742
 30
-96.18962097167969
 70
   192
  0
VERTEX
  5
58
  8
0
 10
1063.996337890625
 20
15.76683235168457
 30
-97.18968200683594
 70
   192
  0
VERTEX
  5
59
  8
0
 10
1061.996337890625
 20
15.76683235168457
 30
-97.18968200683594
 70
   192
  0
VERTEX
  5
5A
  8
0
 10
1061.996337890625
 20
13.6777458190918
 30
-97.5706787109375
 70
   192
  0
VERTEX
  5
5B
  8
0
 10
1063.996337890625
 20
13.6777458190918
 30
-97.5706787109375
 70
   192
  0
VERTEX
  5
5C
  8
0
 10
1061.996337890625
 20
19.58845329284668
 30
-90.57075500488281
 70
   192
  0
VERTEX
  5
5D
  8
0
 10
1061.996337890625
 20
18.87409782409668
 30
-88.57091522216797
 70
   192
  0
VERTEX
  5
5E
  8
0
 10
1063.996337890625
 20
18.87409782409668
 30
-88.57091522216797
 70
   192
  0
VERTEX
  5
5F
  8
0
 10
1061.996337890625
 20
17.56449890136719
 30
-87.01729583740234
 70
   192
  0
VERTEX
  5
60
  8
0
 10
1063.996337890625
 20
17.56449890136719
 30
-87.01729583740234
 70
   192
  0
VERTEX
  5
61
  8
0
 10
1063.996337890625
 20
15.76686477661133
 30
-85.95169830322266
 70
   192
  0
VERTEX
  5
62
  8
0
 10
1061.996337890625
 20
15.76686477661133
 30
-85.95169830322266
 70
   192
  0
VERTEX
  5
63
  8
0
 10
1063.996337890625
 20
13.6777458190918
 30
-85.5706787109375
 70
   192
  0
VERTEX
  5
64
  8
0
 10
1061.996337890625
 20
13.6777458190918
 30
-85.5706787109375
 70
   192
  0
VERTEX
  5
65
  8
0
 10
1063.996337890625
 20
9.788309097290039
 30
-86.9865493774414
 70
   192
  0
VERTEX
  5
66
  8
0
 10
1063.996337890625
 20
8.47947883605957
 30
-88.59969329833984
 70
   192
  0
VERTEX
  5
67
  8
0
 10
1063.996337890625
 20
7.788299560546875
 30
-90.54723358154297
 70
   192
  0
VERTEX
  5
68
  8
0
 10
1063.996337890625
 20
11.59356021881104
 30
-85.91132354736328
 70
   192
  0
VERTEX
  5
69
  8
0
 10
1063.996337890625
 20
7.780155181884766
 30
-92.63169860839844
 70
   192
  0
VERTEX
  5
6A
  8
0
 10
1063.996337890625
 20
9.891092300415039
 30
-96.1671371459961
 70
   192
  0
VERTEX
  5
6B
  8
0
 10
1063.996337890625
 20
8.534892082214355
 30
-94.59207153320312
 70
   192
  0
VERTEX
  5
6C
  8
0
 10
1063.996337890625
 20
11.63392925262451
 30
-97.18157196044922
 70
   192
  0
VERTEX
  5
6D
  8
0
 10
1061.996337890625
 20
11.58862686157227
 30
-97.18966674804688
 70
   192
  0
VERTEX
  5
6E
  8
0
 10
1061.996337890625
 20
7.790869235992432
 30
-90.48149871826172
 70
   192
  0
VERTEX
  5
6F
  8
0
 10
1061.996337890625
 20
7.767037868499756
 30
-92.57061004638672
 70
   192
  0
VERTEX
  5
70
  8
0
 10
1061.996337890625
 20
8.481393814086914
 30
-94.57044219970703
 70
   192
  0
VERTEX
  5
71
  8
0
 10
1061.996337890625
 20
9.790992736816406
 30
-96.12406921386719
 70
   192
  0
VERTEX
  5
72
  8
0
 10
1061.996337890625
 20
9.856549263000488
 30
-86.95174407958984
 70
   192
  0
VERTEX
  5
73
  8
0
 10
1061.996337890625
 20
8.481414794921875
 30
-88.57087707519531
 70
   192
  0
VERTEX
  5
74
  8
0
 10
1061.996337890625
 20
11.58865928649902
 30
-85.9516830444336
 70
   192
  0
VERTEX
  5
75
  8
0
 10
1061.996337890625
 20
8.450861930847168
 30
-90.66236877441406
 70
   192
  0
VERTEX
  5
76
  8
0
 10
1061.996337890625
 20
10.22587013244629
 30
-87.50226593017578
 70
   192
  0
VERTEX
  5
77
  8
0
 10
1061.996337890625
 20
11.82803153991699
 30
-86.5479965209961
 70
   192
  0
VERTEX
  5
78
  8
0
 10
1061.996337890625
 20
9.064284324645996
 30
-88.93392944335938
 70
   192
  0
VERTEX
  5
79
  8
0
 10
1061.996337890625
 20
10.31709098815918
 30
-95.65003967285156
 70
   192
  0
VERTEX
  5
7A
  8
0
 10
1061.996337890625
 20
9.113463401794434
 30
-94.25216674804688
 70
   192
  0
VERTEX
  5
7B
  8
0
 10
1061.996337890625
 20
8.443634033203125
 30
-92.51233673095703
 70
   192
  0
VERTEX
  5
7C
  8
0
 10
1061.996337890625
 20
11.86385822296143
 30
-96.55034637451172
 70
   192
  0
VERTEX
  5
7D
  8
0
 10
1057.496337890625
 20
9.064284324645996
 30
-94.20743560791016
 70
   192
  0
VERTEX
  5
7E
  8
0
 10
1057.496337890625
 20
8.450861930847168
 30
-92.47899627685547
 70
   192
  0
VERTEX
  5
7F
  8
0
 10
1057.496337890625
 20
10.22587013244629
 30
-95.63909912109375
 70
   192
  0
VERTEX
  5
80
  8
0
 10
1057.496337890625
 20
11.82803153991699
 30
-96.5933609008789
 70
   192
  0
VERTEX
  5
81
  8
0
 10
1057.496337890625
 20
11.86385822296143
 30
-86.59101867675781
 70
   192
  0
VERTEX
  5
82
  8
0
 10
1057.496337890625
 20
9.113463401794434
 30
-88.88919830322266
 70
   192
  0
VERTEX
  5
83
  8
0
 10
1057.496337890625
 20
10.31709098815918
 30
-87.49132537841797
 70
   192
  0
VERTEX
  5
84
  8
0
 10
1057.496337890625
 20
8.443634033203125
 30
-90.6290283203125
 70
   192
  0
VERTEX
  5
85
  8
0
 10
1062.996337890625
 20
16.31651878356934
 30
-94.15919494628906
 70
   192
  0
VERTEX
  5
86
  8
0
 10
1061.996337890625
 20
15.07458019256592
 30
-94.99584197998047
 70
   192
  0
VERTEX
  5
87
  8
0
 10
1061.996337890625
 20
16.24935340881348
 30
-94.20758819580078
 70
   192
  0
VERTEX
  5
88
  8
0
 10
1062.996337890625
 20
17.37774658203125
 30
-91.5706787109375
 70
   192
  0
VERTEX
  5
89
  8
0
 10
1062.996337890625
 20
17.07118034362793
 30
-93.02688598632812
 70
   192
  0
VERTEX
  5
8A
  8
0
 10
1061.996337890625
 20
17.07118034362793
 30
-93.02688598632812
 70
   192
  0
VERTEX
  5
8B
  8
0
 10
1061.996337890625
 20
12.24169921875
 30
-94.96759796142578
 70
   192
  0
VERTEX
  5
8C
  8
0
 10
1062.996337890625
 20
12.28087997436523
 30
-94.99583435058594
 70
   192
  0
VERTEX
  5
8D
  8
0
 10
1061.996337890625
 20
11.03894233703613
 30
-94.1591567993164
 70
   192
  0
VERTEX
  5
8E
  8
0
 10
1062.996337890625
 20
13.73156642913818
 30
-95.25859069824219
 70
   192
  0
VERTEX
  5
8F
  8
0
 10
1061.996337890625
 20
13.62389278411865
 30
-95.25859069824219
 70
   192
  0
VERTEX
  5
90
  8
0
 10
1062.996337890625
 20
15.11375999450684
 30
-94.96761322021484
 70
   192
  0
VERTEX
  5
91
  8
0
 10
1061.996337890625
 20
10.28429126739502
 30
-93.02685546875
 70
   192
  0
VERTEX
  5
92
  8
0
 10
1062.996337890625
 20
11.10610961914062
 30
-94.20755767822266
 70
   192
  0
VERTEX
  5
93
  8
0
 10
1062.996337890625
 20
10.28429126739502
 30
-93.02685546875
 70
   192
  0
VERTEX
  5
94
  8
0
 10
1062.996337890625
 20
9.97774600982666
 30
-91.5706787109375
 70
   192
  0
VERTEX
  5
95
  8
0
 10
1061.996337890625
 20
9.97774600982666
 30
-91.5706787109375
 70
   192
  0
VERTEX
  5
96
  8
0
 10
1061.996337890625
 20
17.37774658203125
 30
-91.5706787109375
 70
   192
  0
VERTEX
  5
97
  8
0
 10
1062.996337890625
 20
10.28537368774414
 30
-90.16262817382812
 70
   192
  0
VERTEX
  5
98
  8
0
 10
1062.996337890625
 20
12.23808288574219
 30
-88.18787384033203
 70
   192
  0
VERTEX
  5
99
  8
0
 10
1062.996337890625
 20
11.05438137054443
 30
-89.01612091064453
 70
   192
  0
VERTEX
  5
9A
  8
0
 10
1062.996337890625
 20
16.26992988586426
 30
-88.94266510009766
 70
   192
  0
VERTEX
  5
9B
  8
0
 10
1062.996337890625
 20
13.6777458190918
 30
-87.87068176269531
 70
   192
  0
VERTEX
  5
9C
  8
0
 10
1062.996337890625
 20
15.06237983703613
 30
-88.15675354003906
 70
   192
  0
VERTEX
  5
9D
  8
0
 10
1062.996337890625
 20
17.10396957397461
 30
-90.12250518798828
 70
   192
  0
VERTEX
  5
9E
  8
0
 10
1061.996337890625
 20
15.11379241943359
 30
-88.17376708984375
 70
   192
  0
VERTEX
  5
9F
  8
0
 10
1061.996337890625
 20
13.73159885406494
 30
-87.88276672363281
 70
   192
  0
VERTEX
  5
A0
  8
0
 10
1061.996337890625
 20
16.31654930114746
 30
-88.98220825195312
 70
   192
  0
VERTEX
  5
A1
  8
0
 10
1061.996337890625
 20
17.07120132446289
 30
-90.11450958251953
 70
   192
  0
VERTEX
  5
A2
  8
0
 10
1061.996337890625
 20
12.28091144561768
 30
-88.14552307128906
 70
   192
  0
VERTEX
  5
A3
  8
0
 10
1061.996337890625
 20
11.10613822937012
 30
-88.93377685546875
 70
   192
  0
VERTEX
  5
A4
  8
0
 10
1061.996337890625
 20
10.28431129455566
 30
-90.1144790649414
 70
   192
  0
VERTEX
  5
A5
  8
0
 62
     9
 10
0.0
 20
0.0
 30
0.0
 70
   128
 71
     3
 72
     2
 73
     1
  0
VERTEX
  5
A6
  8
0
 62
     9
 10
0.0
 20
0.0
 30
0.0
 70
   128
 71
     5
 72
     2
 73
     4
  0
VERTEX
  5
A7
  8
0
 62
     9
 10
0.0
 20
0.0
 30
0.0
 70
   128
 71
     3
 72
     4
 73
     2
  0
VERTEX
  5
A8
  8
0
 62
     9
 10
0.0
 20
0.0
 30
0.0
 70
   128
 71
     5
 72
     7
 73
     6
  0
VERTEX
  5
A9
  8
0
 62
     9
 10
0.0
 20
0.0
 30
0.0
 70
   128
 71
     7
 72
     5
 73
     4
  0
VERTEX
  5
AA
  8
0
 62
     9
 10
0.0
 20
0.0
 30
0.0
 70
   128
 71
     9
 72
     8
 73
     6
  0
VERTEX
  5
AB
  8
0
 62
     9
 10
0.0
 20
0.0
 30
0.0
 70
   128
 71
     6
 72
     7
 73
     9
  0
VERTEX
  5
AC
  8
0
 62
     9
 10
0.0
 20
0.0
 30
0.0
 70
   128
 71
     9
 72
    10
 73
     8
  0
VERTEX
  5
AD
  8
0
 62
     9
 10
0.0
 20
0.0
 30
0.0
 70
   128
 71
    10
 72
    11
 73
     8
  0
VERTEX
  5
AE
  8
0
 62
     9
 10
0.0
 20
0.0
 30
0.0
 70
   128
 71
    12
 72
     3
 73
     1
  0
VERTEX
  5
AF
  8
0
 62
     9
 10
0.0
 20
0.0
 30
0.0
 70
   128
 71
    12
 72
    14
 73
    13
  0
VERTEX
  5
B0
  8
0
 62
     9
 10
0.0
 20
0.0
 30
0.0
 70
   128
 71
    14
 72
    12
 73
     1
  0
VERTEX
  5
B1
  8
0
 62
     9
 10
0.0
 20
0.0
 30
0.0
 70
   128
 71
    16
 72
    15
 73
    13
  0
VERTEX
  5
B2
  8
0
 62
     9
 10
0.0
 20
0.0
 30
0.0
 70
   128
 71
    13
 72
    14
 73
    16
  0
VERTEX
  5
B3
  8
0
 62
     9
 10
0.0
 20
0.0
 30
0.0
 70
   128
 71
    18
 72
    15
 73
    17
  0
VERTEX
  5
B4
  8
0
 62
     9
 10
0.0
 20
0.0
 30
0.0
 70
   128
 71
    16
 72
    17
 73
    15
  0
VERTEX
  5
B5
  8
0
 62
     9
 10
0.0
 20
0.0
 30
0.0
 70
   128
 71
    19
 72
    18
 73
    17
  0
VERTEX
  5
B6
  8
0
 62
     9
 10
0.0
 20
0.0
 30
0.0
 70
   128
 71
    20
 72
    18
 73
    19
  0
VERTEX
  5
B7
  8
0
 62
     7
 10
0.0
 20
0.0
 30
0.0
 70
   128
 71
    23
 72
    22
 73
    21
  0
VERTEX
  5
B8
  8
0
 62
     7
 10
0.0
 20
0.0
 30
0.0
 70
   128
 71
    25
 72
    22
 73
    24
  0
VERTEX
  5
B9
  8
0
 62
     7
 10
0.0
 20
0.0
 30
0.0
 70
   128
 71
    23
 72
    24
 73
    22
  0
VERTEX
  5
BA
  8
0
 62
     7
 10
0.0
 20
0.0
 30
0.0
 70
   128
 71
    25
 72
    27
 73
    26
  0
VERTEX
  5
BB
  8
0
 62
     7
 10
0.0
 20
0.0
 30
0.0
 70
   128
 71
    27
 72
    25
 73
    24
  0
VERTEX
  5
BC
  8
0
 62
     7
 10
0.0
 20
0.0
 30
0.0
 70
   128
 71
    29
 72
    28
 73
    26
  0
VERTEX
  5
BD
  8
0
 62
     7
 10
0.0
 20
0.0
 30
0.0
 70
   128
 71
    26
 72
    27
 73
    29
  0
VERTEX
  5
BE
  8
0
 62
     7
 10
0.0
 20
0.0
 30
0.0
 70
   128
 71
    29
 72
    30
 73
    28
  0
VERTEX
  5
BF
  8
0
 62
     7
 10
0.0
 20
0.0
 30
0.0
 70
   128
 71
    30
 72
    31
 73
    28
  0
VERTEX
  5
C0
  8
0
 62
     7
 10
0.0
 20
0.0
 30
0.0
 70
   128
 71
    32
 72
    23
 73
    21
  0
VERTEX
  5
C1
  8
0
 62
     7
 10
0.0
 20
0.0
 30
0.0
 70
   128
 71
    32
 72
    34
 73
    33
  0
VERTEX
  5
C2
  8
0
 62
     7
 10
0.0
 20
0.0
 30
0.0
 70
   128
 71
    34
 72
    32
 73
    21
  0
VERTEX
  5
C3
  8
0
 62
     7
 10
0.0
 20
0.0
 30
0.0
 70
   128
 71
    36
 72
    35
 73
    33
  0
VERTEX
  5
C4
  8
0
 62
     7
 10
0.0
 20
0.0
 30
0.0
 70
   128
 71
    33
 72
    34
 73
    36
  0
VERTEX
  5
C5
  8
0
 62
     7
 10
0.0
 20
0.0
 30
0.0
 70
   128
 71
    38
 72
    35
 73
    37
  0
VERTEX
  5
C6
  8
0
 62
     7
 10
0.0
 20
0.0
 30
0.0
 70
   128
 71
    36
 72
    37
 73
    35
  0
VERTEX
  5
C7
  8
0
 62
     7
 10
0.0
 20
0.0
 30
0.0
 70
   128
 71
    39
 72
    38
 73
    37
  0
VERTEX
  5
C8
  8
0
 62
     7
 10
0.0
 20
0.0
 30
0.0
 70
   128
 71
    40
 72
    38
 73
    39
  0
VERTEX
  5
C9
  8
0
 62
     7
 10
0.0
 20
0.0
 30
0.0
 70
   128
 71
    43
 72
    42
 73
    41
  0
VERTEX
  5
CA
  8
0
 62
     7
 10
0.0
 20
0.0
 30
0.0
 70
   128
 71
    21
 72
    36
 73
    34
  0
VERTEX
  5
CB
  8
0
 62
     7
 10
0.0
 20
0.0
 30
0.0
 70
   128
 71
    43
 72
    44
 73
    37
  0
VERTEX
  5
CC
  8
0
 62
     7
 10
0.0
 20
0.0
 30
0.0
 70
   128
 71
    44
 72
    43
 73
    41
  0
VERTEX
  5
CD
  8
0
 62
     7
 10
0.0
 20
0.0
 30
0.0
 70
   128
 71
    43
 72
    36
 73
    45
  0
VERTEX
  5
CE
  8
0
 62
     7
 10
0.0
 20
0.0
 30
0.0
 70
   128
 71
    45
 72
    36
 73
    46
  0
VERTEX
  5
CF
  8
0
 62
     7
 10
0.0
 20
0.0
 30
0.0
 70
   128
 71
    45
 72
    46
 73
    47
  0
VERTEX
  5
D0
  8
0
 62
     7
 10
0.0
 20
0.0
 30
0.0
 70
   128
 71
    28
 72
    31
 73
    48
  0
VERTEX
  5
D1
  8
0
 62
     7
 10
0.0
 20
0.0
 30
0.0
 70
   128
 71
    26
 72
    22
 73
    25
  0
VERTEX
  5
D2
  8
0
 62
     7
 10
0.0
 20
0.0
 30
0.0
 70
   128
 71
    28
 72
    48
 73
    22
  0
VERTEX
  5
D3
  8
0
 62
     7
 10
0.0
 20
0.0
 30
0.0
 70
   128
 71
    26
 72
    28
 73
    22
  0
VERTEX
  5
D4
  8
0
 62
     7
 10
0.0
 20
0.0
 30
0.0
 70
   128
 71
    21
 72
    22
 73
    46
  0
VERTEX
  5
D5
  8
0
 62
     7
 10
0.0
 20
0.0
 30
0.0
 70
   128
 71
    48
 72
    46
 73
    22
  0
VERTEX
  5
D6
  8
0
 62
     7
 10
0.0
 20
0.0
 30
0.0
 70
   128
 71
    36
 72
    21
 73
    46
  0
VERTEX
  5
D7
  8
0
 62
     7
 10
0.0
 20
0.0
 30
0.0
 70
   128
 71
    37
 72
    36
 73
    43
  0
VERTEX
  5
D8
  8
0
 62
     7
 10
0.0
 20
0.0
 30
0.0
 70
   128
 71
    44
 72
    39
 73
    37
  0
VERTEX
  5
D9
  8
0
 62
     7
 10
0.0
 20
0.0
 30
0.0
 70
   128
 71
    48
 72
    31
 73
    49
  0
VERTEX
  5
DA
  8
0
 62
     7
 10
0.0
 20
0.0
 30
0.0
 70
   128
 71
    45
 72
    51
 73
    50
  0
VERTEX
  5
DB
  8
0
 62
     7
 10
0.0
 20
0.0
 30
0.0
 70
   128
 71
    53
 72
    52
 73
    46
  0
VERTEX
  5
DC
  8
0
 62
     7
 10
0.0
 20
0.0
 30
0.0
 70
   128
 71
    41
 72
    42
 73
    54
  0
VERTEX
  5
DD
  8
0
 62
     7
 10
0.0
 20
0.0
 30
0.0
 70
   128
 71
    55
 72
    43
 73
    50
  0
VERTEX
  5
DE
  8
0
 62
     7
 10
0.0
 20
0.0
 30
0.0
 70
   128
 71
    41
 72
    56
 73
    44
  0
VERTEX
  5
DF
  8
0
 62
     7
 10
0.0
 20
0.0
 30
0.0
 70
   128
 71
    56
 72
    41
 73
    54
  0
VERTEX
  5
E0
  8
0
 62
     7
 10
0.0
 20
0.0
 30
0.0
 70
   128
 71
    40
 72
    39
 73
    44
  0
VERTEX
  5
E1
  8
0
 62
     7
 10
0.0
 20
0.0
 30
0.0
 70
   128
 71
    44
 72
    56
 73
    40
  0
VERTEX
  5
E2
  8
0
 62
     7
 10
0.0
 20
0.0
 30
0.0
 70
   128
 71
    43
 72
    55
 73
    42
  0
VERTEX
  5
E3
  8
0
 62
     7
 10
0.0
 20
0.0
 30
0.0
 70
   128
 71
    54
 72
    42
 73
    55
  0
VERTEX
  5
E4
  8
0
 62
     7
 10
0.0
 20
0.0
 30
0.0
 70
   128
 71
    51
 72
    45
 73
    47
  0
VERTEX
  5
E5
  8
0
 62
     7
 10
0.0
 20
0.0
 30
0.0
 70
   128
 71
    43
 72
    45
 73
    50
  0
VERTEX
  5
E6
  8
0
 62
     7
 10
0.0
 20
0.0
 30
0.0
 70
   128
 71
    52
 72
    47
 73
    46
  0
VERTEX
  5
E7
  8
0
 62
     7
 10
0.0
 20
0.0
 30
0.0
 70
   128
 71
    47
 72
    52
 73
    51
  0
VERTEX
  5
E8
  8
0
 62
     7
 10
0.0
 20
0.0
 30
0.0
 70
   128
 71
    49
 72
    53
 73
    48
  0
VERTEX
  5
E9
  8
0
 62
     7
 10
0.0
 20
0.0
 30
0.0
 70
   128
 71
    48
 72
    53
 73
    46
  0
VERTEX
  5
EA
  8
0
 62
     7
 10
0.0
 20
0.0
 30
0.0
 70
   128
 71
    30
 72
    49
 73
    31
  0
VERTEX
  5
EB
  8
0
 62
     7
 10
0.0
 20
0.0
 30
0.0
 70
   128
 71
    33
 72
    35
 73
    14
  0
VERTEX
  5
EC
  8
0
 62
     7
 10
0.0
 20
0.0
 30
0.0
 70
   128
 71
    24
 72
    23
 73
     5
  0
VERTEX
  5
ED
  8
0
 62
     7
 10
0.0
 20
0.0
 30
0.0
 70
   128
 71
     2
 72
    23
 73
    32
  0
VERTEX
  5
EE
  8
0
 62
     7
 10
0.0
 20
0.0
 30
0.0
 70
   128
 71
     1
 72
    32
 73
    33
  0
VERTEX
  5
EF
  8
0
 62
     7
 10
0.0
 20
0.0
 30
0.0
 70
   128
 71
     6
 72
    27
 73
    24
  0
VERTEX
  5
F0
  8
0
 62
     7
 10
0.0
 20
0.0
 30
0.0
 70
   128
 71
    35
 72
    38
 73
    16
  0
VERTEX
  5
F1
  8
0
 62
     7
 10
0.0
 20
0.0
 30
0.0
 70
   128
 71
    56
 72
    19
 73
    40
  0
VERTEX
  5
F2
  8
0
 62
     7
 10
0.0
 20
0.0
 30
0.0
 70
   128
 71
    51
 72
    57
 73
    50
  0
VERTEX
  5
F3
  8
0
 62
     7
 10
0.0
 20
0.0
 30
0.0
 70
   128
 71
    59
 72
    54
 73
    58
  0
VERTEX
  5
F4
  8
0
 62
     7
 10
0.0
 20
0.0
 30
0.0
 70
   128
 71
    55
 72
    50
 73
    60
  0
VERTEX
  5
F5
  8
0
 62
     7
 10
0.0
 20
0.0
 30
0.0
 70
   128
 71
    19
 72
    17
 73
    38
  0
VERTEX
  5
F6
  8
0
 62
     7
 10
0.0
 20
0.0
 30
0.0
 70
   128
 71
    53
 72
    49
 73
    61
  0
VERTEX
  5
F7
  8
0
 62
     7
 10
0.0
 20
0.0
 30
0.0
 70
   128
 71
    53
 72
    62
 73
    52
  0
VERTEX
  5
F8
  8
0
 62
     7
 10
0.0
 20
0.0
 30
0.0
 70
   128
 71
     8
 72
    29
 73
    27
  0
VERTEX
  5
F9
  8
0
 62
     7
 10
0.0
 20
0.0
 30
0.0
 70
   128
 71
    51
 72
    52
 73
    63
  0
VERTEX
  5
FA
  8
0
 62
     7
 10
0.0
 20
0.0
 30
0.0
 70
   128
 71
    19
 72
    38
 73
    40
  0
VERTEX
  5
FB
  8
0
 62
     7
 10
0.0
 20
0.0
 30
0.0
 70
   128
 71
    58
 72
    54
 73
    55
  0
VERTEX
  5
FC
  8
0
 62
     7
 10
0.0
 20
0.0
 30
0.0
 70
   128
 71
    17
 72
    16
 73
    38
  0
VERTEX
  5
FD
  8
0
 62
     7
 10
0.0
 20
0.0
 30
0.0
 70
   128
 71
    16
 72
    14
 73
    35
  0
VERTEX
  5
FE
  8
0
 62
     7
 10
0.0
 20
0.0
 30
0.0
 70
   128
 71
    14
 72
     1
 73
    33
  0
VERTEX
  5
FF
  8
0
 62
     7
 10
0.0
 20
0.0
 30
0.0
 70
   128
 71
     1
 72
     2
 73
    32
  0
VERTEX
  5
100
  8
0
 62
     7
 10
0.0
 20
0.0
 30
0.0
 70
   128
 71
     2
 72
     5
 73
    23
  0
VERTEX
  5
101
  8
0
 62
     7
 10
0.0
 20
0.0
 30
0.0
 70
   128
 71
     5
 72
     6
 73
    24
  0
VERTEX
  5
102
  8
0
 62
     7
 10
0.0
 20
0.0
 30
0.0
 70
   128
 71
     6
 72
     8
 73
    27
  0
VERTEX
  5
103
  8
0
 62
     7
 10
0.0
 20
0.0
 30
0.0
 70
   128
 71
     8
 72
    11
 73
    29
  0
VERTEX
  5
104
  8
0
 62
     7
 10
0.0
 20
0.0
 30
0.0
 70
   128
 71
    30
 72
    11
 73
    49
  0
VERTEX
  5
105
  8
0
 62
     7
 10
0.0
 20
0.0
 30
0.0
 70
   128
 71
    11
 72
    30
 73
    29
  0
VERTEX
  5
106
  8
0
 62
     7
 10
0.0
 20
0.0
 30
0.0
 70
   128
 71
    64
 72
    61
 73
    49
  0
VERTEX
  5
107
  8
0
 62
     7
 10
0.0
 20
0.0
 30
0.0
 70
   128
 71
    11
 72
    64
 73
    49
  0
VERTEX
  5
108
  8
0
 62
     7
 10
0.0
 20
0.0
 30
0.0
 70
   128
 71
    61
 72
    62
 73
    53
  0
VERTEX
  5
109
  8
0
 62
     7
 10
0.0
 20
0.0
 30
0.0
 70
   128
 71
    62
 72
    63
 73
    52
  0
VERTEX
  5
10A
  8
0
 62
     7
 10
0.0
 20
0.0
 30
0.0
 70
   128
 71
    63
 72
    57
 73
    51
  0
VERTEX
  5
10B
  8
0
 62
     7
 10
0.0
 20
0.0
 30
0.0
 70
   128
 71
    57
 72
    60
 73
    50
  0
VERTEX
  5
10C
  8
0
 62
     7
 10
0.0
 20
0.0
 30
0.0
 70
   128
 71
    60
 72
    58
 73
    55
  0
VERTEX
  5
10D
  8
0
 62
     7
 10
0.0
 20
0.0
 30
0.0
 70
   128
 71
    59
 72
    56
 73
    54
  0
VERTEX
  5
10E
  8
0
 62
     7
 10
0.0
 20
0.0
 30
0.0
 70
   128
 71
    56
 72
    59
 73
    19
  0
VERTEX
  5
10F
  8
0
 62
     9
 10
0.0
 20
0.0
 30
0.0
 70
   128
 71
    67
 72
    66
 73
    65
  0
VERTEX
  5
110
  8
0
 62
     9
 10
0.0
 20
0.0
 30
0.0
 70
   128
 71
    68
 72
     4
 73
    12
  0
VERTEX
  5
111
  8
0
 62
     9
 10
0.0
 20
0.0
 30
0.0
 70
   128
 71
     7
 72
     4
 73
     9
  0
VERTEX
  5
112
  8
0
 62
     9
 10
0.0
 20
0.0
 30
0.0
 70
   128
 71
    15
 72
    67
 73
    12
  0
VERTEX
  5
113
  8
0
 62
     9
 10
0.0
 20
0.0
 30
0.0
 70
   128
 71
    12
 72
     4
 73
     3
  0
VERTEX
  5
114
  8
0
 62
     9
 10
0.0
 20
0.0
 30
0.0
 70
   128
 71
    15
 72
    12
 73
    13
  0
VERTEX
  5
115
  8
0
 62
     9
 10
0.0
 20
0.0
 30
0.0
 70
   128
 71
    20
 72
    69
 73
    18
  0
VERTEX
  5
116
  8
0
 62
     9
 10
0.0
 20
0.0
 30
0.0
 70
   128
 71
    66
 72
    18
 73
    70
  0
VERTEX
  5
117
  8
0
 62
     9
 10
0.0
 20
0.0
 30
0.0
 70
   128
 71
    71
 72
    70
 73
    69
  0
VERTEX
  5
118
  8
0
 62
     9
 10
0.0
 20
0.0
 30
0.0
 70
   128
 71
    18
 72
    69
 73
    70
  0
VERTEX
  5
119
  8
0
 62
     9
 10
0.0
 20
0.0
 30
0.0
 70
   128
 71
    66
 72
    70
 73
    72
  0
VERTEX
  5
11A
  8
0
 62
     9
 10
0.0
 20
0.0
 30
0.0
 70
   128
 71
    66
 72
    67
 73
    15
  0
VERTEX
  5
11B
  8
0
 62
     9
 10
0.0
 20
0.0
 30
0.0
 70
   128
 71
    18
 72
    66
 73
    15
  0
VERTEX
  5
11C
  8
0
 62
     9
 10
0.0
 20
0.0
 30
0.0
 70
   128
 71
     9
 72
     4
 73
    68
  0
VERTEX
  5
11D
  8
0
 62
     9
 10
0.0
 20
0.0
 30
0.0
 70
   128
 71
    67
 72
    68
 73
    12
  0
VERTEX
  5
11E
  8
0
 62
     9
 10
0.0
 20
0.0
 30
0.0
 70
   128
 71
    68
 72
    10
 73
     9
  0
VERTEX
  5
11F
  8
0
 62
     9
 10
0.0
 20
0.0
 30
0.0
 70
   128
 71
    64
 72
    11
 73
    68
  0
VERTEX
  5
120
  8
0
 62
     9
 10
0.0
 20
0.0
 30
0.0
 70
   128
 71
    63
 72
    66
 73
    72
  0
VERTEX
  5
121
  8
0
 62
     9
 10
0.0
 20
0.0
 30
0.0
 70
   128
 71
    67
 72
    65
 73
    61
  0
VERTEX
  5
122
  8
0
 62
     9
 10
0.0
 20
0.0
 30
0.0
 70
   128
 71
    58
 72
    60
 73
    71
  0
VERTEX
  5
123
  8
0
 62
     9
 10
0.0
 20
0.0
 30
0.0
 70
   128
 71
    70
 72
    57
 73
    72
  0
VERTEX
  5
124
  8
0
 62
     9
 10
0.0
 20
0.0
 30
0.0
 70
   128
 71
    58
 72
    69
 73
    59
  0
VERTEX
  5
125
  8
0
 62
     9
 10
0.0
 20
0.0
 30
0.0
 70
   128
 71
    69
 72
    58
 73
    71
  0
VERTEX
  5
126
  8
0
 62
     9
 10
0.0
 20
0.0
 30
0.0
 70
   128
 71
    20
 72
    19
 73
    59
  0
VERTEX
  5
127
  8
0
 62
     9
 10
0.0
 20
0.0
 30
0.0
 70
   128
 71
    59
 72
    69
 73
    20
  0
VERTEX
  5
128
  8
0
 62
     9
 10
0.0
 20
0.0
 30
0.0
 70
   128
 71
    57
 72
    70
 73
    60
  0
VERTEX
  5
129
  8
0
 62
     9
 10
0.0
 20
0.0
 30
0.0
 70
   128
 71
    71
 72
    60
 73
    70
  0
VERTEX
  5
12A
  8
0
 62
     9
 10
0.0
 20
0.0
 30
0.0
 70
   128
 71
    66
 72
    63
 73
    62
  0
VERTEX
  5
12B
  8
0
 62
     9
 10
0.0
 20
0.0
 30
0.0
 70
   128
 71
    57
 72
    63
 73
    72
  0
VERTEX
  5
12C
  8
0
 62
     9
 10
0.0
 20
0.0
 30
0.0
 70
   128
 71
    65
 72
    62
 73
    61
  0
VERTEX
  5
12D
  8
0
 62
     9
 10
0.0
 20
0.0
 30
0.0
 70
   128
 71
    62
 72
    65
 73
    66
  0
VERTEX
  5
12E
  8
0
 62
     9
 10
0.0
 20
0.0
 30
0.0
 70
   128
 71
    68
 72
    67
 73
    64
  0
VERTEX
  5
12F
  8
0
 62
     9
 10
0.0
 20
0.0
 30
0.0
 70
   128
 71
    64
 72
    67
 73
    61
  0
VERTEX
  5
130
  8
0
 62
     9
 10
0.0
 20
0.0
 30
0.0
 70
   128
 71
    10
 72
    68
 73
    11
  0
VERTEX
  5
131
  8
0
 62
     7
 10
0.0
 20
0.0
 30
0.0
 70
   128
 71
    75
 72
    74
 73
    73
  0
VERTEX
  5
132
  8
0
 62
     7
 10
0.0
 20
0.0
 30
0.0
 70
   128
 71
    78
 72
    77
 73
    76
  0
VERTEX
  5
133
  8
0
 62
     7
 10
0.0
 20
0.0
 30
0.0
 70
   128
 71
    81
 72
    80
 73
    79
  0
VERTEX
  5
134
  8
0
 62
     7
 10
0.0
 20
0.0
 30
0.0
 70
   128
 71
    84
 72
    83
 73
    82
  0
VERTEX
  5
135
  8
0
 62
     7
 10
0.0
 20
0.0
 30
0.0
 70
   128
 71
    87
 72
    86
 73
    85
  0
VERTEX
  5
136
  8
0
 62
     7
 10
0.0
 20
0.0
 30
0.0
 70
   128
 71
    81
 72
    85
 73
    86
  0
VERTEX
  5
137
  8
0
 62
     7
 10
0.0
 20
0.0
 30
0.0
 70
   128
 71
    87
 72
    89
 73
    88
  0
VERTEX
  5
138
  8
0
 62
     7
 10
0.0
 20
0.0
 30
0.0
 70
   128
 71
    89
 72
    87
 73
    85
  0
VERTEX
  5
139
  8
0
 62
     7
 10
0.0
 20
0.0
 30
0.0
 70
   128
 71
    80
 72
    82
 73
    79
  0
VERTEX
  5
13A
  8
0
 62
     7
 10
0.0
 20
0.0
 30
0.0
 70
   128
 71
    86
 72
    80
 73
    81
  0
VERTEX
  5
13B
  8
0
 62
     7
 10
0.0
 20
0.0
 30
0.0
 70
   128
 71
    84
 72
    74
 73
    83
  0
VERTEX
  5
13C
  8
0
 62
     7
 10
0.0
 20
0.0
 30
0.0
 70
   128
 71
    82
 72
    83
 73
    79
  0
VERTEX
  5
13D
  8
0
 62
     7
 10
0.0
 20
0.0
 30
0.0
 70
   128
 71
    77
 72
    75
 73
    73
  0
VERTEX
  5
13E
  8
0
 62
     7
 10
0.0
 20
0.0
 30
0.0
 70
   128
 71
    73
 72
    74
 73
    84
  0
VERTEX
  5
13F
  8
0
 62
     7
 10
0.0
 20
0.0
 30
0.0
 70
   128
 71
    90
 72
    78
 73
    76
  0
VERTEX
  5
140
  8
0
 62
     7
 10
0.0
 20
0.0
 30
0.0
 70
   128
 71
    78
 72
    75
 73
    77
  0
VERTEX
  5
141
  8
0
 62
     7
 10
0.0
 20
0.0
 30
0.0
 70
   128
 71
    93
 72
    92
 73
    91
  0
VERTEX
  5
142
  8
0
 62
     7
 10
0.0
 20
0.0
 30
0.0
 70
   128
 71
    94
 72
    82
 73
    86
  0
VERTEX
  5
143
  8
0
 62
     7
 10
0.0
 20
0.0
 30
0.0
 70
   128
 71
    95
 72
    87
 73
    92
  0
VERTEX
  5
144
  8
0
 62
     7
 10
0.0
 20
0.0
 30
0.0
 70
   128
 71
    96
 72
    94
 73
    95
  0
VERTEX
  5
145
  8
0
 62
     7
 10
0.0
 20
0.0
 30
0.0
 70
   128
 71
    95
 72
    86
 73
    87
  0
VERTEX
  5
146
  8
0
 62
     7
 10
0.0
 20
0.0
 30
0.0
 70
   128
 71
    77
 72
    84
 73
    97
  0
VERTEX
  5
147
  8
0
 62
     7
 10
0.0
 20
0.0
 30
0.0
 70
   128
 71
    95
 72
    94
 73
    86
  0
VERTEX
  5
148
  8
0
 62
     7
 10
0.0
 20
0.0
 30
0.0
 70
   128
 71
    77
 72
    97
 73
    76
  0
VERTEX
  5
149
  8
0
 62
     7
 10
0.0
 20
0.0
 30
0.0
 70
   128
 71
    97
 72
    84
 73
    82
  0
VERTEX
  5
14A
  8
0
 62
     7
 10
0.0
 20
0.0
 30
0.0
 70
   128
 71
    77
 72
    73
 73
    84
  0
VERTEX
  5
14B
  8
0
 62
     7
 10
0.0
 20
0.0
 30
0.0
 70
   128
 71
    80
 72
    86
 73
    82
  0
VERTEX
  5
14C
  8
0
 62
     7
 10
0.0
 20
0.0
 30
0.0
 70
   128
 71
    94
 72
    97
 73
    82
  0
VERTEX
  5
14D
  8
0
 62
     7
 10
0.0
 20
0.0
 30
0.0
 70
   128
 71
    92
 72
    87
 73
    91
  0
VERTEX
  5
14E
  8
0
 62
     7
 10
0.0
 20
0.0
 30
0.0
 70
   128
 71
    87
 72
    88
 73
    91
  0
VERTEX
  5
14F
  8
0
 62
     7
 10
0.0
 20
0.0
 30
0.0
 70
   128
 71
    99
 72
    98
 73
    95
  0
VERTEX
  5
150
  8
0
 62
     7
 10
0.0
 20
0.0
 30
0.0
 70
   128
 71
   100
 72
    96
 73
    98
  0
VERTEX
  5
151
  8
0
 62
     7
 10
0.0
 20
0.0
 30
0.0
 70
   128
 71
    95
 72
    98
 73
    96
  0
VERTEX
  5
152
  8
0
 62
     7
 10
0.0
 20
0.0
 30
0.0
 70
   128
 71
    94
 72
   100
 73
   101
  0
VERTEX
  5
153
  8
0
 62
     7
 10
0.0
 20
0.0
 30
0.0
 70
   128
 71
   100
 72
    94
 73
    96
  0
VERTEX
  5
154
  8
0
 62
     7
 10
0.0
 20
0.0
 30
0.0
 70
   128
 71
   101
 72
    90
 73
    97
  0
VERTEX
  5
155
  8
0
 62
     7
 10
0.0
 20
0.0
 30
0.0
 70
   128
 71
    97
 72
    94
 73
   101
  0
VERTEX
  5
156
  8
0
 62
     7
 10
0.0
 20
0.0
 30
0.0
 70
   128
 71
    97
 72
    90
 73
    76
  0
VERTEX
  5
157
  8
0
 62
     7
 10
0.0
 20
0.0
 30
0.0
 70
   128
 71
    95
 72
    92
 73
    99
  0
VERTEX
  5
158
  8
0
 62
     7
 10
0.0
 20
0.0
 30
0.0
 70
   128
 71
    92
 72
    93
 73
   102
  0
VERTEX
  5
159
  8
0
 62
     7
 10
0.0
 20
0.0
 30
0.0
 70
   128
 71
   102
 72
    99
 73
    92
  0
VERTEX
  5
15A
  8
0
 62
     7
 10
0.0
 20
0.0
 30
0.0
 70
   128
 71
    91
 72
   103
 73
    93
  0
VERTEX
  5
15B
  8
0
 62
     7
 10
0.0
 20
0.0
 30
0.0
 70
   128
 71
   102
 72
    93
 73
   103
  0
VERTEX
  5
15C
  8
0
 62
     7
 10
0.0
 20
0.0
 30
0.0
 70
   128
 71
   104
 72
    91
 73
    88
  0
VERTEX
  5
15D
  8
0
 62
     7
 10
0.0
 20
0.0
 30
0.0
 70
   128
 71
    91
 72
   104
 73
   103
  0
VERTEX
  5
15E
  8
0
 62
     7
 10
0.0
 20
0.0
 30
0.0
 70
   128
 71
    89
 72
   104
 73
    88
  0
VERTEX
  5
15F
  8
0
 62
     9
 10
0.0
 20
0.0
 30
0.0
 70
   128
 71
   103
 72
    83
 73
    75
  0
VERTEX
  5
160
  8
0
 62
     9
 10
0.0
 20
0.0
 30
0.0
 70
   128
 71
   104
 72
    79
 73
    83
  0
VERTEX
  5
161
  8
0
 62
     9
 10
0.0
 20
0.0
 30
0.0
 70
   128
 71
    81
 72
    79
 73
    85
  0
VERTEX
  5
162
  8
0
 62
     9
 10
0.0
 20
0.0
 30
0.0
 70
   128
 71
    74
 72
    75
 73
    83
  0
VERTEX
  5
163
  8
0
 62
     9
 10
0.0
 20
0.0
 30
0.0
 70
   128
 71
    83
 72
   103
 73
   104
  0
VERTEX
  5
164
  8
0
 62
     9
 10
0.0
 20
0.0
 30
0.0
 70
   128
 71
   101
 72
    98
 73
    78
  0
VERTEX
  5
165
  8
0
 62
     9
 10
0.0
 20
0.0
 30
0.0
 70
   128
 71
   101
 72
    78
 73
    90
  0
VERTEX
  5
166
  8
0
 62
     9
 10
0.0
 20
0.0
 30
0.0
 70
   128
 71
    98
 72
    99
 73
    78
  0
VERTEX
  5
167
  8
0
 62
     9
 10
0.0
 20
0.0
 30
0.0
 70
   128
 71
   100
 72
    98
 73
   101
  0
VERTEX
  5
168
  8
0
 62
     9
 10
0.0
 20
0.0
 30
0.0
 70
   128
 71
    75
 72
    78
 73
    99
  0
VERTEX
  5
169
  8
0
 62
     9
 10
0.0
 20
0.0
 30
0.0
 70
   128
 71
   103
 72
    75
 73
    99
  0
VERTEX
  5
16A
  8
0
 62
     9
 10
0.0
 20
0.0
 30
0.0
 70
   128
 71
   103
 72
    99
 73
   102
  0
VERTEX
  5
16B
  8
0
 62
     9
 10
0.0
 20
0.0
 30
0.0
 70
   128
 71
    85
 72
   104
 73
    89
  0
VERTEX
  5
16C
  8
0
 62
     9
 10
0.0
 20
0.0
 30
0.0
 70
   128
 71
    85
 72
    79
 73
   104
  0
SEQEND
  5
16D
  8
0
  0
ENDBLK
  5
171
  8
0
  0
BLOCK
  8
0
  2
12550-11_1_
 70
     0
 10
0.0
 20
0.0
 30
0.0
  3
12550-11_1_
  1

  0
POLYLINE
  5
173
  8
0
 66
     1
 10
0.0
 20
0.0
 30
0.0
 70
    64
 71
   104
 72
   200
  0
VERTEX
  5
174
  8
0
 10
1061.996337890625
 20
18.90938758850098
 30
-45.80231094360352
 70
   192
  0
VERTEX
  5
175
  8
0
 10
1061.996337890625
 20
18.90937995910645
 30
-47.63050842285156
 70
   192
  0
VERTEX
  5
176
  8
0
 10
1057.496337890625
 20
18.90937805175781
 30
-47.73910140991211
 70
   192
  0
VERTEX
  5
177
  8
0
 10
1057.496337890625
 20
18.23035430908203
 30
-49.48638153076172
 70
   192
  0
VERTEX
  5
178
  8
0
 10
1061.996337890625
 20
18.3123836517334
 30
-49.37337875366211
 70
   192
  0
VERTEX
  5
179
  8
0
 10
1061.996337890625
 20
17.1184024810791
 30
-50.81373596191406
 70
   192
  0
VERTEX
  5
17A
  8
0
 10
1057.496337890625
 20
17.08194351196289
 30
-50.86396026611328
 70
   192
  0
VERTEX
  5
17B
  8
0
 10
1061.996337890625
 20
15.56440830230713
 30
-51.73372650146484
 70
   192
  0
VERTEX
  5
17C
  8
0
 10
1057.496337890625
 20
15.56440830230713
 30
-51.73372650146484
 70
   192
  0
VERTEX
  5
17D
  8
0
 10
1057.496337890625
 20
13.6777458190918
 30
-52.09568023681641
 70
   192
  0
VERTEX
  5
17E
  8
0
 10
1061.996337890625
 20
13.6777458190918
 30
-52.09568023681641
 70
   192
  0
VERTEX
  5
17F
  8
0
 10
1057.496337890625
 20
18.90938568115234
 30
-45.91090393066406
 70
   192
  0
VERTEX
  5
180
  8
0
 10
1057.496337890625
 20
18.31240272521973
 30
-44.16802597045898
 70
   192
  0
VERTEX
  5
181
  8
0
 10
1061.996337890625
 20
18.23037528991699
 30
-44.05501937866211
 70
   192
  0
VERTEX
  5
182
  8
0
 10
1057.496337890625
 20
17.11842727661133
 30
-42.72765350341797
 70
   192
  0
VERTEX
  5
183
  8
0
 10
1061.996337890625
 20
17.08197021484375
 30
-42.67742919921875
 70
   192
  0
VERTEX
  5
184
  8
0
 10
1061.996337890625
 20
15.56442642211914
 30
-41.80764770507812
 70
   192
  0
VERTEX
  5
185
  8
0
 10
1057.496337890625
 20
15.56442642211914
 30
-41.80764770507812
 70
   192
  0
VERTEX
  5
186
  8
0
 10
1061.996337890625
 20
13.6777458190918
 30
-41.44568252563477
 70
   192
  0
VERTEX
  5
187
  8
0
 10
1057.496337890625
 20
13.6777458190918
 30
-41.44568252563477
 70
   192
  0
VERTEX
  5
188
  8
0
 10
1063.996337890625
 20
19.58845329284668
 30
-45.77075576782227
 70
   192
  0
VERTEX
  5
189
  8
0
 10
1063.996337890625
 20
19.56462287902832
 30
-47.85986709594727
 70
   192
  0
VERTEX
  5
18A
  8
0
 10
1061.996337890625
 20
19.56462287902832
 30
-47.85986709594727
 70
   192
  0
VERTEX
  5
18B
  8
0
 10
1061.996337890625
 20
18.87407684326172
 30
-49.77048492431641
 70
   192
  0
VERTEX
  5
18C
  8
0
 10
1063.996337890625
 20
18.87407684326172
 30
-49.77048492431641
 70
   192
  0
VERTEX
  5
18D
  8
0
 10
1063.996337890625
 20
17.49894332885742
 30
-51.38961791992188
 70
   192
  0
VERTEX
  5
18E
  8
0
 10
1061.996337890625
 20
17.49894332885742
 30
-51.38961791992188
 70
   192
  0
VERTEX
  5
18F
  8
0
 10
1063.996337890625
 20
15.76683235168457
 30
-52.38968276977539
 70
   192
  0
VERTEX
  5
190
  8
0
 10
1061.996337890625
 20
15.76683235168457
 30
-52.38968276977539
 70
   192
  0
VERTEX
  5
191
  8
0
 10
1061.996337890625
 20
13.6777458190918
 30
-52.77068328857422
 70
   192
  0
VERTEX
  5
192
  8
0
 10
1063.996337890625
 20
13.6777458190918
 30
-52.77068328857422
 70
   192
  0
VERTEX
  5
193
  8
0
 10
1061.996337890625
 20
19.58845329284668
 30
-45.77075576782227
 70
   192
  0
VERTEX
  5
194
  8
0
 10
1061.996337890625
 20
18.87409782409668
 30
-43.77091979980469
 70
   192
  0
VERTEX
  5
195
  8
0
 10
1063.996337890625
 20
18.87409782409668
 30
-43.77091979980469
 70
   192
  0
VERTEX
  5
196
  8
0
 10
1061.996337890625
 20
17.56449890136719
 30
-42.2172966003418
 70
   192
  0
VERTEX
  5
197
  8
0
 10
1063.996337890625
 20
17.56449890136719
 30
-42.2172966003418
 70
   192
  0
VERTEX
  5
198
  8
0
 10
1063.996337890625
 20
15.76686477661133
 30
-41.15169525146484
 70
   192
  0
VERTEX
  5
199
  8
0
 10
1061.996337890625
 20
15.76686477661133
 30
-41.15169525146484
 70
   192
  0
VERTEX
  5
19A
  8
0
 10
1063.996337890625
 20
13.6777458190918
 30
-40.77068328857422
 70
   192
  0
VERTEX
  5
19B
  8
0
 10
1061.996337890625
 20
13.6777458190918
 30
-40.77068328857422
 70
   192
  0
VERTEX
  5
19C
  8
0
 10
1063.996337890625
 20
9.788309097290039
 30
-42.18655395507812
 70
   192
  0
VERTEX
  5
19D
  8
0
 10
1063.996337890625
 20
8.47947883605957
 30
-43.79969787597656
 70
   192
  0
VERTEX
  5
19E
  8
0
 10
1063.996337890625
 20
7.788299560546875
 30
-45.74723052978516
 70
   192
  0
VERTEX
  5
19F
  8
0
 10
1063.996337890625
 20
11.59356021881104
 30
-41.11132049560547
 70
   192
  0
VERTEX
  5
1A0
  8
0
 10
1063.996337890625
 20
7.780155181884766
 30
-47.83169937133789
 70
   192
  0
VERTEX
  5
1A1
  8
0
 10
1063.996337890625
 20
9.891092300415039
 30
-51.36714172363281
 70
   192
  0
VERTEX
  5
1A2
  8
0
 10
1063.996337890625
 20
8.534892082214355
 30
-49.79207229614258
 70
   192
  0
VERTEX
  5
1A3
  8
0
 10
1063.996337890625
 20
11.63392925262451
 30
-52.38156890869141
 70
   192
  0
VERTEX
  5
1A4
  8
0
 10
1061.996337890625
 20
11.58862686157227
 30
-52.38966751098633
 70
   192
  0
VERTEX
  5
1A5
  8
0
 10
1061.996337890625
 20
7.790869235992432
 30
-45.68149566650391
 70
   192
  0
VERTEX
  5
1A6
  8
0
 10
1061.996337890625
 20
7.767037868499756
 30
-47.77060699462891
 70
   192
  0
VERTEX
  5
1A7
  8
0
 10
1061.996337890625
 20
8.481393814086914
 30
-49.77044677734375
 70
   192
  0
VERTEX
  5
1A8
  8
0
 10
1061.996337890625
 20
9.790992736816406
 30
-51.32406616210938
 70
   192
  0
VERTEX
  5
1A9
  8
0
 10
1061.996337890625
 20
9.856549263000488
 30
-42.1517448425293
 70
   192
  0
VERTEX
  5
1AA
  8
0
 10
1061.996337890625
 20
8.481414794921875
 30
-43.77087783813477
 70
   192
  0
VERTEX
  5
1AB
  8
0
 10
1061.996337890625
 20
11.58865928649902
 30
-41.15167999267578
 70
   192
  0
VERTEX
  5
1AC
  8
0
 10
1061.996337890625
 20
8.450861930847168
 30
-45.86236953735352
 70
   192
  0
VERTEX
  5
1AD
  8
0
 10
1061.996337890625
 20
10.22587013244629
 30
-42.70226669311523
 70
   192
  0
VERTEX
  5
1AE
  8
0
 10
1061.996337890625
 20
11.82803153991699
 30
-41.74800109863281
 70
   192
  0
VERTEX
  5
1AF
  8
0
 10
1061.996337890625
 20
9.064284324645996
 30
-44.13393020629883
 70
   192
  0
VERTEX
  5
1B0
  8
0
 10
1061.996337890625
 20
10.31709098815918
 30
-50.85004043579102
 70
   192
  0
VERTEX
  5
1B1
  8
0
 10
1061.996337890625
 20
9.113463401794434
 30
-49.45216369628906
 70
   192
  0
VERTEX
  5
1B2
  8
0
 10
1061.996337890625
 20
8.443634033203125
 30
-47.71233367919922
 70
   192
  0
VERTEX
  5
1B3
  8
0
 10
1061.996337890625
 20
11.86385822296143
 30
-51.75034332275391
 70
   192
  0
VERTEX
  5
1B4
  8
0
 10
1057.496337890625
 20
9.064284324645996
 30
-49.40743255615234
 70
   192
  0
VERTEX
  5
1B5
  8
0
 10
1057.496337890625
 20
8.450861930847168
 30
-47.67899703979492
 70
   192
  0
VERTEX
  5
1B6
  8
0
 10
1057.496337890625
 20
10.22587013244629
 30
-50.83909606933594
 70
   192
  0
VERTEX
  5
1B7
  8
0
 10
1057.496337890625
 20
11.82803153991699
 30
-51.79336547851562
 70
   192
  0
VERTEX
  5
1B8
  8
0
 10
1057.496337890625
 20
11.86385822296143
 30
-41.79101943969727
 70
   192
  0
VERTEX
  5
1B9
  8
0
 10
1057.496337890625
 20
9.113463401794434
 30
-44.08919906616211
 70
   192
  0
VERTEX
  5
1BA
  8
0
 10
1057.496337890625
 20
10.31709098815918
 30
-42.69132614135742
 70
   192
  0
VERTEX
  5
1BB
  8
0
 10
1057.496337890625
 20
8.443634033203125
 30
-45.82902908325195
 70
   192
  0
VERTEX
  5
1BC
  8
0
 10
1062.996337890625
 20
16.31651878356934
 30
-49.35919952392578
 70
   192
  0
VERTEX
  5
1BD
  8
0
 10
1061.996337890625
 20
15.07458019256592
 30
-50.19584274291992
 70
   192
  0
VERTEX
  5
1BE
  8
0
 10
1061.996337890625
 20
16.24935340881348
 30
-49.40758514404297
 70
   192
  0
VERTEX
  5
1BF
  8
0
 10
1062.996337890625
 20
17.37774658203125
 30
-46.77068328857422
 70
   192
  0
VERTEX
  5
1C0
  8
0
 10
1062.996337890625
 20
17.07118034362793
 30
-48.22688674926758
 70
   192
  0
VERTEX
  5
1C1
  8
0
 10
1061.996337890625
 20
17.07118034362793
 30
-48.22688674926758
 70
   192
  0
VERTEX
  5
1C2
  8
0
 10
1061.996337890625
 20
12.24169921875
 30
-50.1676025390625
 70
   192
  0
VERTEX
  5
1C3
  8
0
 10
1062.996337890625
 20
12.28087997436523
 30
-50.19583129882812
 70
   192
  0
VERTEX
  5
1C4
  8
0
 10
1061.996337890625
 20
11.03894233703613
 30
-49.35915756225586
 70
   192
  0
VERTEX
  5
1C5
  8
0
 10
1062.996337890625
 20
13.73156642913818
 30
-50.45859146118164
 70
   192
  0
VERTEX
  5
1C6
  8
0
 10
1061.996337890625
 20
13.62389278411865
 30
-50.45859527587891
 70
   192
  0
VERTEX
  5
1C7
  8
0
 10
1062.996337890625
 20
15.11375999450684
 30
-50.1676139831543
 70
   192
  0
VERTEX
  5
1C8
  8
0
 10
1061.996337890625
 20
10.28429126739502
 30
-48.22685241699219
 70
   192
  0
VERTEX
  5
1C9
  8
0
 10
1062.996337890625
 20
11.10610961914062
 30
-49.40755462646484
 70
   192
  0
VERTEX
  5
1CA
  8
0
 10
1062.996337890625
 20
10.28429126739502
 30
-48.22685241699219
 70
   192
  0
VERTEX
  5
1CB
  8
0
 10
1062.996337890625
 20
9.97774600982666
 30
-46.77068328857422
 70
   192
  0
VERTEX
  5
1CC
  8
0
 10
1061.996337890625
 20
9.97774600982666
 30
-46.77068328857422
 70
   192
  0
VERTEX
  5
1CD
  8
0
 10
1061.996337890625
 20
17.37774658203125
 30
-46.77068328857422
 70
   192
  0
VERTEX
  5
1CE
  8
0
 10
1062.996337890625
 20
10.28537368774414
 30
-45.36262893676758
 70
   192
  0
VERTEX
  5
1CF
  8
0
 10
1062.996337890625
 20
12.23808288574219
 30
-43.38787078857422
 70
   192
  0
VERTEX
  5
1D0
  8
0
 10
1062.996337890625
 20
11.05438137054443
 30
-44.21612548828125
 70
   192
  0
VERTEX
  5
1D1
  8
0
 10
1062.996337890625
 20
16.26992988586426
 30
-44.14266586303711
 70
   192
  0
VERTEX
  5
1D2
  8
0
 10
1062.996337890625
 20
13.6777458190918
 30
-43.07068252563477
 70
   192
  0
VERTEX
  5
1D3
  8
0
 10
1062.996337890625
 20
15.06237983703613
 30
-43.35675430297852
 70
   192
  0
VERTEX
  5
1D4
  8
0
 10
1062.996337890625
 20
17.10396957397461
 30
-45.32250213623047
 70
   192
  0
VERTEX
  5
1D5
  8
0
 10
1061.996337890625
 20
15.11379241943359
 30
-43.37376403808594
 70
   192
  0
VERTEX
  5
1D6
  8
0
 10
1061.996337890625
 20
13.73159885406494
 30
-43.08277130126953
 70
   192
  0
VERTEX
  5
1D7
  8
0
 10
1061.996337890625
 20
16.31654930114746
 30
-44.18220520019531
 70
   192
  0
VERTEX
  5
1D8
  8
0
 10
1061.996337890625
 20
17.07120132446289
 30
-45.31451034545898
 70
   192
  0
VERTEX
  5
1D9
  8
0
 10
1061.996337890625
 20
12.28091144561768
 30
-43.34552383422852
 70
   192
  0
VERTEX
  5
1DA
  8
0
 10
1061.996337890625
 20
11.10613822937012
 30
-44.1337776184082
 70
   192
  0
VERTEX
  5
1DB
  8
0
 10
1061.996337890625
 20
10.28431129455566
 30
-45.31447601318359
 70
   192
  0
VERTEX
  5
1DC
  8
0
 62
     9
 10
0.0
 20
0.0
 30
0.0
 70
   128
 71
     3
 72
     2
 73
     1
  0
VERTEX
  5
1DD
  8
0
 62
     9
 10
0.0
 20
0.0
 30
0.0
 70
   128
 71
     5
 72
     2
 73
     4
  0
VERTEX
  5
1DE
  8
0
 62
     9
 10
0.0
 20
0.0
 30
0.0
 70
   128
 71
     3
 72
     4
 73
     2
  0
VERTEX
  5
1DF
  8
0
 62
     9
 10
0.0
 20
0.0
 30
0.0
 70
   128
 71
     5
 72
     7
 73
     6
  0
VERTEX
  5
1E0
  8
0
 62
     9
 10
0.0
 20
0.0
 30
0.0
 70
   128
 71
     7
 72
     5
 73
     4
  0
VERTEX
  5
1E1
  8
0
 62
     9
 10
0.0
 20
0.0
 30
0.0
 70
   128
 71
     9
 72
     8
 73
     6
  0
VERTEX
  5
1E2
  8
0
 62
     9
 10
0.0
 20
0.0
 30
0.0
 70
   128
 71
     6
 72
     7
 73
     9
  0
VERTEX
  5
1E3
  8
0
 62
     9
 10
0.0
 20
0.0
 30
0.0
 70
   128
 71
     9
 72
    10
 73
     8
  0
VERTEX
  5
1E4
  8
0
 62
     9
 10
0.0
 20
0.0
 30
0.0
 70
   128
 71
    10
 72
    11
 73
     8
  0
VERTEX
  5
1E5
  8
0
 62
     9
 10
0.0
 20
0.0
 30
0.0
 70
   128
 71
    12
 72
     3
 73
     1
  0
VERTEX
  5
1E6
  8
0
 62
     9
 10
0.0
 20
0.0
 30
0.0
 70
   128
 71
    12
 72
    14
 73
    13
  0
VERTEX
  5
1E7
  8
0
 62
     9
 10
0.0
 20
0.0
 30
0.0
 70
   128
 71
    14
 72
    12
 73
     1
  0
VERTEX
  5
1E8
  8
0
 62
     9
 10
0.0
 20
0.0
 30
0.0
 70
   128
 71
    16
 72
    15
 73
    13
  0
VERTEX
  5
1E9
  8
0
 62
     9
 10
0.0
 20
0.0
 30
0.0
 70
   128
 71
    13
 72
    14
 73
    16
  0
VERTEX
  5
1EA
  8
0
 62
     9
 10
0.0
 20
0.0
 30
0.0
 70
   128
 71
    18
 72
    15
 73
    17
  0
VERTEX
  5
1EB
  8
0
 62
     9
 10
0.0
 20
0.0
 30
0.0
 70
   128
 71
    16
 72
    17
 73
    15
  0
VERTEX
  5
1EC
  8
0
 62
     9
 10
0.0
 20
0.0
 30
0.0
 70
   128
 71
    19
 72
    18
 73
    17
  0
VERTEX
  5
1ED
  8
0
 62
     9
 10
0.0
 20
0.0
 30
0.0
 70
   128
 71
    20
 72
    18
 73
    19
  0
VERTEX
  5
1EE
  8
0
 62
     7
 10
0.0
 20
0.0
 30
0.0
 70
   128
 71
    23
 72
    22
 73
    21
  0
VERTEX
  5
1EF
  8
0
 62
     7
 10
0.0
 20
0.0
 30
0.0
 70
   128
 71
    25
 72
    22
 73
    24
  0
VERTEX
  5
1F0
  8
0
 62
     7
 10
0.0
 20
0.0
 30
0.0
 70
   128
 71
    23
 72
    24
 73
    22
  0
VERTEX
  5
1F1
  8
0
 62
     7
 10
0.0
 20
0.0
 30
0.0
 70
   128
 71
    25
 72
    27
 73
    26
  0
VERTEX
  5
1F2
  8
0
 62
     7
 10
0.0
 20
0.0
 30
0.0
 70
   128
 71
    27
 72
    25
 73
    24
  0
VERTEX
  5
1F3
  8
0
 62
     7
 10
0.0
 20
0.0
 30
0.0
 70
   128
 71
    29
 72
    28
 73
    26
  0
VERTEX
  5
1F4
  8
0
 62
     7
 10
0.0
 20
0.0
 30
0.0
 70
   128
 71
    26
 72
    27
 73
    29
  0
VERTEX
  5
1F5
  8
0
 62
     7
 10
0.0
 20
0.0
 30
0.0
 70
   128
 71
    29
 72
    30
 73
    28
  0
VERTEX
  5
1F6
  8
0
 62
     7
 10
0.0
 20
0.0
 30
0.0
 70
   128
 71
    30
 72
    31
 73
    28
  0
VERTEX
  5
1F7
  8
0
 62
     7
 10
0.0
 20
0.0
 30
0.0
 70
   128
 71
    32
 72
    23
 73
    21
  0
VERTEX
  5
1F8
  8
0
 62
     7
 10
0.0
 20
0.0
 30
0.0
 70
   128
 71
    32
 72
    34
 73
    33
  0
VERTEX
  5
1F9
  8
0
 62
     7
 10
0.0
 20
0.0
 30
0.0
 70
   128
 71
    34
 72
    32
 73
    21
  0
VERTEX
  5
1FA
  8
0
 62
     7
 10
0.0
 20
0.0
 30
0.0
 70
   128
 71
    36
 72
    35
 73
    33
  0
VERTEX
  5
1FB
  8
0
 62
     7
 10
0.0
 20
0.0
 30
0.0
 70
   128
 71
    33
 72
    34
 73
    36
  0
VERTEX
  5
1FC
  8
0
 62
     7
 10
0.0
 20
0.0
 30
0.0
 70
   128
 71
    38
 72
    35
 73
    37
  0
VERTEX
  5
1FD
  8
0
 62
     7
 10
0.0
 20
0.0
 30
0.0
 70
   128
 71
    36
 72
    37
 73
    35
  0
VERTEX
  5
1FE
  8
0
 62
     7
 10
0.0
 20
0.0
 30
0.0
 70
   128
 71
    39
 72
    38
 73
    37
  0
VERTEX
  5
1FF
  8
0
 62
     7
 10
0.0
 20
0.0
 30
0.0
 70
   128
 71
    40
 72
    38
 73
    39
  0
VERTEX
  5
200
  8
0
 62
     7
 10
0.0
 20
0.0
 30
0.0
 70
   128
 71
    43
 72
    42
 73
    41
  0
VERTEX
  5
201
  8
0
 62
     7
 10
0.0
 20
0.0
 30
0.0
 70
   128
 71
    21
 72
    36
 73
    34
  0
VERTEX
  5
202
  8
0
 62
     7
 10
0.0
 20
0.0
 30
0.0
 70
   128
 71
    43
 72
    44
 73
    37
  0
VERTEX
  5
203
  8
0
 62
     7
 10
0.0
 20
0.0
 30
0.0
 70
   128
 71
    44
 72
    43
 73
    41
  0
VERTEX
  5
204
  8
0
 62
     7
 10
0.0
 20
0.0
 30
0.0
 70
   128
 71
    43
 72
    36
 73
    45
  0
VERTEX
  5
205
  8
0
 62
     7
 10
0.0
 20
0.0
 30
0.0
 70
   128
 71
    45
 72
    36
 73
    46
  0
VERTEX
  5
206
  8
0
 62
     7
 10
0.0
 20
0.0
 30
0.0
 70
   128
 71
    45
 72
    46
 73
    47
  0
VERTEX
  5
207
  8
0
 62
     7
 10
0.0
 20
0.0
 30
0.0
 70
   128
 71
    28
 72
    31
 73
    48
  0
VERTEX
  5
208
  8
0
 62
     7
 10
0.0
 20
0.0
 30
0.0
 70
   128
 71
    26
 72
    22
 73
    25
  0
VERTEX
  5
209
  8
0
 62
     7
 10
0.0
 20
0.0
 30
0.0
 70
   128
 71
    28
 72
    48
 73
    22
  0
VERTEX
  5
20A
  8
0
 62
     7
 10
0.0
 20
0.0
 30
0.0
 70
   128
 71
    26
 72
    28
 73
    22
  0
VERTEX
  5
20B
  8
0
 62
     7
 10
0.0
 20
0.0
 30
0.0
 70
   128
 71
    21
 72
    22
 73
    46
  0
VERTEX
  5
20C
  8
0
 62
     7
 10
0.0
 20
0.0
 30
0.0
 70
   128
 71
    48
 72
    46
 73
    22
  0
VERTEX
  5
20D
  8
0
 62
     7
 10
0.0
 20
0.0
 30
0.0
 70
   128
 71
    36
 72
    21
 73
    46
  0
VERTEX
  5
20E
  8
0
 62
     7
 10
0.0
 20
0.0
 30
0.0
 70
   128
 71
    37
 72
    36
 73
    43
  0
VERTEX
  5
20F
  8
0
 62
     7
 10
0.0
 20
0.0
 30
0.0
 70
   128
 71
    44
 72
    39
 73
    37
  0
VERTEX
  5
210
  8
0
 62
     7
 10
0.0
 20
0.0
 30
0.0
 70
   128
 71
    48
 72
    31
 73
    49
  0
VERTEX
  5
211
  8
0
 62
     7
 10
0.0
 20
0.0
 30
0.0
 70
   128
 71
    45
 72
    51
 73
    50
  0
VERTEX
  5
212
  8
0
 62
     7
 10
0.0
 20
0.0
 30
0.0
 70
   128
 71
    53
 72
    52
 73
    46
  0
VERTEX
  5
213
  8
0
 62
     7
 10
0.0
 20
0.0
 30
0.0
 70
   128
 71
    41
 72
    42
 73
    54
  0
VERTEX
  5
214
  8
0
 62
     7
 10
0.0
 20
0.0
 30
0.0
 70
   128
 71
    55
 72
    43
 73
    50
  0
VERTEX
  5
215
  8
0
 62
     7
 10
0.0
 20
0.0
 30
0.0
 70
   128
 71
    41
 72
    56
 73
    44
  0
VERTEX
  5
216
  8
0
 62
     7
 10
0.0
 20
0.0
 30
0.0
 70
   128
 71
    56
 72
    41
 73
    54
  0
VERTEX
  5
217
  8
0
 62
     7
 10
0.0
 20
0.0
 30
0.0
 70
   128
 71
    40
 72
    39
 73
    44
  0
VERTEX
  5
218
  8
0
 62
     7
 10
0.0
 20
0.0
 30
0.0
 70
   128
 71
    44
 72
    56
 73
    40
  0
VERTEX
  5
219
  8
0
 62
     7
 10
0.0
 20
0.0
 30
0.0
 70
   128
 71
    43
 72
    55
 73
    42
  0
VERTEX
  5
21A
  8
0
 62
     7
 10
0.0
 20
0.0
 30
0.0
 70
   128
 71
    54
 72
    42
 73
    55
  0
VERTEX
  5
21B
  8
0
 62
     7
 10
0.0
 20
0.0
 30
0.0
 70
   128
 71
    51
 72
    45
 73
    47
  0
VERTEX
  5
21C
  8
0
 62
     7
 10
0.0
 20
0.0
 30
0.0
 70
   128
 71
    43
 72
    45
 73
    50
  0
VERTEX
  5
21D
  8
0
 62
     7
 10
0.0
 20
0.0
 30
0.0
 70
   128
 71
    52
 72
    47
 73
    46
  0
VERTEX
  5
21E
  8
0
 62
     7
 10
0.0
 20
0.0
 30
0.0
 70
   128
 71
    47
 72
    52
 73
    51
  0
VERTEX
  5
21F
  8
0
 62
     7
 10
0.0
 20
0.0
 30
0.0
 70
   128
 71
    49
 72
    53
 73
    48
  0
VERTEX
  5
220
  8
0
 62
     7
 10
0.0
 20
0.0
 30
0.0
 70
   128
 71
    48
 72
    53
 73
    46
  0
VERTEX
  5
221
  8
0
 62
     7
 10
0.0
 20
0.0
 30
0.0
 70
   128
 71
    30
 72
    49
 73
    31
  0
VERTEX
  5
222
  8
0
 62
     7
 10
0.0
 20
0.0
 30
0.0
 70
   128
 71
    33
 72
    35
 73
    14
  0
VERTEX
  5
223
  8
0
 62
     7
 10
0.0
 20
0.0
 30
0.0
 70
   128
 71
    24
 72
    23
 73
     5
  0
VERTEX
  5
224
  8
0
 62
     7
 10
0.0
 20
0.0
 30
0.0
 70
   128
 71
     2
 72
    23
 73
    32
  0
VERTEX
  5
225
  8
0
 62
     7
 10
0.0
 20
0.0
 30
0.0
 70
   128
 71
     1
 72
    32
 73
    33
  0
VERTEX
  5
226
  8
0
 62
     7
 10
0.0
 20
0.0
 30
0.0
 70
   128
 71
     6
 72
    27
 73
    24
  0
VERTEX
  5
227
  8
0
 62
     7
 10
0.0
 20
0.0
 30
0.0
 70
   128
 71
    35
 72
    38
 73
    16
  0
VERTEX
  5
228
  8
0
 62
     7
 10
0.0
 20
0.0
 30
0.0
 70
   128
 71
    56
 72
    19
 73
    40
  0
VERTEX
  5
229
  8
0
 62
     7
 10
0.0
 20
0.0
 30
0.0
 70
   128
 71
    51
 72
    57
 73
    50
  0
VERTEX
  5
22A
  8
0
 62
     7
 10
0.0
 20
0.0
 30
0.0
 70
   128
 71
    59
 72
    54
 73
    58
  0
VERTEX
  5
22B
  8
0
 62
     7
 10
0.0
 20
0.0
 30
0.0
 70
   128
 71
    55
 72
    50
 73
    60
  0
VERTEX
  5
22C
  8
0
 62
     7
 10
0.0
 20
0.0
 30
0.0
 70
   128
 71
    19
 72
    17
 73
    38
  0
VERTEX
  5
22D
  8
0
 62
     7
 10
0.0
 20
0.0
 30
0.0
 70
   128
 71
    53
 72
    49
 73
    61
  0
VERTEX
  5
22E
  8
0
 62
     7
 10
0.0
 20
0.0
 30
0.0
 70
   128
 71
    53
 72
    62
 73
    52
  0
VERTEX
  5
22F
  8
0
 62
     7
 10
0.0
 20
0.0
 30
0.0
 70
   128
 71
     8
 72
    29
 73
    27
  0
VERTEX
  5
230
  8
0
 62
     7
 10
0.0
 20
0.0
 30
0.0
 70
   128
 71
    51
 72
    52
 73
    63
  0
VERTEX
  5
231
  8
0
 62
     7
 10
0.0
 20
0.0
 30
0.0
 70
   128
 71
    19
 72
    38
 73
    40
  0
VERTEX
  5
232
  8
0
 62
     7
 10
0.0
 20
0.0
 30
0.0
 70
   128
 71
    58
 72
    54
 73
    55
  0
VERTEX
  5
233
  8
0
 62
     7
 10
0.0
 20
0.0
 30
0.0
 70
   128
 71
    17
 72
    16
 73
    38
  0
VERTEX
  5
234
  8
0
 62
     7
 10
0.0
 20
0.0
 30
0.0
 70
   128
 71
    16
 72
    14
 73
    35
  0
VERTEX
  5
235
  8
0
 62
     7
 10
0.0
 20
0.0
 30
0.0
 70
   128
 71
    14
 72
     1
 73
    33
  0
VERTEX
  5
236
  8
0
 62
     7
 10
0.0
 20
0.0
 30
0.0
 70
   128
 71
     1
 72
     2
 73
    32
  0
VERTEX
  5
237
  8
0
 62
     7
 10
0.0
 20
0.0
 30
0.0
 70
   128
 71
     2
 72
     5
 73
    23
  0
VERTEX
  5
238
  8
0
 62
     7
 10
0.0
 20
0.0
 30
0.0
 70
   128
 71
     5
 72
     6
 73
    24
  0
VERTEX
  5
239
  8
0
 62
     7
 10
0.0
 20
0.0
 30
0.0
 70
   128
 71
     6
 72
     8
 73
    27
  0
VERTEX
  5
23A
  8
0
 62
     7
 10
0.0
 20
0.0
 30
0.0
 70
   128
 71
     8
 72
    11
 73
    29
  0
VERTEX
  5
23B
  8
0
 62
     7
 10
0.0
 20
0.0
 30
0.0
 70
   128
 71
    30
 72
    11
 73
    49
  0
VERTEX
  5
23C
  8
0
 62
     7
 10
0.0
 20
0.0
 30
0.0
 70
   128
 71
    11
 72
    30
 73
    29
  0
VERTEX
  5
23D
  8
0
 62
     7
 10
0.0
 20
0.0
 30
0.0
 70
   128
 71
    64
 72
    61
 73
    49
  0
VERTEX
  5
23E
  8
0
 62
     7
 10
0.0
 20
0.0
 30
0.0
 70
   128
 71
    11
 72
    64
 73
    49
  0
VERTEX
  5
23F
  8
0
 62
     7
 10
0.0
 20
0.0
 30
0.0
 70
   128
 71
    61
 72
    62
 73
    53
  0
VERTEX
  5
240
  8
0
 62
     7
 10
0.0
 20
0.0
 30
0.0
 70
   128
 71
    62
 72
    63
 73
    52
  0
VERTEX
  5
241
  8
0
 62
     7
 10
0.0
 20
0.0
 30
0.0
 70
   128
 71
    63
 72
    57
 73
    51
  0
VERTEX
  5
242
  8
0
 62
     7
 10
0.0
 20
0.0
 30
0.0
 70
   128
 71
    57
 72
    60
 73
    50
  0
VERTEX
  5
243
  8
0
 62
     7
 10
0.0
 20
0.0
 30
0.0
 70
   128
 71
    60
 72
    58
 73
    55
  0
VERTEX
  5
244
  8
0
 62
     7
 10
0.0
 20
0.0
 30
0.0
 70
   128
 71
    59
 72
    56
 73
    54
  0
VERTEX
  5
245
  8
0
 62
     7
 10
0.0
 20
0.0
 30
0.0
 70
   128
 71
    56
 72
    59
 73
    19
  0
VERTEX
  5
246
  8
0
 62
     9
 10
0.0
 20
0.0
 30
0.0
 70
   128
 71
    67
 72
    66
 73
    65
  0
VERTEX
  5
247
  8
0
 62
     9
 10
0.0
 20
0.0
 30
0.0
 70
   128
 71
    68
 72
     4
 73
    12
  0
VERTEX
  5
248
  8
0
 62
     9
 10
0.0
 20
0.0
 30
0.0
 70
   128
 71
     7
 72
     4
 73
     9
  0
VERTEX
  5
249
  8
0
 62
     9
 10
0.0
 20
0.0
 30
0.0
 70
   128
 71
    15
 72
    67
 73
    12
  0
VERTEX
  5
24A
  8
0
 62
     9
 10
0.0
 20
0.0
 30
0.0
 70
   128
 71
    12
 72
     4
 73
     3
  0
VERTEX
  5
24B
  8
0
 62
     9
 10
0.0
 20
0.0
 30
0.0
 70
   128
 71
    15
 72
    12
 73
    13
  0
VERTEX
  5
24C
  8
0
 62
     9
 10
0.0
 20
0.0
 30
0.0
 70
   128
 71
    20
 72
    69
 73
    18
  0
VERTEX
  5
24D
  8
0
 62
     9
 10
0.0
 20
0.0
 30
0.0
 70
   128
 71
    66
 72
    18
 73
    70
  0
VERTEX
  5
24E
  8
0
 62
     9
 10
0.0
 20
0.0
 30
0.0
 70
   128
 71
    71
 72
    70
 73
    69
  0
VERTEX
  5
24F
  8
0
 62
     9
 10
0.0
 20
0.0
 30
0.0
 70
   128
 71
    18
 72
    69
 73
    70
  0
VERTEX
  5
250
  8
0
 62
     9
 10
0.0
 20
0.0
 30
0.0
 70
   128
 71
    66
 72
    70
 73
    72
  0
VERTEX
  5
251
  8
0
 62
     9
 10
0.0
 20
0.0
 30
0.0
 70
   128
 71
    66
 72
    67
 73
    15
  0
VERTEX
  5
252
  8
0
 62
     9
 10
0.0
 20
0.0
 30
0.0
 70
   128
 71
    18
 72
    66
 73
    15
  0
VERTEX
  5
253
  8
0
 62
     9
 10
0.0
 20
0.0
 30
0.0
 70
   128
 71
     9
 72
     4
 73
    68
  0
VERTEX
  5
254
  8
0
 62
     9
 10
0.0
 20
0.0
 30
0.0
 70
   128
 71
    67
 72
    68
 73
    12
  0
VERTEX
  5
255
  8
0
 62
     9
 10
0.0
 20
0.0
 30
0.0
 70
   128
 71
    68
 72
    10
 73
     9
  0
VERTEX
  5
256
  8
0
 62
     9
 10
0.0
 20
0.0
 30
0.0
 70
   128
 71
    64
 72
    11
 73
    68
  0
VERTEX
  5
257
  8
0
 62
     9
 10
0.0
 20
0.0
 30
0.0
 70
   128
 71
    63
 72
    66
 73
    72
  0
VERTEX
  5
258
  8
0
 62
     9
 10
0.0
 20
0.0
 30
0.0
 70
   128
 71
    67
 72
    65
 73
    61
  0
VERTEX
  5
259
  8
0
 62
     9
 10
0.0
 20
0.0
 30
0.0
 70
   128
 71
    58
 72
    60
 73
    71
  0
VERTEX
  5
25A
  8
0
 62
     9
 10
0.0
 20
0.0
 30
0.0
 70
   128
 71
    70
 72
    57
 73
    72
  0
VERTEX
  5
25B
  8
0
 62
     9
 10
0.0
 20
0.0
 30
0.0
 70
   128
 71
    58
 72
    69
 73
    59
  0
VERTEX
  5
25C
  8
0
 62
     9
 10
0.0
 20
0.0
 30
0.0
 70
   128
 71
    69
 72
    58
 73
    71
  0
VERTEX
  5
25D
  8
0
 62
     9
 10
0.0
 20
0.0
 30
0.0
 70
   128
 71
    20
 72
    19
 73
    59
  0
VERTEX
  5
25E
  8
0
 62
     9
 10
0.0
 20
0.0
 30
0.0
 70
   128
 71
    59
 72
    69
 73
    20
  0
VERTEX
  5
25F
  8
0
 62
     9
 10
0.0
 20
0.0
 30
0.0
 70
   128
 71
    57
 72
    70
 73
    60
  0
VERTEX
  5
260
  8
0
 62
     9
 10
0.0
 20
0.0
 30
0.0
 70
   128
 71
    71
 72
    60
 73
    70
  0
VERTEX
  5
261
  8
0
 62
     9
 10
0.0
 20
0.0
 30
0.0
 70
   128
 71
    66
 72
    63
 73
    62
  0
VERTEX
  5
262
  8
0
 62
     9
 10
0.0
 20
0.0
 30
0.0
 70
   128
 71
    57
 72
    63
 73
    72
  0
VERTEX
  5
263
  8
0
 62
     9
 10
0.0
 20
0.0
 30
0.0
 70
   128
 71
    65
 72
    62
 73
    61
  0
VERTEX
  5
264
  8
0
 62
     9
 10
0.0
 20
0.0
 30
0.0
 70
   128
 71
    62
 72
    65
 73
    66
  0
VERTEX
  5
265
  8
0
 62
     9
 10
0.0
 20
0.0
 30
0.0
 70
   128
 71
    68
 72
    67
 73
    64
  0
VERTEX
  5
266
  8
0
 62
     9
 10
0.0
 20
0.0
 30
0.0
 70
   128
 71
    64
 72
    67
 73
    61
  0
VERTEX
  5
267
  8
0
 62
     9
 10
0.0
 20
0.0
 30
0.0
 70
   128
 71
    10
 72
    68
 73
    11
  0
VERTEX
  5
268
  8
0
 62
     7
 10
0.0
 20
0.0
 30
0.0
 70
   128
 71
    75
 72
    74
 73
    73
  0
VERTEX
  5
269
  8
0
 62
     7
 10
0.0
 20
0.0
 30
0.0
 70
   128
 71
    78
 72
    77
 73
    76
  0
VERTEX
  5
26A
  8
0
 62
     7
 10
0.0
 20
0.0
 30
0.0
 70
   128
 71
    81
 72
    80
 73
    79
  0
VERTEX
  5
26B
  8
0
 62
     7
 10
0.0
 20
0.0
 30
0.0
 70
   128
 71
    84
 72
    83
 73
    82
  0
VERTEX
  5
26C
  8
0
 62
     7
 10
0.0
 20
0.0
 30
0.0
 70
   128
 71
    87
 72
    86
 73
    85
  0
VERTEX
  5
26D
  8
0
 62
     7
 10
0.0
 20
0.0
 30
0.0
 70
   128
 71
    81
 72
    85
 73
    86
  0
VERTEX
  5
26E
  8
0
 62
     7
 10
0.0
 20
0.0
 30
0.0
 70
   128
 71
    87
 72
    89
 73
    88
  0
VERTEX
  5
26F
  8
0
 62
     7
 10
0.0
 20
0.0
 30
0.0
 70
   128
 71
    89
 72
    87
 73
    85
  0
VERTEX
  5
270
  8
0
 62
     7
 10
0.0
 20
0.0
 30
0.0
 70
   128
 71
    80
 72
    82
 73
    79
  0
VERTEX
  5
271
  8
0
 62
     7
 10
0.0
 20
0.0
 30
0.0
 70
   128
 71
    86
 72
    80
 73
    81
  0
VERTEX
  5
272
  8
0
 62
     7
 10
0.0
 20
0.0
 30
0.0
 70
   128
 71
    84
 72
    74
 73
    83
  0
VERTEX
  5
273
  8
0
 62
     7
 10
0.0
 20
0.0
 30
0.0
 70
   128
 71
    82
 72
    83
 73
    79
  0
VERTEX
  5
274
  8
0
 62
     7
 10
0.0
 20
0.0
 30
0.0
 70
   128
 71
    77
 72
    75
 73
    73
  0
VERTEX
  5
275
  8
0
 62
     7
 10
0.0
 20
0.0
 30
0.0
 70
   128
 71
    73
 72
    74
 73
    84
  0
VERTEX
  5
276
  8
0
 62
     7
 10
0.0
 20
0.0
 30
0.0
 70
   128
 71
    90
 72
    78
 73
    76
  0
VERTEX
  5
277
  8
0
 62
     7
 10
0.0
 20
0.0
 30
0.0
 70
   128
 71
    78
 72
    75
 73
    77
  0
VERTEX
  5
278
  8
0
 62
     7
 10
0.0
 20
0.0
 30
0.0
 70
   128
 71
    93
 72
    92
 73
    91
  0
VERTEX
  5
279
  8
0
 62
     7
 10
0.0
 20
0.0
 30
0.0
 70
   128
 71
    94
 72
    82
 73
    86
  0
VERTEX
  5
27A
  8
0
 62
     7
 10
0.0
 20
0.0
 30
0.0
 70
   128
 71
    95
 72
    87
 73
    92
  0
VERTEX
  5
27B
  8
0
 62
     7
 10
0.0
 20
0.0
 30
0.0
 70
   128
 71
    96
 72
    94
 73
    95
  0
VERTEX
  5
27C
  8
0
 62
     7
 10
0.0
 20
0.0
 30
0.0
 70
   128
 71
    95
 72
    86
 73
    87
  0
VERTEX
  5
27D
  8
0
 62
     7
 10
0.0
 20
0.0
 30
0.0
 70
   128
 71
    77
 72
    84
 73
    97
  0
VERTEX
  5
27E
  8
0
 62
     7
 10
0.0
 20
0.0
 30
0.0
 70
   128
 71
    95
 72
    94
 73
    86
  0
VERTEX
  5
27F
  8
0
 62
     7
 10
0.0
 20
0.0
 30
0.0
 70
   128
 71
    77
 72
    97
 73
    76
  0
VERTEX
  5
280
  8
0
 62
     7
 10
0.0
 20
0.0
 30
0.0
 70
   128
 71
    97
 72
    84
 73
    82
  0
VERTEX
  5
281
  8
0
 62
     7
 10
0.0
 20
0.0
 30
0.0
 70
   128
 71
    77
 72
    73
 73
    84
  0
VERTEX
  5
282
  8
0
 62
     7
 10
0.0
 20
0.0
 30
0.0
 70
   128
 71
    80
 72
    86
 73
    82
  0
VERTEX
  5
283
  8
0
 62
     7
 10
0.0
 20
0.0
 30
0.0
 70
   128
 71
    94
 72
    97
 73
    82
  0
VERTEX
  5
284
  8
0
 62
     7
 10
0.0
 20
0.0
 30
0.0
 70
   128
 71
    92
 72
    87
 73
    91
  0
VERTEX
  5
285
  8
0
 62
     7
 10
0.0
 20
0.0
 30
0.0
 70
   128
 71
    87
 72
    88
 73
    91
  0
VERTEX
  5
286
  8
0
 62
     7
 10
0.0
 20
0.0
 30
0.0
 70
   128
 71
    99
 72
    98
 73
    95
  0
VERTEX
  5
287
  8
0
 62
     7
 10
0.0
 20
0.0
 30
0.0
 70
   128
 71
   100
 72
    96
 73
    98
  0
VERTEX
  5
288
  8
0
 62
     7
 10
0.0
 20
0.0
 30
0.0
 70
   128
 71
    95
 72
    98
 73
    96
  0
VERTEX
  5
289
  8
0
 62
     7
 10
0.0
 20
0.0
 30
0.0
 70
   128
 71
    94
 72
   100
 73
   101
  0
VERTEX
  5
28A
  8
0
 62
     7
 10
0.0
 20
0.0
 30
0.0
 70
   128
 71
   100
 72
    94
 73
    96
  0
VERTEX
  5
28B
  8
0
 62
     7
 10
0.0
 20
0.0
 30
0.0
 70
   128
 71
   101
 72
    90
 73
    97
  0
VERTEX
  5
28C
  8
0
 62
     7
 10
0.0
 20
0.0
 30
0.0
 70
   128
 71
    97
 72
    94
 73
   101
  0
VERTEX
  5
28D
  8
0
 62
     7
 10
0.0
 20
0.0
 30
0.0
 70
   128
 71
    97
 72
    90
 73
    76
  0
VERTEX
  5
28E
  8
0
 62
     7
 10
0.0
 20
0.0
 30
0.0
 70
   128
 71
    95
 72
    92
 73
    99
  0
VERTEX
  5
28F
  8
0
 62
     7
 10
0.0
 20
0.0
 30
0.0
 70
   128
 71
    92
 72
    93
 73
   102
  0
VERTEX
  5
290
  8
0
 62
     7
 10
0.0
 20
0.0
 30
0.0
 70
   128
 71
   102
 72
    99
 73
    92
  0
VERTEX
  5
291
  8
0
 62
     7
 10
0.0
 20
0.0
 30
0.0
 70
   128
 71
    91
 72
   103
 73
    93
  0
VERTEX
  5
292
  8
0
 62
     7
 10
0.0
 20
0.0
 30
0.0
 70
   128
 71
   102
 72
    93
 73
   103
  0
VERTEX
  5
293
  8
0
 62
     7
 10
0.0
 20
0.0
 30
0.0
 70
   128
 71
   104
 72
    91
 73
    88
  0
VERTEX
  5
294
  8
0
 62
     7
 10
0.0
 20
0.0
 30
0.0
 70
   128
 71
    91
 72
   104
 73
   103
  0
VERTEX
  5
295
  8
0
 62
     7
 10
0.0
 20
0.0
 30
0.0
 70
   128
 71
    89
 72
   104
 73
    88
  0
VERTEX
  5
296
  8
0
 62
     9
 10
0.0
 20
0.0
 30
0.0
 70
   128
 71
   103
 72
    83
 73
    75
  0
VERTEX
  5
297
  8
0
 62
     9
 10
0.0
 20
0.0
 30
0.0
 70
   128
 71
   104
 72
    79
 73
    83
  0
VERTEX
  5
298
  8
0
 62
     9
 10
0.0
 20
0.0
 30
0.0
 70
   128
 71
    81
 72
    79
 73
    85
  0
VERTEX
  5
299
  8
0
 62
     9
 10
0.0
 20
0.0
 30
0.0
 70
   128
 71
    74
 72
    75
 73
    83
  0
VERTEX
  5
29A
  8
0
 62
     9
 10
0.0
 20
0.0
 30
0.0
 70
   128
 71
    83
 72
   103
 73
   104
  0
VERTEX
  5
29B
  8
0
 62
     9
 10
0.0
 20
0.0
 30
0.0
 70
   128
 71
   101
 72
    98
 73
    78
  0
VERTEX
  5
29C
  8
0
 62
     9
 10
0.0
 20
0.0
 30
0.0
 70
   128
 71
   101
 72
    78
 73
    90
  0
VERTEX
  5
29D
  8
0
 62
     9
 10
0.0
 20
0.0
 30
0.0
 70
   128
 71
    98
 72
    99
 73
    78
  0
VERTEX
  5
29E
  8
0
 62
     9
 10
0.0
 20
0.0
 30
0.0
 70
   128
 71
   100
 72
    98
 73
   101
  0
VERTEX
  5
29F
  8
0
 62
     9
 10
0.0
 20
0.0
 30
0.0
 70
   128
 71
    75
 72
    78
 73
    99
  0
VERTEX
  5
2A0
  8
0
 62
     9
 10
0.0
 20
0.0
 30
0.0
 70
   128
 71
   103
 72
    75
 73
    99
  0
VERTEX
  5
2A1
  8
0
 62
     9
 10
0.0
 20
0.0
 30
0.0
 70
   128
 71
   103
 72
    99
 73
   102
  0
VERTEX
  5
2A2
  8
0
 62
     9
 10
0.0
 20
0.0
 30
0.0
 70
   128
 71
    85
 72
   104
 73
    89
  0
VERTEX
  5
2A3
  8
0
 62
     9
 10
0.0
 20
0.0
 30
0.0
 70
   128
 71
    85
 72
    79
 73
   104
  0
SEQEND
  5
2A4
  8
0
  0
ENDBLK
  5
2A7
  8
0
  0
BLOCK
  8
0
  2
12550-10
 70
     0
 10
0.0
 20
0.0
 30
0.0
  3
12550-10
  1

  0
POLYLINE
  5
2A9
  8
0
 62
     9
 66
     1
 10
0.0
 20
0.0
 30
0.0
 70
    64
 71
    32
 72
    60
  0
VERTEX
  5
2AA
  8
0
 10
1061.996337890625
 20
13.58927917480469
 30
-85.591796875
 70
   192
  0
VERTEX
  5
2AB
  8
0
 10
591.996337890625
 20
13.58863925933838
 30
-85.59230041503906
 70
   192
  0
VERTEX
  5
2AC
  8
0
 10
1061.996337890625
 20
11.34744071960449
 30
-86.06295013427734
 70
   192
  0
VERTEX
  5
2AD
  8
0
 10
1061.996337890625
 20
9.400038719177246
 30
-87.37245178222656
 70
   192
  0
VERTEX
  5
2AE
  8
0
 10
591.996337890625
 20
11.34426212310791
 30
-86.06492614746094
 70
   192
  0
VERTEX
  5
2AF
  8
0
 10
591.996337890625
 20
9.396239280700684
 30
-87.37724304199219
 70
   192
  0
VERTEX
  5
2B0
  8
0
 10
1061.996337890625
 20
8.176807403564453
 30
-89.20835876464844
 70
   192
  0
VERTEX
  5
2B1
  8
0
 10
591.996337890625
 20
8.174067497253418
 30
-89.21249389648438
 70
   192
  0
VERTEX
  5
2B2
  8
0
 10
1061.996337890625
 20
7.677745819091797
 30
-91.5706787109375
 70
   192
  0
VERTEX
  5
2B3
  8
0
 10
591.996337890625
 20
7.677745819091797
 30
-91.5706787109375
 70
   192
  0
VERTEX
  5
2B4
  8
0
 10
591.996337890625
 20
15.94859504699707
 30
-86.01873779296875
 70
   192
  0
VERTEX
  5
2B5
  8
0
 10
1061.996337890625
 20
15.94542598724365
 30
-86.01747131347656
 70
   192
  0
VERTEX
  5
2B6
  8
0
 10
591.996337890625
 20
17.85187911987305
 30
-87.29805755615234
 70
   192
  0
VERTEX
  5
2B7
  8
0
 10
1061.996337890625
 20
17.84804916381836
 30
-87.29448699951172
 70
   192
  0
VERTEX
  5
2B8
  8
0
 10
591.996337890625
 20
19.18142509460449
 30
-89.21249389648438
 70
   192
  0
VERTEX
  5
2B9
  8
0
 10
591.996337890625
 20
19.6777458190918
 30
-91.5706787109375
 70
   192
  0
VERTEX
  5
2BA
  8
0
 10
1061.996337890625
 20
19.17869567871094
 30
-89.20838165283203
 70
   192
  0
VERTEX
  5
2BB
  8
0
 10
1061.996337890625
 20
19.6777458190918
 30
-91.5706787109375
 70
   192
  0
VERTEX
  5
2BC
  8
0
 10
1061.996337890625
 20
8.17679500579834
 30
-93.9329833984375
 70
   192
  0
VERTEX
  5
2BD
  8
0
 10
591.996337890625
 20
8.174067497253418
 30
-93.92887115478516
 70
   192
  0
VERTEX
  5
2BE
  8
0
 10
591.996337890625
 20
13.76685237884521
 30
-97.54906463623047
 70
   192
  0
VERTEX
  5
2BF
  8
0
 10
1061.996337890625
 20
13.76621246337891
 30
-97.54956817626953
 70
   192
  0
VERTEX
  5
2C0
  8
0
 10
591.996337890625
 20
11.40689659118652
 30
-97.12262725830078
 70
   192
  0
VERTEX
  5
2C1
  8
0
 10
591.996337890625
 20
9.503613471984863
 30
-95.84330749511719
 70
   192
  0
VERTEX
  5
2C2
  8
0
 10
1061.996337890625
 20
11.41006565093994
 30
-97.12388610839844
 70
   192
  0
VERTEX
  5
2C3
  8
0
 10
1061.996337890625
 20
9.507442474365234
 30
-95.84687805175781
 70
   192
  0
VERTEX
  5
2C4
  8
0
 10
1061.996337890625
 20
19.17868423461914
 30
-93.9330062866211
 70
   192
  0
VERTEX
  5
2C5
  8
0
 10
1061.996337890625
 20
17.95545387268066
 30
-95.76891326904297
 70
   192
  0
VERTEX
  5
2C6
  8
0
 10
591.996337890625
 20
17.95925331115723
 30
-95.76412200927734
 70
   192
  0
VERTEX
  5
2C7
  8
0
 10
1061.996337890625
 20
16.0080509185791
 30
-97.07841491699219
 70
   192
  0
VERTEX
  5
2C8
  8
0
 10
591.996337890625
 20
16.01123046875
 30
-97.0764389038086
 70
   192
  0
VERTEX
  5
2C9
  8
0
 10
591.996337890625
 20
19.18142509460449
 30
-93.92887115478516
 70
   192
  0
VERTEX
  5
2CA
  8
0
 62
     9
 10
0.0
 20
0.0
 30
0.0
 70
   128
 71
     3
 72
     2
 73
     1
  0
VERTEX
  5
2CB
  8
0
 62
     9
 10
0.0
 20
0.0
 30
0.0
 70
   128
 71
     5
 72
     3
 73
     4
  0
VERTEX
  5
2CC
  8
0
 62
     9
 10
0.0
 20
0.0
 30
0.0
 70
   128
 71
     3
 72
     5
 73
     2
  0
VERTEX
  5
2CD
  8
0
 62
     9
 10
0.0
 20
0.0
 30
0.0
 70
   128
 71
     4
 72
     7
 73
     6
  0
VERTEX
  5
2CE
  8
0
 62
     9
 10
0.0
 20
0.0
 30
0.0
 70
   128
 71
     6
 72
     5
 73
     4
  0
VERTEX
  5
2CF
  8
0
 62
     9
 10
0.0
 20
0.0
 30
0.0
 70
   128
 71
     9
 72
     8
 73
     7
  0
VERTEX
  5
2D0
  8
0
 62
     9
 10
0.0
 20
0.0
 30
0.0
 70
   128
 71
     6
 72
     7
 73
     8
  0
VERTEX
  5
2D1
  8
0
 62
     9
 10
0.0
 20
0.0
 30
0.0
 70
   128
 71
     9
 72
    10
 73
     8
  0
VERTEX
  5
2D2
  8
0
 62
     9
 10
0.0
 20
0.0
 30
0.0
 70
   128
 71
     2
 72
    11
 73
     1
  0
VERTEX
  5
2D3
  8
0
 62
     9
 10
0.0
 20
0.0
 30
0.0
 70
   128
 71
    11
 72
    13
 73
    12
  0
VERTEX
  5
2D4
  8
0
 62
     9
 10
0.0
 20
0.0
 30
0.0
 70
   128
 71
    12
 72
     1
 73
    11
  0
VERTEX
  5
2D5
  8
0
 62
     9
 10
0.0
 20
0.0
 30
0.0
 70
   128
 71
    15
 72
    14
 73
    13
  0
VERTEX
  5
2D6
  8
0
 62
     9
 10
0.0
 20
0.0
 30
0.0
 70
   128
 71
    12
 72
    13
 73
    14
  0
VERTEX
  5
2D7
  8
0
 62
     9
 10
0.0
 20
0.0
 30
0.0
 70
   128
 71
    17
 72
    15
 73
    16
  0
VERTEX
  5
2D8
  8
0
 62
     9
 10
0.0
 20
0.0
 30
0.0
 70
   128
 71
    15
 72
    17
 73
    14
  0
VERTEX
  5
2D9
  8
0
 62
     9
 10
0.0
 20
0.0
 30
0.0
 70
   128
 71
    18
 72
    17
 73
    16
  0
VERTEX
  5
2DA
  8
0
 62
     9
 10
0.0
 20
0.0
 30
0.0
 70
   128
 71
    20
 72
    10
 73
    19
  0
VERTEX
  5
2DB
  8
0
 62
     9
 10
0.0
 20
0.0
 30
0.0
 70
   128
 71
    23
 72
    22
 73
    21
  0
VERTEX
  5
2DC
  8
0
 62
     9
 10
0.0
 20
0.0
 30
0.0
 70
   128
 71
    26
 72
    25
 73
    24
  0
VERTEX
  5
2DD
  8
0
 62
     9
 10
0.0
 20
0.0
 30
0.0
 70
   128
 71
    29
 72
    28
 73
    27
  0
VERTEX
  5
2DE
  8
0
 62
     9
 10
0.0
 20
0.0
 30
0.0
 70
   128
 71
    28
 72
    31
 73
    30
  0
VERTEX
  5
2DF
  8
0
 62
     9
 10
0.0
 20
0.0
 30
0.0
 70
   128
 71
    27
 72
    18
 73
    32
  0
VERTEX
  5
2E0
  8
0
 62
     9
 10
0.0
 20
0.0
 30
0.0
 70
   128
 71
    32
 72
    29
 73
    27
  0
VERTEX
  5
2E1
  8
0
 62
     9
 10
0.0
 20
0.0
 30
0.0
 70
   128
 71
    32
 72
    18
 73
    16
  0
VERTEX
  5
2E2
  8
0
 62
     9
 10
0.0
 20
0.0
 30
0.0
 70
   128
 71
    21
 72
    30
 73
    31
  0
VERTEX
  5
2E3
  8
0
 62
     9
 10
0.0
 20
0.0
 30
0.0
 70
   128
 71
    29
 72
    31
 73
    28
  0
VERTEX
  5
2E4
  8
0
 62
     9
 10
0.0
 20
0.0
 30
0.0
 70
   128
 71
    23
 72
    25
 73
    22
  0
VERTEX
  5
2E5
  8
0
 62
     9
 10
0.0
 20
0.0
 30
0.0
 70
   128
 71
    21
 72
    22
 73
    30
  0
VERTEX
  5
2E6
  8
0
 62
     9
 10
0.0
 20
0.0
 30
0.0
 70
   128
 71
    20
 72
    26
 73
    24
  0
VERTEX
  5
2E7
  8
0
 62
     9
 10
0.0
 20
0.0
 30
0.0
 70
   128
 71
    24
 72
    25
 73
    23
  0
VERTEX
  5
2E8
  8
0
 62
     9
 10
0.0
 20
0.0
 30
0.0
 70
   128
 71
     9
 72
    19
 73
    10
  0
VERTEX
  5
2E9
  8
0
 62
     9
 10
0.0
 20
0.0
 30
0.0
 70
   128
 71
    19
 72
    26
 73
    20
  0
VERTEX
  5
2EA
  8
0
 62
     9
 10
0.0
 20
0.0
 30
0.0
 70
   128
 71
    28
 72
    30
 73
    27
  0
VERTEX
  5
2EB
  8
0
 62
     9
 10
0.0
 20
0.0
 30
0.0
 70
   128
 71
    27
 72
    30
 73
     3
  0
VERTEX
  5
2EC
  8
0
 62
     9
 10
0.0
 20
0.0
 30
0.0
 70
   128
 71
    26
 72
     7
 73
    22
  0
VERTEX
  5
2ED
  8
0
 62
     9
 10
0.0
 20
0.0
 30
0.0
 70
   128
 71
     9
 72
     7
 73
    19
  0
VERTEX
  5
2EE
  8
0
 62
     9
 10
0.0
 20
0.0
 30
0.0
 70
   128
 71
    22
 72
    25
 73
    26
  0
VERTEX
  5
2EF
  8
0
 62
     9
 10
0.0
 20
0.0
 30
0.0
 70
   128
 71
    26
 72
    19
 73
     7
  0
VERTEX
  5
2F0
  8
0
 62
     9
 10
0.0
 20
0.0
 30
0.0
 70
   128
 71
     7
 72
    30
 73
    22
  0
VERTEX
  5
2F1
  8
0
 62
     9
 10
0.0
 20
0.0
 30
0.0
 70
   128
 71
    30
 72
     7
 73
     3
  0
VERTEX
  5
2F2
  8
0
 62
     9
 10
0.0
 20
0.0
 30
0.0
 70
   128
 71
     7
 72
     4
 73
     3
  0
VERTEX
  5
2F3
  8
0
 62
     9
 10
0.0
 20
0.0
 30
0.0
 70
   128
 71
    27
 72
     3
 73
     1
  0
VERTEX
  5
2F4
  8
0
 62
     9
 10
0.0
 20
0.0
 30
0.0
 70
   128
 71
    27
 72
     1
 73
    14
  0
VERTEX
  5
2F5
  8
0
 62
     9
 10
0.0
 20
0.0
 30
0.0
 70
   128
 71
    17
 72
    27
 73
    14
  0
VERTEX
  5
2F6
  8
0
 62
     9
 10
0.0
 20
0.0
 30
0.0
 70
   128
 71
    12
 72
    14
 73
     1
  0
VERTEX
  5
2F7
  8
0
 62
     9
 10
0.0
 20
0.0
 30
0.0
 70
   128
 71
    17
 72
    18
 73
    27
  0
VERTEX
  5
2F8
  8
0
 62
     9
 10
0.0
 20
0.0
 30
0.0
 70
   128
 71
    31
 72
    29
 73
    32
  0
VERTEX
  5
2F9
  8
0
 62
     9
 10
0.0
 20
0.0
 30
0.0
 70
   128
 71
     8
 72
    32
 73
     5
  0
VERTEX
  5
2FA
  8
0
 62
     9
 10
0.0
 20
0.0
 30
0.0
 70
   128
 71
    24
 72
    21
 73
    31
  0
VERTEX
  5
2FB
  8
0
 62
     9
 10
0.0
 20
0.0
 30
0.0
 70
   128
 71
     8
 72
    10
 73
    20
  0
VERTEX
  5
2FC
  8
0
 62
     9
 10
0.0
 20
0.0
 30
0.0
 70
   128
 71
    23
 72
    21
 73
    24
  0
VERTEX
  5
2FD
  8
0
 62
     9
 10
0.0
 20
0.0
 30
0.0
 70
   128
 71
    20
 72
    24
 73
     8
  0
VERTEX
  5
2FE
  8
0
 62
     9
 10
0.0
 20
0.0
 30
0.0
 70
   128
 71
     8
 72
    24
 73
    31
  0
VERTEX
  5
2FF
  8
0
 62
     9
 10
0.0
 20
0.0
 30
0.0
 70
   128
 71
     5
 72
     6
 73
     8
  0
VERTEX
  5
300
  8
0
 62
     9
 10
0.0
 20
0.0
 30
0.0
 70
   128
 71
    31
 72
    32
 73
     8
  0
VERTEX
  5
301
  8
0
 62
     9
 10
0.0
 20
0.0
 30
0.0
 70
   128
 71
     5
 72
    32
 73
    13
  0
VERTEX
  5
302
  8
0
 62
     9
 10
0.0
 20
0.0
 30
0.0
 70
   128
 71
     5
 72
    13
 73
     2
  0
VERTEX
  5
303
  8
0
 62
     9
 10
0.0
 20
0.0
 30
0.0
 70
   128
 71
    13
 72
    32
 73
    15
  0
VERTEX
  5
304
  8
0
 62
     9
 10
0.0
 20
0.0
 30
0.0
 70
   128
 71
    13
 72
    11
 73
     2
  0
VERTEX
  5
305
  8
0
 62
     9
 10
0.0
 20
0.0
 30
0.0
 70
   128
 71
    16
 72
    15
 73
    32
  0
SEQEND
  5
306
  8
0
 62
     9
  0
ENDBLK
  5
309
  8
0
  0
BLOCK
  8
0
  2
12550-10_1_
 70
     0
 10
0.0
 20
0.0
 30
0.0
  3
12550-10_1_
  1

  0
POLYLINE
  5
30B
  8
0
 62
     9
 66
     1
 10
0.0
 20
0.0
 30
0.0
 70
    64
 71
    32
 72
    60
  0
VERTEX
  5
30C
  8
0
 10
591.996337890625
 20
13.58863925933838
 30
-52.74906539916992
 70
   192
  0
VERTEX
  5
30D
  8
0
 10
1061.996337890625
 20
13.58922958374023
 30
-52.74956512451172
 70
   192
  0
VERTEX
  5
30E
  8
0
 10
591.996337890625
 20
11.34426212310791
 30
-52.27643585205078
 70
   192
  0
VERTEX
  5
30F
  8
0
 10
591.996337890625
 20
9.396239280700684
 30
-50.9641227722168
 70
   192
  0
VERTEX
  5
310
  8
0
 10
1061.996337890625
 20
11.34739780426025
 30
-52.27839660644531
 70
   192
  0
VERTEX
  5
311
  8
0
 10
1061.996337890625
 20
9.400012016296387
 30
-50.96888732910156
 70
   192
  0
VERTEX
  5
312
  8
0
 10
591.996337890625
 20
8.174067497253418
 30
-49.12887191772461
 70
   192
  0
VERTEX
  5
313
  8
0
 10
1061.996337890625
 20
8.17679500579834
 30
-49.13298416137695
 70
   192
  0
VERTEX
  5
314
  8
0
 10
591.996337890625
 20
7.677745819091797
 30
-46.77068328857422
 70
   192
  0
VERTEX
  5
315
  8
0
 10
1061.996337890625
 20
7.677745819091797
 30
-46.77068328857422
 70
   192
  0
VERTEX
  5
316
  8
0
 10
1061.996337890625
 20
15.9453821182251
 30
-52.32390594482422
 70
   192
  0
VERTEX
  5
317
  8
0
 10
591.996337890625
 20
15.94859504699707
 30
-52.32262802124023
 70
   192
  0
VERTEX
  5
318
  8
0
 10
1061.996337890625
 20
17.84802055358887
 30
-51.04689788818359
 70
   192
  0
VERTEX
  5
319
  8
0
 10
591.996337890625
 20
17.85187911987305
 30
-51.04330825805664
 70
   192
  0
VERTEX
  5
31A
  8
0
 10
1061.996337890625
 20
19.17868423461914
 30
-49.13300323486328
 70
   192
  0
VERTEX
  5
31B
  8
0
 10
1061.996337890625
 20
19.6777458190918
 30
-46.77068328857422
 70
   192
  0
VERTEX
  5
31C
  8
0
 10
591.996337890625
 20
19.18142509460449
 30
-49.12887191772461
 70
   192
  0
VERTEX
  5
31D
  8
0
 10
591.996337890625
 20
19.6777458190918
 30
-46.77068328857422
 70
   192
  0
VERTEX
  5
31E
  8
0
 10
591.996337890625
 20
8.174067497253418
 30
-44.41249084472656
 70
   192
  0
VERTEX
  5
31F
  8
0
 10
1061.996337890625
 20
8.176807403564453
 30
-44.40835952758789
 70
   192
  0
VERTEX
  5
320
  8
0
 10
1061.996337890625
 20
13.76626205444336
 30
-40.79179763793945
 70
   192
  0
VERTEX
  5
321
  8
0
 10
591.996337890625
 20
13.76685237884521
 30
-40.79229736328125
 70
   192
  0
VERTEX
  5
322
  8
0
 10
1061.996337890625
 20
11.4101095199585
 30
-41.21745681762695
 70
   192
  0
VERTEX
  5
323
  8
0
 10
1061.996337890625
 20
9.507472038269043
 30
-42.49446487426758
 70
   192
  0
VERTEX
  5
324
  8
0
 10
591.996337890625
 20
11.40689659118652
 30
-41.2187385559082
 70
   192
  0
VERTEX
  5
325
  8
0
 10
591.996337890625
 20
9.503613471984863
 30
-42.49805450439453
 70
   192
  0
VERTEX
  5
326
  8
0
 10
591.996337890625
 20
19.18142509460449
 30
-44.41249084472656
 70
   192
  0
VERTEX
  5
327
  8
0
 10
591.996337890625
 20
17.95925331115723
 30
-42.57723999023438
 70
   192
  0
VERTEX
  5
328
  8
0
 10
1061.996337890625
 20
17.95547866821289
 30
-42.57247543334961
 70
   192
  0
VERTEX
  5
329
  8
0
 10
591.996337890625
 20
16.01123046875
 30
-41.26492691040039
 70
   192
  0
VERTEX
  5
32A
  8
0
 10
1061.996337890625
 20
16.00809478759766
 30
-41.26296615600586
 70
   192
  0
VERTEX
  5
32B
  8
0
 10
1061.996337890625
 20
19.17869567871094
 30
-44.40838241577148
 70
   192
  0
VERTEX
  5
32C
  8
0
 62
     9
 10
0.0
 20
0.0
 30
0.0
 70
   128
 71
     3
 72
     2
 73
     1
  0
VERTEX
  5
32D
  8
0
 62
     9
 10
0.0
 20
0.0
 30
0.0
 70
   128
 71
     5
 72
     3
 73
     4
  0
VERTEX
  5
32E
  8
0
 62
     9
 10
0.0
 20
0.0
 30
0.0
 70
   128
 71
     3
 72
     5
 73
     2
  0
VERTEX
  5
32F
  8
0
 62
     9
 10
0.0
 20
0.0
 30
0.0
 70
   128
 71
     4
 72
     7
 73
     6
  0
VERTEX
  5
330
  8
0
 62
     9
 10
0.0
 20
0.0
 30
0.0
 70
   128
 71
     6
 72
     5
 73
     4
  0
VERTEX
  5
331
  8
0
 62
     9
 10
0.0
 20
0.0
 30
0.0
 70
   128
 71
     9
 72
     8
 73
     7
  0
VERTEX
  5
332
  8
0
 62
     9
 10
0.0
 20
0.0
 30
0.0
 70
   128
 71
     6
 72
     7
 73
     8
  0
VERTEX
  5
333
  8
0
 62
     9
 10
0.0
 20
0.0
 30
0.0
 70
   128
 71
     9
 72
    10
 73
     8
  0
VERTEX
  5
334
  8
0
 62
     9
 10
0.0
 20
0.0
 30
0.0
 70
   128
 71
     2
 72
    11
 73
     1
  0
VERTEX
  5
335
  8
0
 62
     9
 10
0.0
 20
0.0
 30
0.0
 70
   128
 71
    11
 72
    13
 73
    12
  0
VERTEX
  5
336
  8
0
 62
     9
 10
0.0
 20
0.0
 30
0.0
 70
   128
 71
    12
 72
     1
 73
    11
  0
VERTEX
  5
337
  8
0
 62
     9
 10
0.0
 20
0.0
 30
0.0
 70
   128
 71
    15
 72
    14
 73
    13
  0
VERTEX
  5
338
  8
0
 62
     9
 10
0.0
 20
0.0
 30
0.0
 70
   128
 71
    12
 72
    13
 73
    14
  0
VERTEX
  5
339
  8
0
 62
     9
 10
0.0
 20
0.0
 30
0.0
 70
   128
 71
    17
 72
    15
 73
    16
  0
VERTEX
  5
33A
  8
0
 62
     9
 10
0.0
 20
0.0
 30
0.0
 70
   128
 71
    15
 72
    17
 73
    14
  0
VERTEX
  5
33B
  8
0
 62
     9
 10
0.0
 20
0.0
 30
0.0
 70
   128
 71
    18
 72
    17
 73
    16
  0
VERTEX
  5
33C
  8
0
 62
     9
 10
0.0
 20
0.0
 30
0.0
 70
   128
 71
    20
 72
    10
 73
    19
  0
VERTEX
  5
33D
  8
0
 62
     9
 10
0.0
 20
0.0
 30
0.0
 70
   128
 71
    23
 72
    22
 73
    21
  0
VERTEX
  5
33E
  8
0
 62
     9
 10
0.0
 20
0.0
 30
0.0
 70
   128
 71
    26
 72
    25
 73
    24
  0
VERTEX
  5
33F
  8
0
 62
     9
 10
0.0
 20
0.0
 30
0.0
 70
   128
 71
    29
 72
    28
 73
    27
  0
VERTEX
  5
340
  8
0
 62
     9
 10
0.0
 20
0.0
 30
0.0
 70
   128
 71
    28
 72
    31
 73
    30
  0
VERTEX
  5
341
  8
0
 62
     9
 10
0.0
 20
0.0
 30
0.0
 70
   128
 71
    27
 72
    18
 73
    32
  0
VERTEX
  5
342
  8
0
 62
     9
 10
0.0
 20
0.0
 30
0.0
 70
   128
 71
    32
 72
    29
 73
    27
  0
VERTEX
  5
343
  8
0
 62
     9
 10
0.0
 20
0.0
 30
0.0
 70
   128
 71
    32
 72
    18
 73
    16
  0
VERTEX
  5
344
  8
0
 62
     9
 10
0.0
 20
0.0
 30
0.0
 70
   128
 71
    21
 72
    30
 73
    31
  0
VERTEX
  5
345
  8
0
 62
     9
 10
0.0
 20
0.0
 30
0.0
 70
   128
 71
    29
 72
    31
 73
    28
  0
VERTEX
  5
346
  8
0
 62
     9
 10
0.0
 20
0.0
 30
0.0
 70
   128
 71
    23
 72
    25
 73
    22
  0
VERTEX
  5
347
  8
0
 62
     9
 10
0.0
 20
0.0
 30
0.0
 70
   128
 71
    21
 72
    22
 73
    30
  0
VERTEX
  5
348
  8
0
 62
     9
 10
0.0
 20
0.0
 30
0.0
 70
   128
 71
    20
 72
    26
 73
    24
  0
VERTEX
  5
349
  8
0
 62
     9
 10
0.0
 20
0.0
 30
0.0
 70
   128
 71
    24
 72
    25
 73
    23
  0
VERTEX
  5
34A
  8
0
 62
     9
 10
0.0
 20
0.0
 30
0.0
 70
   128
 71
     9
 72
    19
 73
    10
  0
VERTEX
  5
34B
  8
0
 62
     9
 10
0.0
 20
0.0
 30
0.0
 70
   128
 71
    19
 72
    26
 73
    20
  0
VERTEX
  5
34C
  8
0
 62
     9
 10
0.0
 20
0.0
 30
0.0
 70
   128
 71
    28
 72
    30
 73
    27
  0
VERTEX
  5
34D
  8
0
 62
     9
 10
0.0
 20
0.0
 30
0.0
 70
   128
 71
    27
 72
     7
 73
     3
  0
VERTEX
  5
34E
  8
0
 62
     9
 10
0.0
 20
0.0
 30
0.0
 70
   128
 71
    22
 72
    26
 73
    30
  0
VERTEX
  5
34F
  8
0
 62
     9
 10
0.0
 20
0.0
 30
0.0
 70
   128
 71
     9
 72
     7
 73
    19
  0
VERTEX
  5
350
  8
0
 62
     9
 10
0.0
 20
0.0
 30
0.0
 70
   128
 71
    22
 72
    25
 73
    26
  0
VERTEX
  5
351
  8
0
 62
     9
 10
0.0
 20
0.0
 30
0.0
 70
   128
 71
    26
 72
    19
 73
     7
  0
VERTEX
  5
352
  8
0
 62
     9
 10
0.0
 20
0.0
 30
0.0
 70
   128
 71
    26
 72
     7
 73
    30
  0
VERTEX
  5
353
  8
0
 62
     9
 10
0.0
 20
0.0
 30
0.0
 70
   128
 71
     4
 72
     3
 73
     7
  0
VERTEX
  5
354
  8
0
 62
     9
 10
0.0
 20
0.0
 30
0.0
 70
   128
 71
    27
 72
    30
 73
     7
  0
VERTEX
  5
355
  8
0
 62
     9
 10
0.0
 20
0.0
 30
0.0
 70
   128
 71
    27
 72
     3
 73
    14
  0
VERTEX
  5
356
  8
0
 62
     9
 10
0.0
 20
0.0
 30
0.0
 70
   128
 71
    14
 72
     3
 73
     1
  0
VERTEX
  5
357
  8
0
 62
     9
 10
0.0
 20
0.0
 30
0.0
 70
   128
 71
    27
 72
    14
 73
    17
  0
VERTEX
  5
358
  8
0
 62
     9
 10
0.0
 20
0.0
 30
0.0
 70
   128
 71
    12
 72
    14
 73
     1
  0
VERTEX
  5
359
  8
0
 62
     9
 10
0.0
 20
0.0
 30
0.0
 70
   128
 71
    17
 72
    18
 73
    27
  0
VERTEX
  5
35A
  8
0
 62
     9
 10
0.0
 20
0.0
 30
0.0
 70
   128
 71
    31
 72
    29
 73
    32
  0
VERTEX
  5
35B
  8
0
 62
     9
 10
0.0
 20
0.0
 30
0.0
 70
   128
 71
    31
 72
    32
 73
     5
  0
VERTEX
  5
35C
  8
0
 62
     9
 10
0.0
 20
0.0
 30
0.0
 70
   128
 71
     8
 72
    24
 73
    21
  0
VERTEX
  5
35D
  8
0
 62
     9
 10
0.0
 20
0.0
 30
0.0
 70
   128
 71
     8
 72
    10
 73
    20
  0
VERTEX
  5
35E
  8
0
 62
     9
 10
0.0
 20
0.0
 30
0.0
 70
   128
 71
    23
 72
    21
 73
    24
  0
VERTEX
  5
35F
  8
0
 62
     9
 10
0.0
 20
0.0
 30
0.0
 70
   128
 71
    20
 72
    24
 73
     8
  0
VERTEX
  5
360
  8
0
 62
     9
 10
0.0
 20
0.0
 30
0.0
 70
   128
 71
    31
 72
     8
 73
    21
  0
VERTEX
  5
361
  8
0
 62
     9
 10
0.0
 20
0.0
 30
0.0
 70
   128
 71
     8
 72
    31
 73
     5
  0
VERTEX
  5
362
  8
0
 62
     9
 10
0.0
 20
0.0
 30
0.0
 70
   128
 71
     6
 72
     8
 73
     5
  0
VERTEX
  5
363
  8
0
 62
     9
 10
0.0
 20
0.0
 30
0.0
 70
   128
 71
     5
 72
    32
 73
     2
  0
VERTEX
  5
364
  8
0
 62
     9
 10
0.0
 20
0.0
 30
0.0
 70
   128
 71
     2
 72
    32
 73
    13
  0
VERTEX
  5
365
  8
0
 62
     9
 10
0.0
 20
0.0
 30
0.0
 70
   128
 71
    32
 72
    15
 73
    13
  0
VERTEX
  5
366
  8
0
 62
     9
 10
0.0
 20
0.0
 30
0.0
 70
   128
 71
    13
 72
    11
 73
     2
  0
VERTEX
  5
367
  8
0
 62
     9
 10
0.0
 20
0.0
 30
0.0
 70
   128
 71
    16
 72
    15
 73
    32
  0
SEQEND
  5
368
  8
0
 62
     9
  0
ENDBLK
  5
36B
  8
0
  0
BLOCK
  8
0
  2
12550-04
 70
     0
 10
0.0
 20
0.0
 30
0.0
  3
12550-04
  1

  0
POLYLINE
  5
36D
  8
0
 66
     1
 10
0.0
 20
0.0
 30
0.0
 70
    64
 71
    76
 72
   148
  0
VERTEX
  5
36E
  8
0
 10
588.3712158203125
 20
9.111163139343262
 30
-78.0706787109375
 70
   192
  0
VERTEX
  5
36F
  8
0
 10
585.8963623046875
 20
8.427745819091797
 30
-78.0706787109375
 70
   192
  0
VERTEX
  5
370
  8
0
 10
585.8963623046875
 20
8.427745819091797
 30
-80.67068481445312
 70
   192
  0
VERTEX
  5
371
  8
0
 10
588.3712158203125
 20
9.111163139343262
 30
-80.67068481445312
 70
   192
  0
VERTEX
  5
372
  8
0
 10
590.3628540039062
 20
10.96124744415283
 30
-78.0706787109375
 70
   192
  0
VERTEX
  5
373
  8
0
 10
590.3628540039062
 20
10.96124744415283
 30
-80.67068481445312
 70
   192
  0
VERTEX
  5
374
  8
0
 10
591.1463623046875
 20
13.6777458190918
 30
-78.0706787109375
 70
   192
  0
VERTEX
  5
375
  8
0
 10
591.1463623046875
 20
13.6777458190918
 30
-80.67068481445312
 70
   192
  0
VERTEX
  5
376
  8
0
 10
583.1798706054688
 20
9.211247444152832
 30
-80.67068481445312
 70
   192
  0
VERTEX
  5
377
  8
0
 10
583.1798706054688
 20
9.211247444152832
 30
-78.0706787109375
 70
   192
  0
VERTEX
  5
378
  8
0
 10
581.4298706054688
 20
10.96124744415283
 30
-80.67068481445312
 70
   192
  0
VERTEX
  5
379
  8
0
 10
580.6463623046875
 20
13.6777458190918
 30
-80.67068481445312
 70
   192
  0
VERTEX
  5
37A
  8
0
 10
581.4298706054688
 20
10.96124744415283
 30
-78.0706787109375
 70
   192
  0
VERTEX
  5
37B
  8
0
 10
580.6463623046875
 20
13.6777458190918
 30
-78.0706787109375
 70
   192
  0
VERTEX
  5
37C
  8
0
 10
576.56396484375
 20
11.94692802429199
 30
-80.67068481445312
 70
   192
  0
VERTEX
  5
37D
  8
0
 10
576.56396484375
 20
15.21348190307617
 30
-80.67068481445312
 70
   192
  0
VERTEX
  5
37E
  8
0
 10
576.56396484375
 20
15.21348190307617
 30
-102.6706848144531
 70
   192
  0
VERTEX
  5
37F
  8
0
 10
577.6309204101562
 20
18.32675552368164
 30
-102.6706848144531
 70
   192
  0
VERTEX
  5
380
  8
0
 10
577.6309204101562
 20
18.32675552368164
 30
-80.67068481445312
 70
   192
  0
VERTEX
  5
381
  8
0
 10
579.764892578125
 20
20.8965892791748
 30
-80.67068481445312
 70
   192
  0
VERTEX
  5
382
  8
0
 10
579.764892578125
 20
20.8965892791748
 30
-102.6706848144531
 70
   192
  0
VERTEX
  5
383
  8
0
 10
582.5365600585938
 20
22.53597259521484
 30
-80.67068481445312
 70
   192
  0
VERTEX
  5
384
  8
0
 10
582.5365600585938
 20
22.53597259521484
 30
-102.6706848144531
 70
   192
  0
VERTEX
  5
385
  8
0
 10
585.8963623046875
 20
23.1777458190918
 30
-102.6706848144531
 70
   192
  0
VERTEX
  5
386
  8
0
 10
585.8963623046875
 20
23.1777458190918
 30
-80.67068481445312
 70
   192
  0
VERTEX
  5
387
  8
0
 10
576.56396484375
 20
11.94692802429199
 30
-102.6706848144531
 70
   192
  0
VERTEX
  5
388
  8
0
 10
577.779541015625
 20
8.82724380493164
 30
-102.6706848144531
 70
   192
  0
VERTEX
  5
389
  8
0
 10
577.779541015625
 20
8.82724380493164
 30
-80.67068481445312
 70
   192
  0
VERTEX
  5
38A
  8
0
 10
579.8309326171875
 20
6.369350910186768
 30
-102.6706848144531
 70
   192
  0
VERTEX
  5
38B
  8
0
 10
579.8309326171875
 20
6.369350910186768
 30
-80.67068481445312
 70
   192
  0
VERTEX
  5
38C
  8
0
 10
582.5365600585938
 20
4.819518089294434
 30
-80.67068481445312
 70
   192
  0
VERTEX
  5
38D
  8
0
 10
582.5365600585938
 20
4.819518089294434
 30
-102.6706848144531
 70
   192
  0
VERTEX
  5
38E
  8
0
 10
585.8963623046875
 20
4.177745819091797
 30
-80.67068481445312
 70
   192
  0
VERTEX
  5
38F
  8
0
 10
585.8963623046875
 20
4.177745819091797
 30
-102.6706848144531
 70
   192
  0
VERTEX
  5
390
  8
0
 10
585.74072265625
 20
16.11446571350098
 30
-80.67068481445312
 70
   192
  0
VERTEX
  5
391
  8
0
 10
587.5744018554688
 20
15.50528526306152
 30
-78.0706787109375
 70
   192
  0
VERTEX
  5
392
  8
0
 10
585.74072265625
 20
16.11446571350098
 30
-78.0706787109375
 70
   192
  0
VERTEX
  5
393
  8
0
 10
588.3963623046875
 20
13.6777458190918
 30
-78.0706787109375
 70
   192
  0
VERTEX
  5
394
  8
0
 10
587.5744018554688
 20
15.50528526306152
 30
-80.67068481445312
 70
   192
  0
VERTEX
  5
395
  8
0
 10
588.3963623046875
 20
13.6777458190918
 30
-80.67068481445312
 70
   192
  0
VERTEX
  5
396
  8
0
 10
583.3963623046875
 20
13.6777458190918
 30
-78.0706787109375
 70
   192
  0
VERTEX
  5
397
  8
0
 10
583.3963623046875
 20
13.6777458190918
 30
-80.67068481445312
 70
   192
  0
VERTEX
  5
398
  8
0
 10
584.2183227539062
 20
15.50528526306152
 30
-78.0706787109375
 70
   192
  0
VERTEX
  5
399
  8
0
 10
584.2183227539062
 20
15.50528526306152
 30
-80.67068481445312
 70
   192
  0
VERTEX
  5
39A
  8
0
 10
586.052001953125
 20
11.24102592468262
 30
-78.0706787109375
 70
   192
  0
VERTEX
  5
39B
  8
0
 10
587.5744018554688
 20
11.85020637512207
 30
-80.67068481445312
 70
   192
  0
VERTEX
  5
39C
  8
0
 10
586.052001953125
 20
11.24102592468262
 30
-80.67068481445312
 70
   192
  0
VERTEX
  5
39D
  8
0
 10
587.5744018554688
 20
11.85020637512207
 30
-78.0706787109375
 70
   192
  0
VERTEX
  5
39E
  8
0
 10
584.2183227539062
 20
11.85020637512207
 30
-78.0706787109375
 70
   192
  0
VERTEX
  5
39F
  8
0
 10
584.2183227539062
 20
11.85020637512207
 30
-80.67068481445312
 70
   192
  0
VERTEX
  5
3A0
  8
0
 10
594.126953125
 20
18.38180732727051
 30
-102.6706848144531
 70
   192
  0
VERTEX
  5
3A1
  8
0
 10
589.1963500976562
 20
22.63839912414551
 30
-102.6706848144531
 70
   192
  0
VERTEX
  5
3A2
  8
0
 10
592.0546264648438
 20
20.93595123291016
 30
-102.6706848144531
 70
   192
  0
VERTEX
  5
3A3
  8
0
 10
591.8919067382812
 20
6.400019645690918
 30
-102.6706848144531
 70
   192
  0
VERTEX
  5
3A4
  8
0
 10
589.1323852539062
 20
4.79384183883667
 30
-102.6706848144531
 70
   192
  0
VERTEX
  5
3A5
  8
0
 10
595.2341918945312
 20
11.99780082702637
 30
-102.6706848144531
 70
   192
  0
VERTEX
  5
3A6
  8
0
 10
595.2213134765625
 20
15.29821014404297
 30
-102.6706848144531
 70
   192
  0
VERTEX
  5
3A7
  8
0
 10
594.0391845703125
 20
8.893880844116211
 30
-102.6706848144531
 70
   192
  0
VERTEX
  5
3A8
  8
0
 10
589.2561645507812
 20
22.53597259521484
 30
-80.67068481445312
 70
   192
  0
VERTEX
  5
3A9
  8
0
 10
595.228759765625
 20
15.4085636138916
 30
-80.67068481445312
 70
   192
  0
VERTEX
  5
3AA
  8
0
 10
591.9617919921875
 20
20.98614120483398
 30
-80.67068481445312
 70
   192
  0
VERTEX
  5
3AB
  8
0
 10
594.1618041992188
 20
9.028735160827637
 30
-80.67068481445312
 70
   192
  0
VERTEX
  5
3AC
  8
0
 10
592.02783203125
 20
6.458902835845947
 30
-80.67068481445312
 70
   192
  0
VERTEX
  5
3AD
  8
0
 10
595.228759765625
 20
12.14200973510742
 30
-80.67068481445312
 70
   192
  0
VERTEX
  5
3AE
  8
0
 10
589.2561645507812
 20
4.819518089294434
 30
-80.67068481445312
 70
   192
  0
VERTEX
  5
3AF
  8
0
 10
594.01318359375
 20
18.52824783325195
 30
-80.67068481445312
 70
   192
  0
VERTEX
  5
3B0
  8
0
 10
581.3634033203125
 20
16.34198379516602
 30
-80.67068481445312
 70
   192
  0
VERTEX
  5
3B1
  8
0
 10
583.322509765625
 20
18.20223999023438
 30
-80.67068481445312
 70
   192
  0
VERTEX
  5
3B2
  8
0
 10
585.9906616210938
 20
18.87495613098145
 30
-80.67068481445312
 70
   192
  0
VERTEX
  5
3B3
  8
0
 10
588.5695190429688
 20
18.1085376739502
 30
-80.67068481445312
 70
   192
  0
VERTEX
  5
3B4
  8
0
 10
590.394775390625
 20
16.26175880432129
 30
-80.67068481445312
 70
   192
  0
VERTEX
  5
3B5
  8
0
 10
590.3628540039062
 20
16.39424324035645
 30
-78.0706787109375
 70
   192
  0
VERTEX
  5
3B6
  8
0
 10
583.4215087890625
 20
18.24432754516602
 30
-78.0706787109375
 70
   192
  0
VERTEX
  5
3B7
  8
0
 10
585.8963623046875
 20
18.9277458190918
 30
-78.0706787109375
 70
   192
  0
VERTEX
  5
3B8
  8
0
 10
588.6128540039062
 20
18.14424324035645
 30
-78.0706787109375
 70
   192
  0
VERTEX
  5
3B9
  8
0
 10
581.4298706054688
 20
16.39424324035645
 30
-78.0706787109375
 70
   192
  0
VERTEX
  5
3BA
  8
0
 62
     7
 10
0.0
 20
0.0
 30
0.0
 70
   128
 71
     3
 72
     2
 73
     1
  0
VERTEX
  5
3BB
  8
0
 62
     7
 10
0.0
 20
0.0
 30
0.0
 70
   128
 71
     1
 72
     5
 73
     4
  0
VERTEX
  5
3BC
  8
0
 62
     7
 10
0.0
 20
0.0
 30
0.0
 70
   128
 71
     4
 72
     3
 73
     1
  0
VERTEX
  5
3BD
  8
0
 62
     7
 10
0.0
 20
0.0
 30
0.0
 70
   128
 71
     7
 72
     6
 73
     5
  0
VERTEX
  5
3BE
  8
0
 62
     7
 10
0.0
 20
0.0
 30
0.0
 70
   128
 71
     4
 72
     5
 73
     6
  0
VERTEX
  5
3BF
  8
0
 62
     7
 10
0.0
 20
0.0
 30
0.0
 70
   128
 71
     7
 72
     8
 73
     6
  0
VERTEX
  5
3C0
  8
0
 62
     7
 10
0.0
 20
0.0
 30
0.0
 70
   128
 71
     3
 72
     9
 73
     2
  0
VERTEX
  5
3C1
  8
0
 62
     7
 10
0.0
 20
0.0
 30
0.0
 70
   128
 71
    11
 72
    10
 73
     9
  0
VERTEX
  5
3C2
  8
0
 62
     7
 10
0.0
 20
0.0
 30
0.0
 70
   128
 71
     2
 72
     9
 73
    10
  0
VERTEX
  5
3C3
  8
0
 62
     7
 10
0.0
 20
0.0
 30
0.0
 70
   128
 71
    13
 72
    11
 73
    12
  0
VERTEX
  5
3C4
  8
0
 62
     7
 10
0.0
 20
0.0
 30
0.0
 70
   128
 71
    11
 72
    13
 73
    10
  0
VERTEX
  5
3C5
  8
0
 62
     7
 10
0.0
 20
0.0
 30
0.0
 70
   128
 71
    14
 72
    13
 73
    12
  0
VERTEX
  5
3C6
  8
0
 62
     9
 10
0.0
 20
0.0
 30
0.0
 70
   128
 71
    17
 72
    16
 73
    15
  0
VERTEX
  5
3C7
  8
0
 62
     9
 10
0.0
 20
0.0
 30
0.0
 70
   128
 71
    19
 72
    16
 73
    18
  0
VERTEX
  5
3C8
  8
0
 62
     9
 10
0.0
 20
0.0
 30
0.0
 70
   128
 71
    17
 72
    18
 73
    16
  0
VERTEX
  5
3C9
  8
0
 62
     9
 10
0.0
 20
0.0
 30
0.0
 70
   128
 71
    19
 72
    21
 73
    20
  0
VERTEX
  5
3CA
  8
0
 62
     9
 10
0.0
 20
0.0
 30
0.0
 70
   128
 71
    21
 72
    19
 73
    18
  0
VERTEX
  5
3CB
  8
0
 62
     9
 10
0.0
 20
0.0
 30
0.0
 70
   128
 71
    23
 72
    22
 73
    20
  0
VERTEX
  5
3CC
  8
0
 62
     9
 10
0.0
 20
0.0
 30
0.0
 70
   128
 71
    20
 72
    21
 73
    23
  0
VERTEX
  5
3CD
  8
0
 62
     9
 10
0.0
 20
0.0
 30
0.0
 70
   128
 71
    23
 72
    24
 73
    22
  0
VERTEX
  5
3CE
  8
0
 62
     9
 10
0.0
 20
0.0
 30
0.0
 70
   128
 71
    24
 72
    25
 73
    22
  0
VERTEX
  5
3CF
  8
0
 62
     9
 10
0.0
 20
0.0
 30
0.0
 70
   128
 71
    26
 72
    17
 73
    15
  0
VERTEX
  5
3D0
  8
0
 62
     9
 10
0.0
 20
0.0
 30
0.0
 70
   128
 71
    26
 72
    28
 73
    27
  0
VERTEX
  5
3D1
  8
0
 62
     9
 10
0.0
 20
0.0
 30
0.0
 70
   128
 71
    28
 72
    26
 73
    15
  0
VERTEX
  5
3D2
  8
0
 62
     9
 10
0.0
 20
0.0
 30
0.0
 70
   128
 71
    30
 72
    29
 73
    27
  0
VERTEX
  5
3D3
  8
0
 62
     9
 10
0.0
 20
0.0
 30
0.0
 70
   128
 71
    27
 72
    28
 73
    30
  0
VERTEX
  5
3D4
  8
0
 62
     9
 10
0.0
 20
0.0
 30
0.0
 70
   128
 71
    32
 72
    29
 73
    31
  0
VERTEX
  5
3D5
  8
0
 62
     9
 10
0.0
 20
0.0
 30
0.0
 70
   128
 71
    30
 72
    31
 73
    29
  0
VERTEX
  5
3D6
  8
0
 62
     9
 10
0.0
 20
0.0
 30
0.0
 70
   128
 71
    33
 72
    32
 73
    31
  0
VERTEX
  5
3D7
  8
0
 62
     9
 10
0.0
 20
0.0
 30
0.0
 70
   128
 71
    34
 72
    32
 73
    33
  0
VERTEX
  5
3D8
  8
0
 62
     7
 10
0.0
 20
0.0
 30
0.0
 70
   128
 71
    37
 72
    36
 73
    35
  0
VERTEX
  5
3D9
  8
0
 62
     7
 10
0.0
 20
0.0
 30
0.0
 70
   128
 71
    40
 72
    39
 73
    38
  0
VERTEX
  5
3DA
  8
0
 62
     7
 10
0.0
 20
0.0
 30
0.0
 70
   128
 71
    43
 72
    42
 73
    41
  0
VERTEX
  5
3DB
  8
0
 62
     7
 10
0.0
 20
0.0
 30
0.0
 70
   128
 71
    43
 72
    44
 73
    42
  0
VERTEX
  5
3DC
  8
0
 62
     7
 10
0.0
 20
0.0
 30
0.0
 70
   128
 71
    37
 72
    35
 73
    44
  0
VERTEX
  5
3DD
  8
0
 62
     7
 10
0.0
 20
0.0
 30
0.0
 70
   128
 71
    37
 72
    44
 73
    43
  0
VERTEX
  5
3DE
  8
0
 62
     7
 10
0.0
 20
0.0
 30
0.0
 70
   128
 71
    36
 72
    38
 73
    39
  0
VERTEX
  5
3DF
  8
0
 62
     7
 10
0.0
 20
0.0
 30
0.0
 70
   128
 71
    36
 72
    39
 73
    35
  0
VERTEX
  5
3E0
  8
0
 62
     7
 10
0.0
 20
0.0
 30
0.0
 70
   128
 71
    47
 72
    46
 73
    45
  0
VERTEX
  5
3E1
  8
0
 62
     7
 10
0.0
 20
0.0
 30
0.0
 70
   128
 71
    48
 72
    46
 73
    40
  0
VERTEX
  5
3E2
  8
0
 62
     7
 10
0.0
 20
0.0
 30
0.0
 70
   128
 71
    46
 72
    48
 73
    45
  0
VERTEX
  5
3E3
  8
0
 62
     7
 10
0.0
 20
0.0
 30
0.0
 70
   128
 71
    48
 72
    40
 73
    38
  0
VERTEX
  5
3E4
  8
0
 62
     7
 10
0.0
 20
0.0
 30
0.0
 70
   128
 71
    47
 72
    45
 73
    49
  0
VERTEX
  5
3E5
  8
0
 62
     7
 10
0.0
 20
0.0
 30
0.0
 70
   128
 71
    49
 72
    41
 73
    50
  0
VERTEX
  5
3E6
  8
0
 62
     7
 10
0.0
 20
0.0
 30
0.0
 70
   128
 71
    50
 72
    47
 73
    49
  0
VERTEX
  5
3E7
  8
0
 62
     7
 10
0.0
 20
0.0
 30
0.0
 70
   128
 71
    41
 72
    42
 73
    50
  0
VERTEX
  5
3E8
  8
0
 62
     9
 10
0.0
 20
0.0
 30
0.0
 70
   128
 71
    53
 72
    52
 73
    51
  0
VERTEX
  5
3E9
  8
0
 62
     9
 10
0.0
 20
0.0
 30
0.0
 70
   128
 71
    56
 72
    55
 73
    54
  0
VERTEX
  5
3EA
  8
0
 62
     9
 10
0.0
 20
0.0
 30
0.0
 70
   128
 71
    56
 72
    57
 73
    51
  0
VERTEX
  5
3EB
  8
0
 62
     9
 10
0.0
 20
0.0
 30
0.0
 70
   128
 71
    58
 72
    56
 73
    54
  0
VERTEX
  5
3EC
  8
0
 62
     9
 10
0.0
 20
0.0
 30
0.0
 70
   128
 71
    55
 72
    56
 73
    51
  0
VERTEX
  5
3ED
  8
0
 62
     9
 10
0.0
 20
0.0
 30
0.0
 70
   128
 71
    32
 72
    55
 73
    51
  0
VERTEX
  5
3EE
  8
0
 62
     9
 10
0.0
 20
0.0
 30
0.0
 70
   128
 71
    32
 72
    34
 73
    55
  0
VERTEX
  5
3EF
  8
0
 62
     9
 10
0.0
 20
0.0
 30
0.0
 70
   128
 71
    32
 72
    51
 73
    52
  0
VERTEX
  5
3F0
  8
0
 62
     9
 10
0.0
 20
0.0
 30
0.0
 70
   128
 71
    29
 72
    32
 73
    27
  0
VERTEX
  5
3F1
  8
0
 62
     9
 10
0.0
 20
0.0
 30
0.0
 70
   128
 71
    27
 72
    32
 73
    52
  0
VERTEX
  5
3F2
  8
0
 62
     9
 10
0.0
 20
0.0
 30
0.0
 70
   128
 71
    26
 72
    27
 73
    17
  0
VERTEX
  5
3F3
  8
0
 62
     9
 10
0.0
 20
0.0
 30
0.0
 70
   128
 71
    27
 72
    23
 73
    17
  0
VERTEX
  5
3F4
  8
0
 62
     9
 10
0.0
 20
0.0
 30
0.0
 70
   128
 71
    18
 72
    17
 73
    21
  0
VERTEX
  5
3F5
  8
0
 62
     9
 10
0.0
 20
0.0
 30
0.0
 70
   128
 71
    21
 72
    17
 73
    23
  0
VERTEX
  5
3F6
  8
0
 62
     9
 10
0.0
 20
0.0
 30
0.0
 70
   128
 71
    23
 72
    52
 73
    24
  0
VERTEX
  5
3F7
  8
0
 62
     9
 10
0.0
 20
0.0
 30
0.0
 70
   128
 71
    52
 72
    23
 73
    27
  0
VERTEX
  5
3F8
  8
0
 62
     9
 10
0.0
 20
0.0
 30
0.0
 70
   128
 71
    59
 72
    25
 73
    52
  0
VERTEX
  5
3F9
  8
0
 62
     9
 10
0.0
 20
0.0
 30
0.0
 70
   128
 71
    60
 72
    57
 73
    56
  0
VERTEX
  5
3FA
  8
0
 62
     9
 10
0.0
 20
0.0
 30
0.0
 70
   128
 71
    53
 72
    51
 73
    61
  0
VERTEX
  5
3FB
  8
0
 62
     9
 10
0.0
 20
0.0
 30
0.0
 70
   128
 71
    63
 72
    62
 73
    54
  0
VERTEX
  5
3FC
  8
0
 62
     9
 10
0.0
 20
0.0
 30
0.0
 70
   128
 71
    58
 72
    64
 73
    56
  0
VERTEX
  5
3FD
  8
0
 62
     9
 10
0.0
 20
0.0
 30
0.0
 70
   128
 71
    63
 72
    55
 73
    65
  0
VERTEX
  5
3FE
  8
0
 62
     9
 10
0.0
 20
0.0
 30
0.0
 70
   128
 71
    55
 72
    63
 73
    54
  0
VERTEX
  5
3FF
  8
0
 62
     9
 10
0.0
 20
0.0
 30
0.0
 70
   128
 71
    34
 72
    33
 73
    65
  0
VERTEX
  5
400
  8
0
 62
     9
 10
0.0
 20
0.0
 30
0.0
 70
   128
 71
    65
 72
    55
 73
    34
  0
VERTEX
  5
401
  8
0
 62
     9
 10
0.0
 20
0.0
 30
0.0
 70
   128
 71
    64
 72
    58
 73
    62
  0
VERTEX
  5
402
  8
0
 62
     9
 10
0.0
 20
0.0
 30
0.0
 70
   128
 71
    54
 72
    62
 73
    58
  0
VERTEX
  5
403
  8
0
 62
     9
 10
0.0
 20
0.0
 30
0.0
 70
   128
 71
    57
 72
    60
 73
    66
  0
VERTEX
  5
404
  8
0
 62
     9
 10
0.0
 20
0.0
 30
0.0
 70
   128
 71
    64
 72
    60
 73
    56
  0
VERTEX
  5
405
  8
0
 62
     9
 10
0.0
 20
0.0
 30
0.0
 70
   128
 71
    51
 72
    66
 73
    61
  0
VERTEX
  5
406
  8
0
 62
     9
 10
0.0
 20
0.0
 30
0.0
 70
   128
 71
    66
 72
    51
 73
    57
  0
VERTEX
  5
407
  8
0
 62
     9
 10
0.0
 20
0.0
 30
0.0
 70
   128
 71
    52
 72
    53
 73
    59
  0
VERTEX
  5
408
  8
0
 62
     9
 10
0.0
 20
0.0
 30
0.0
 70
   128
 71
    59
 72
    53
 73
    61
  0
VERTEX
  5
409
  8
0
 62
     9
 10
0.0
 20
0.0
 30
0.0
 70
   128
 71
    24
 72
    52
 73
    25
  0
VERTEX
  5
40A
  8
0
 62
     7
 10
0.0
 20
0.0
 30
0.0
 70
   128
 71
     3
 72
    65
 73
    33
  0
VERTEX
  5
40B
  8
0
 62
     7
 10
0.0
 20
0.0
 30
0.0
 70
   128
 71
    64
 72
    62
 73
     6
  0
VERTEX
  5
40C
  8
0
 62
     7
 10
0.0
 20
0.0
 30
0.0
 70
   128
 71
     4
 72
    65
 73
     3
  0
VERTEX
  5
40D
  8
0
 62
     7
 10
0.0
 20
0.0
 30
0.0
 70
   128
 71
    63
 72
     4
 73
     6
  0
VERTEX
  5
40E
  8
0
 62
     7
 10
0.0
 20
0.0
 30
0.0
 70
   128
 71
    31
 72
     9
 73
     3
  0
VERTEX
  5
40F
  8
0
 62
     7
 10
0.0
 20
0.0
 30
0.0
 70
   128
 71
    11
 72
     9
 73
    30
  0
VERTEX
  5
410
  8
0
 62
     7
 10
0.0
 20
0.0
 30
0.0
 70
   128
 71
     8
 72
    64
 73
     6
  0
VERTEX
  5
411
  8
0
 62
     7
 10
0.0
 20
0.0
 30
0.0
 70
   128
 71
    15
 72
    11
 73
    28
  0
VERTEX
  5
412
  8
0
 62
     7
 10
0.0
 20
0.0
 30
0.0
 70
   128
 71
    30
 72
    28
 73
    11
  0
VERTEX
  5
413
  8
0
 62
     7
 10
0.0
 20
0.0
 30
0.0
 70
   128
 71
    15
 72
    16
 73
    12
  0
VERTEX
  5
414
  8
0
 62
     7
 10
0.0
 20
0.0
 30
0.0
 70
   128
 71
    67
 72
    16
 73
    19
  0
VERTEX
  5
415
  8
0
 62
     7
 10
0.0
 20
0.0
 30
0.0
 70
   128
 71
    68
 72
    67
 73
    20
  0
VERTEX
  5
416
  8
0
 62
     7
 10
0.0
 20
0.0
 30
0.0
 70
   128
 71
    69
 72
    68
 73
    22
  0
VERTEX
  5
417
  8
0
 62
     7
 10
0.0
 20
0.0
 30
0.0
 70
   128
 71
    61
 72
    71
 73
    70
  0
VERTEX
  5
418
  8
0
 62
     7
 10
0.0
 20
0.0
 30
0.0
 70
   128
 71
    15
 72
    12
 73
    11
  0
VERTEX
  5
419
  8
0
 62
     7
 10
0.0
 20
0.0
 30
0.0
 70
   128
 71
    59
 72
    70
 73
    69
  0
VERTEX
  5
41A
  8
0
 62
     7
 10
0.0
 20
0.0
 30
0.0
 70
   128
 71
    71
 72
    61
 73
    66
  0
VERTEX
  5
41B
  8
0
 62
     7
 10
0.0
 20
0.0
 30
0.0
 70
   128
 71
    22
 72
    25
 73
    69
  0
VERTEX
  5
41C
  8
0
 62
     7
 10
0.0
 20
0.0
 30
0.0
 70
   128
 71
     9
 72
    31
 73
    30
  0
VERTEX
  5
41D
  8
0
 62
     7
 10
0.0
 20
0.0
 30
0.0
 70
   128
 71
     3
 72
    33
 73
    31
  0
VERTEX
  5
41E
  8
0
 62
     7
 10
0.0
 20
0.0
 30
0.0
 70
   128
 71
     4
 72
    63
 73
    65
  0
VERTEX
  5
41F
  8
0
 62
     7
 10
0.0
 20
0.0
 30
0.0
 70
   128
 71
     6
 72
    62
 73
    63
  0
VERTEX
  5
420
  8
0
 62
     7
 10
0.0
 20
0.0
 30
0.0
 70
   128
 71
     8
 72
    60
 73
    64
  0
VERTEX
  5
421
  8
0
 62
     7
 10
0.0
 20
0.0
 30
0.0
 70
   128
 71
    71
 72
    66
 73
    60
  0
VERTEX
  5
422
  8
0
 62
     7
 10
0.0
 20
0.0
 30
0.0
 70
   128
 71
    71
 72
    60
 73
     8
  0
VERTEX
  5
423
  8
0
 62
     7
 10
0.0
 20
0.0
 30
0.0
 70
   128
 71
    70
 72
    59
 73
    61
  0
VERTEX
  5
424
  8
0
 62
     7
 10
0.0
 20
0.0
 30
0.0
 70
   128
 71
    69
 72
    25
 73
    59
  0
VERTEX
  5
425
  8
0
 62
     7
 10
0.0
 20
0.0
 30
0.0
 70
   128
 71
    68
 72
    20
 73
    22
  0
VERTEX
  5
426
  8
0
 62
     7
 10
0.0
 20
0.0
 30
0.0
 70
   128
 71
    67
 72
    19
 73
    20
  0
VERTEX
  5
427
  8
0
 62
     7
 10
0.0
 20
0.0
 30
0.0
 70
   128
 71
    67
 72
    12
 73
    16
  0
VERTEX
  5
428
  8
0
 62
     7
 10
0.0
 20
0.0
 30
0.0
 70
   128
 71
    71
 72
     8
 73
    72
  0
VERTEX
  5
429
  8
0
 62
     7
 10
0.0
 20
0.0
 30
0.0
 70
   128
 71
    69
 72
    73
 73
    68
  0
VERTEX
  5
42A
  8
0
 62
     7
 10
0.0
 20
0.0
 30
0.0
 70
   128
 71
    75
 72
    74
 73
    70
  0
VERTEX
  5
42B
  8
0
 62
     7
 10
0.0
 20
0.0
 30
0.0
 70
   128
 71
    76
 72
    14
 73
    67
  0
VERTEX
  5
42C
  8
0
 62
     7
 10
0.0
 20
0.0
 30
0.0
 70
   128
 71
    67
 72
    68
 73
    76
  0
VERTEX
  5
42D
  8
0
 62
     7
 10
0.0
 20
0.0
 30
0.0
 70
   128
 71
    67
 72
    14
 73
    12
  0
VERTEX
  5
42E
  8
0
 62
     7
 10
0.0
 20
0.0
 30
0.0
 70
   128
 71
    73
 72
    69
 73
    74
  0
VERTEX
  5
42F
  8
0
 62
     7
 10
0.0
 20
0.0
 30
0.0
 70
   128
 71
    68
 72
    73
 73
    76
  0
VERTEX
  5
430
  8
0
 62
     7
 10
0.0
 20
0.0
 30
0.0
 70
   128
 71
    71
 72
    75
 73
    70
  0
VERTEX
  5
431
  8
0
 62
     7
 10
0.0
 20
0.0
 30
0.0
 70
   128
 71
    70
 72
    74
 73
    69
  0
VERTEX
  5
432
  8
0
 62
     7
 10
0.0
 20
0.0
 30
0.0
 70
   128
 71
     7
 72
    72
 73
     8
  0
VERTEX
  5
433
  8
0
 62
     7
 10
0.0
 20
0.0
 30
0.0
 70
   128
 71
    72
 72
    75
 73
    71
  0
VERTEX
  5
434
  8
0
 62
     7
 10
0.0
 20
0.0
 30
0.0
 70
   128
 71
    38
 72
     7
 73
     5
  0
VERTEX
  5
435
  8
0
 62
     7
 10
0.0
 20
0.0
 30
0.0
 70
   128
 71
    10
 72
    45
 73
     2
  0
VERTEX
  5
436
  8
0
 62
     7
 10
0.0
 20
0.0
 30
0.0
 70
   128
 71
     5
 72
     1
 73
    48
  0
VERTEX
  5
437
  8
0
 62
     7
 10
0.0
 20
0.0
 30
0.0
 70
   128
 71
    72
 72
     7
 73
    38
  0
VERTEX
  5
438
  8
0
 62
     7
 10
0.0
 20
0.0
 30
0.0
 70
   128
 71
    75
 72
    72
 73
    36
  0
VERTEX
  5
439
  8
0
 62
     7
 10
0.0
 20
0.0
 30
0.0
 70
   128
 71
    45
 72
     1
 73
     2
  0
VERTEX
  5
43A
  8
0
 62
     7
 10
0.0
 20
0.0
 30
0.0
 70
   128
 71
    75
 72
    37
 73
    74
  0
VERTEX
  5
43B
  8
0
 62
     7
 10
0.0
 20
0.0
 30
0.0
 70
   128
 71
    41
 72
    76
 73
    43
  0
VERTEX
  5
43C
  8
0
 62
     7
 10
0.0
 20
0.0
 30
0.0
 70
   128
 71
    76
 72
    41
 73
    14
  0
VERTEX
  5
43D
  8
0
 62
     7
 10
0.0
 20
0.0
 30
0.0
 70
   128
 71
    13
 72
    14
 73
    41
  0
VERTEX
  5
43E
  8
0
 62
     7
 10
0.0
 20
0.0
 30
0.0
 70
   128
 71
    10
 72
    13
 73
    49
  0
VERTEX
  5
43F
  8
0
 62
     7
 10
0.0
 20
0.0
 30
0.0
 70
   128
 71
    37
 72
    73
 73
    74
  0
VERTEX
  5
440
  8
0
 62
     7
 10
0.0
 20
0.0
 30
0.0
 70
   128
 71
    37
 72
    43
 73
    73
  0
VERTEX
  5
441
  8
0
 62
     7
 10
0.0
 20
0.0
 30
0.0
 70
   128
 71
    73
 72
    43
 73
    76
  0
VERTEX
  5
442
  8
0
 62
     7
 10
0.0
 20
0.0
 30
0.0
 70
   128
 71
    36
 72
    37
 73
    75
  0
VERTEX
  5
443
  8
0
 62
     7
 10
0.0
 20
0.0
 30
0.0
 70
   128
 71
    38
 72
    36
 73
    72
  0
VERTEX
  5
444
  8
0
 62
     7
 10
0.0
 20
0.0
 30
0.0
 70
   128
 71
    48
 72
    38
 73
     5
  0
VERTEX
  5
445
  8
0
 62
     7
 10
0.0
 20
0.0
 30
0.0
 70
   128
 71
    45
 72
    48
 73
     1
  0
VERTEX
  5
446
  8
0
 62
     7
 10
0.0
 20
0.0
 30
0.0
 70
   128
 71
    41
 72
    49
 73
    13
  0
VERTEX
  5
447
  8
0
 62
     7
 10
0.0
 20
0.0
 30
0.0
 70
   128
 71
    49
 72
    45
 73
    10
  0
VERTEX
  5
448
  8
0
 62
     9
 10
0.0
 20
0.0
 30
0.0
 70
   128
 71
    42
 72
    35
 73
    50
  0
VERTEX
  5
449
  8
0
 62
     9
 10
0.0
 20
0.0
 30
0.0
 70
   128
 71
    44
 72
    35
 73
    42
  0
VERTEX
  5
44A
  8
0
 62
     9
 10
0.0
 20
0.0
 30
0.0
 70
   128
 71
    46
 72
    47
 73
    40
  0
VERTEX
  5
44B
  8
0
 62
     9
 10
0.0
 20
0.0
 30
0.0
 70
   128
 71
    50
 72
    35
 73
    47
  0
VERTEX
  5
44C
  8
0
 62
     9
 10
0.0
 20
0.0
 30
0.0
 70
   128
 71
    39
 72
    47
 73
    35
  0
VERTEX
  5
44D
  8
0
 62
     9
 10
0.0
 20
0.0
 30
0.0
 70
   128
 71
    39
 72
    40
 73
    47
  0
SEQEND
  5
44E
  8
0
  0
ENDBLK
  5
451
  8
0
  0
BLOCK
  8
0
  2
12550-04_1_
 70
     0
 10
0.0
 20
0.0
 30
0.0
  3
12550-04_1_
  1

  0
POLYLINE
  5
453
  8
0
 66
     1
 10
0.0
 20
0.0
 30
0.0
 70
    64
 71
    76
 72
   148
  0
VERTEX
  5
454
  8
0
 10
588.3712158203125
 20
18.24432754516602
 30
-60.27068328857422
 70
   192
  0
VERTEX
  5
455
  8
0
 10
585.8963623046875
 20
18.9277458190918
 30
-60.27068328857422
 70
   192
  0
VERTEX
  5
456
  8
0
 10
585.8963623046875
 20
18.9277458190918
 30
-57.67068099975586
 70
   192
  0
VERTEX
  5
457
  8
0
 10
588.3712158203125
 20
18.24432754516602
 30
-57.67068099975586
 70
   192
  0
VERTEX
  5
458
  8
0
 10
590.3628540039062
 20
16.39424324035645
 30
-60.27068328857422
 70
   192
  0
VERTEX
  5
459
  8
0
 10
590.3628540039062
 20
16.39424324035645
 30
-57.67068099975586
 70
   192
  0
VERTEX
  5
45A
  8
0
 10
591.1463623046875
 20
13.6777458190918
 30
-60.27068328857422
 70
   192
  0
VERTEX
  5
45B
  8
0
 10
591.1463623046875
 20
13.6777458190918
 30
-57.67068099975586
 70
   192
  0
VERTEX
  5
45C
  8
0
 10
583.1798706054688
 20
18.14424324035645
 30
-57.67068099975586
 70
   192
  0
VERTEX
  5
45D
  8
0
 10
583.1798706054688
 20
18.14424324035645
 30
-60.27068328857422
 70
   192
  0
VERTEX
  5
45E
  8
0
 10
581.4298706054688
 20
16.39424324035645
 30
-57.67068099975586
 70
   192
  0
VERTEX
  5
45F
  8
0
 10
580.6463623046875
 20
13.6777458190918
 30
-57.67068099975586
 70
   192
  0
VERTEX
  5
460
  8
0
 10
581.4298706054688
 20
16.39424324035645
 30
-60.27068328857422
 70
   192
  0
VERTEX
  5
461
  8
0
 10
580.6463623046875
 20
13.6777458190918
 30
-60.27068328857422
 70
   192
  0
VERTEX
  5
462
  8
0
 10
576.56396484375
 20
15.4085636138916
 30
-57.67068099975586
 70
   192
  0
VERTEX
  5
463
  8
0
 10
576.56396484375
 20
12.14200973510742
 30
-57.67068099975586
 70
   192
  0
VERTEX
  5
464
  8
0
 10
576.56396484375
 20
12.14200973510742
 30
-35.67068099975586
 70
   192
  0
VERTEX
  5
465
  8
0
 10
577.6309204101562
 20
9.028735160827637
 30
-35.67068099975586
 70
   192
  0
VERTEX
  5
466
  8
0
 10
577.6309204101562
 20
9.028735160827637
 30
-57.67068099975586
 70
   192
  0
VERTEX
  5
467
  8
0
 10
579.764892578125
 20
6.458902835845947
 30
-57.67068099975586
 70
   192
  0
VERTEX
  5
468
  8
0
 10
579.764892578125
 20
6.458902835845947
 30
-35.67068099975586
 70
   192
  0
VERTEX
  5
469
  8
0
 10
582.5365600585938
 20
4.819518089294434
 30
-57.67068099975586
 70
   192
  0
VERTEX
  5
46A
  8
0
 10
582.5365600585938
 20
4.819518089294434
 30
-35.67068099975586
 70
   192
  0
VERTEX
  5
46B
  8
0
 10
585.8963623046875
 20
4.177745819091797
 30
-35.67068099975586
 70
   192
  0
VERTEX
  5
46C
  8
0
 10
585.8963623046875
 20
4.177745819091797
 30
-57.67068099975586
 70
   192
  0
VERTEX
  5
46D
  8
0
 10
576.56396484375
 20
15.4085636138916
 30
-35.67068099975586
 70
   192
  0
VERTEX
  5
46E
  8
0
 10
577.779541015625
 20
18.52824783325195
 30
-35.67068099975586
 70
   192
  0
VERTEX
  5
46F
  8
0
 10
577.779541015625
 20
18.52824783325195
 30
-57.67068099975586
 70
   192
  0
VERTEX
  5
470
  8
0
 10
579.8309326171875
 20
20.98614120483398
 30
-35.67068099975586
 70
   192
  0
VERTEX
  5
471
  8
0
 10
579.8309326171875
 20
20.98614120483398
 30
-57.67068099975586
 70
   192
  0
VERTEX
  5
472
  8
0
 10
582.5365600585938
 20
22.53597259521484
 30
-57.67068099975586
 70
   192
  0
VERTEX
  5
473
  8
0
 10
582.5365600585938
 20
22.53597259521484
 30
-35.67068099975586
 70
   192
  0
VERTEX
  5
474
  8
0
 10
585.8963623046875
 20
23.1777458190918
 30
-57.67068099975586
 70
   192
  0
VERTEX
  5
475
  8
0
 10
585.8963623046875
 20
23.1777458190918
 30
-35.67068099975586
 70
   192
  0
VERTEX
  5
476
  8
0
 10
585.74072265625
 20
11.24102592468262
 30
-57.67068099975586
 70
   192
  0
VERTEX
  5
477
  8
0
 10
587.5744018554688
 20
11.85020637512207
 30
-60.27068328857422
 70
   192
  0
VERTEX
  5
478
  8
0
 10
585.74072265625
 20
11.24102592468262
 30
-60.27068328857422
 70
   192
  0
VERTEX
  5
479
  8
0
 10
588.3963623046875
 20
13.6777458190918
 30
-60.27068328857422
 70
   192
  0
VERTEX
  5
47A
  8
0
 10
587.5744018554688
 20
11.85020637512207
 30
-57.67068099975586
 70
   192
  0
VERTEX
  5
47B
  8
0
 10
588.3963623046875
 20
13.6777458190918
 30
-57.67068099975586
 70
   192
  0
VERTEX
  5
47C
  8
0
 10
583.3963623046875
 20
13.6777458190918
 30
-60.27068328857422
 70
   192
  0
VERTEX
  5
47D
  8
0
 10
583.3963623046875
 20
13.6777458190918
 30
-57.67068099975586
 70
   192
  0
VERTEX
  5
47E
  8
0
 10
584.2183227539062
 20
11.85020637512207
 30
-60.27068328857422
 70
   192
  0
VERTEX
  5
47F
  8
0
 10
584.2183227539062
 20
11.85020637512207
 30
-57.67068099975586
 70
   192
  0
VERTEX
  5
480
  8
0
 10
586.052001953125
 20
16.11446571350098
 30
-60.27068328857422
 70
   192
  0
VERTEX
  5
481
  8
0
 10
587.5744018554688
 20
15.50528526306152
 30
-57.67068099975586
 70
   192
  0
VERTEX
  5
482
  8
0
 10
586.052001953125
 20
16.11446571350098
 30
-57.67068099975586
 70
   192
  0
VERTEX
  5
483
  8
0
 10
587.5744018554688
 20
15.50528526306152
 30
-60.27068328857422
 70
   192
  0
VERTEX
  5
484
  8
0
 10
584.2183227539062
 20
15.50528526306152
 30
-60.27068328857422
 70
   192
  0
VERTEX
  5
485
  8
0
 10
584.2183227539062
 20
15.50528526306152
 30
-57.67068099975586
 70
   192
  0
VERTEX
  5
486
  8
0
 10
594.126953125
 20
8.973685264587402
 30
-35.67068099975586
 70
   192
  0
VERTEX
  5
487
  8
0
 10
589.1963500976562
 20
4.717092514038086
 30
-35.67068099975586
 70
   192
  0
VERTEX
  5
488
  8
0
 10
592.0546264648438
 20
6.419540882110596
 30
-35.67068099975586
 70
   192
  0
VERTEX
  5
489
  8
0
 10
591.8919067382812
 20
20.95547294616699
 30
-35.67068099975586
 70
   192
  0
VERTEX
  5
48A
  8
0
 10
589.1323852539062
 20
22.56164932250977
 30
-35.67068099975586
 70
   192
  0
VERTEX
  5
48B
  8
0
 10
595.2341918945312
 20
15.35769081115723
 30
-35.67068099975586
 70
   192
  0
VERTEX
  5
48C
  8
0
 10
595.2213134765625
 20
12.05728149414062
 30
-35.67068099975586
 70
   192
  0
VERTEX
  5
48D
  8
0
 10
594.0391845703125
 20
18.46161079406738
 30
-35.67068099975586
 70
   192
  0
VERTEX
  5
48E
  8
0
 10
589.2561645507812
 20
4.819518089294434
 30
-57.67068099975586
 70
   192
  0
VERTEX
  5
48F
  8
0
 10
595.228759765625
 20
11.94692802429199
 30
-57.67068099975586
 70
   192
  0
VERTEX
  5
490
  8
0
 10
591.9617919921875
 20
6.369350910186768
 30
-57.67068099975586
 70
   192
  0
VERTEX
  5
491
  8
0
 10
594.1618041992188
 20
18.32675552368164
 30
-57.67068099975586
 70
   192
  0
VERTEX
  5
492
  8
0
 10
592.02783203125
 20
20.8965892791748
 30
-57.67068099975586
 70
   192
  0
VERTEX
  5
493
  8
0
 10
595.228759765625
 20
15.21348190307617
 30
-57.67068099975586
 70
   192
  0
VERTEX
  5
494
  8
0
 10
589.2561645507812
 20
22.53597259521484
 30
-57.67068099975586
 70
   192
  0
VERTEX
  5
495
  8
0
 10
594.01318359375
 20
8.82724380493164
 30
-57.67068099975586
 70
   192
  0
VERTEX
  5
496
  8
0
 10
581.3634033203125
 20
11.01350879669189
 30
-57.67068099975586
 70
   192
  0
VERTEX
  5
497
  8
0
 10
583.322509765625
 20
9.153251647949219
 30
-57.67068099975586
 70
   192
  0
VERTEX
  5
498
  8
0
 10
585.9906616210938
 20
8.480536460876465
 30
-57.67068099975586
 70
   192
  0
VERTEX
  5
499
  8
0
 10
588.5695190429688
 20
9.246954917907715
 30
-57.67068099975586
 70
   192
  0
VERTEX
  5
49A
  8
0
 10
590.394775390625
 20
11.0937328338623
 30
-57.67068099975586
 70
   192
  0
VERTEX
  5
49B
  8
0
 10
590.3628540039062
 20
10.96124744415283
 30
-60.27068328857422
 70
   192
  0
VERTEX
  5
49C
  8
0
 10
583.4215087890625
 20
9.111163139343262
 30
-60.27068328857422
 70
   192
  0
VERTEX
  5
49D
  8
0
 10
585.8963623046875
 20
8.427745819091797
 30
-60.27068328857422
 70
   192
  0
VERTEX
  5
49E
  8
0
 10
588.6128540039062
 20
9.211247444152832
 30
-60.27068328857422
 70
   192
  0
VERTEX
  5
49F
  8
0
 10
581.4298706054688
 20
10.96124744415283
 30
-60.27068328857422
 70
   192
  0
VERTEX
  5
4A0
  8
0
 62
     7
 10
0.0
 20
0.0
 30
0.0
 70
   128
 71
     3
 72
     2
 73
     1
  0
VERTEX
  5
4A1
  8
0
 62
     7
 10
0.0
 20
0.0
 30
0.0
 70
   128
 71
     1
 72
     5
 73
     4
  0
VERTEX
  5
4A2
  8
0
 62
     7
 10
0.0
 20
0.0
 30
0.0
 70
   128
 71
     4
 72
     3
 73
     1
  0
VERTEX
  5
4A3
  8
0
 62
     7
 10
0.0
 20
0.0
 30
0.0
 70
   128
 71
     7
 72
     6
 73
     5
  0
VERTEX
  5
4A4
  8
0
 62
     7
 10
0.0
 20
0.0
 30
0.0
 70
   128
 71
     4
 72
     5
 73
     6
  0
VERTEX
  5
4A5
  8
0
 62
     7
 10
0.0
 20
0.0
 30
0.0
 70
   128
 71
     7
 72
     8
 73
     6
  0
VERTEX
  5
4A6
  8
0
 62
     7
 10
0.0
 20
0.0
 30
0.0
 70
   128
 71
     3
 72
     9
 73
     2
  0
VERTEX
  5
4A7
  8
0
 62
     7
 10
0.0
 20
0.0
 30
0.0
 70
   128
 71
    11
 72
    10
 73
     9
  0
VERTEX
  5
4A8
  8
0
 62
     7
 10
0.0
 20
0.0
 30
0.0
 70
   128
 71
     2
 72
     9
 73
    10
  0
VERTEX
  5
4A9
  8
0
 62
     7
 10
0.0
 20
0.0
 30
0.0
 70
   128
 71
    13
 72
    11
 73
    12
  0
VERTEX
  5
4AA
  8
0
 62
     7
 10
0.0
 20
0.0
 30
0.0
 70
   128
 71
    11
 72
    13
 73
    10
  0
VERTEX
  5
4AB
  8
0
 62
     7
 10
0.0
 20
0.0
 30
0.0
 70
   128
 71
    14
 72
    13
 73
    12
  0
VERTEX
  5
4AC
  8
0
 62
     9
 10
0.0
 20
0.0
 30
0.0
 70
   128
 71
    17
 72
    16
 73
    15
  0
VERTEX
  5
4AD
  8
0
 62
     9
 10
0.0
 20
0.0
 30
0.0
 70
   128
 71
    19
 72
    16
 73
    18
  0
VERTEX
  5
4AE
  8
0
 62
     9
 10
0.0
 20
0.0
 30
0.0
 70
   128
 71
    17
 72
    18
 73
    16
  0
VERTEX
  5
4AF
  8
0
 62
     9
 10
0.0
 20
0.0
 30
0.0
 70
   128
 71
    19
 72
    21
 73
    20
  0
VERTEX
  5
4B0
  8
0
 62
     9
 10
0.0
 20
0.0
 30
0.0
 70
   128
 71
    21
 72
    19
 73
    18
  0
VERTEX
  5
4B1
  8
0
 62
     9
 10
0.0
 20
0.0
 30
0.0
 70
   128
 71
    23
 72
    22
 73
    20
  0
VERTEX
  5
4B2
  8
0
 62
     9
 10
0.0
 20
0.0
 30
0.0
 70
   128
 71
    20
 72
    21
 73
    23
  0
VERTEX
  5
4B3
  8
0
 62
     9
 10
0.0
 20
0.0
 30
0.0
 70
   128
 71
    23
 72
    24
 73
    22
  0
VERTEX
  5
4B4
  8
0
 62
     9
 10
0.0
 20
0.0
 30
0.0
 70
   128
 71
    24
 72
    25
 73
    22
  0
VERTEX
  5
4B5
  8
0
 62
     9
 10
0.0
 20
0.0
 30
0.0
 70
   128
 71
    26
 72
    17
 73
    15
  0
VERTEX
  5
4B6
  8
0
 62
     9
 10
0.0
 20
0.0
 30
0.0
 70
   128
 71
    26
 72
    28
 73
    27
  0
VERTEX
  5
4B7
  8
0
 62
     9
 10
0.0
 20
0.0
 30
0.0
 70
   128
 71
    28
 72
    26
 73
    15
  0
VERTEX
  5
4B8
  8
0
 62
     9
 10
0.0
 20
0.0
 30
0.0
 70
   128
 71
    30
 72
    29
 73
    27
  0
VERTEX
  5
4B9
  8
0
 62
     9
 10
0.0
 20
0.0
 30
0.0
 70
   128
 71
    27
 72
    28
 73
    30
  0
VERTEX
  5
4BA
  8
0
 62
     9
 10
0.0
 20
0.0
 30
0.0
 70
   128
 71
    32
 72
    29
 73
    31
  0
VERTEX
  5
4BB
  8
0
 62
     9
 10
0.0
 20
0.0
 30
0.0
 70
   128
 71
    30
 72
    31
 73
    29
  0
VERTEX
  5
4BC
  8
0
 62
     9
 10
0.0
 20
0.0
 30
0.0
 70
   128
 71
    33
 72
    32
 73
    31
  0
VERTEX
  5
4BD
  8
0
 62
     9
 10
0.0
 20
0.0
 30
0.0
 70
   128
 71
    34
 72
    32
 73
    33
  0
VERTEX
  5
4BE
  8
0
 62
     7
 10
0.0
 20
0.0
 30
0.0
 70
   128
 71
    37
 72
    36
 73
    35
  0
VERTEX
  5
4BF
  8
0
 62
     7
 10
0.0
 20
0.0
 30
0.0
 70
   128
 71
    40
 72
    39
 73
    38
  0
VERTEX
  5
4C0
  8
0
 62
     7
 10
0.0
 20
0.0
 30
0.0
 70
   128
 71
    43
 72
    42
 73
    41
  0
VERTEX
  5
4C1
  8
0
 62
     7
 10
0.0
 20
0.0
 30
0.0
 70
   128
 71
    43
 72
    44
 73
    42
  0
VERTEX
  5
4C2
  8
0
 62
     7
 10
0.0
 20
0.0
 30
0.0
 70
   128
 71
    37
 72
    35
 73
    44
  0
VERTEX
  5
4C3
  8
0
 62
     7
 10
0.0
 20
0.0
 30
0.0
 70
   128
 71
    37
 72
    44
 73
    43
  0
VERTEX
  5
4C4
  8
0
 62
     7
 10
0.0
 20
0.0
 30
0.0
 70
   128
 71
    36
 72
    38
 73
    39
  0
VERTEX
  5
4C5
  8
0
 62
     7
 10
0.0
 20
0.0
 30
0.0
 70
   128
 71
    36
 72
    39
 73
    35
  0
VERTEX
  5
4C6
  8
0
 62
     7
 10
0.0
 20
0.0
 30
0.0
 70
   128
 71
    47
 72
    46
 73
    45
  0
VERTEX
  5
4C7
  8
0
 62
     7
 10
0.0
 20
0.0
 30
0.0
 70
   128
 71
    48
 72
    46
 73
    40
  0
VERTEX
  5
4C8
  8
0
 62
     7
 10
0.0
 20
0.0
 30
0.0
 70
   128
 71
    46
 72
    48
 73
    45
  0
VERTEX
  5
4C9
  8
0
 62
     7
 10
0.0
 20
0.0
 30
0.0
 70
   128
 71
    48
 72
    40
 73
    38
  0
VERTEX
  5
4CA
  8
0
 62
     7
 10
0.0
 20
0.0
 30
0.0
 70
   128
 71
    47
 72
    45
 73
    49
  0
VERTEX
  5
4CB
  8
0
 62
     7
 10
0.0
 20
0.0
 30
0.0
 70
   128
 71
    49
 72
    41
 73
    50
  0
VERTEX
  5
4CC
  8
0
 62
     7
 10
0.0
 20
0.0
 30
0.0
 70
   128
 71
    50
 72
    47
 73
    49
  0
VERTEX
  5
4CD
  8
0
 62
     7
 10
0.0
 20
0.0
 30
0.0
 70
   128
 71
    41
 72
    42
 73
    50
  0
VERTEX
  5
4CE
  8
0
 62
     9
 10
0.0
 20
0.0
 30
0.0
 70
   128
 71
    53
 72
    52
 73
    51
  0
VERTEX
  5
4CF
  8
0
 62
     9
 10
0.0
 20
0.0
 30
0.0
 70
   128
 71
    56
 72
    55
 73
    54
  0
VERTEX
  5
4D0
  8
0
 62
     9
 10
0.0
 20
0.0
 30
0.0
 70
   128
 71
    56
 72
    57
 73
    51
  0
VERTEX
  5
4D1
  8
0
 62
     9
 10
0.0
 20
0.0
 30
0.0
 70
   128
 71
    58
 72
    56
 73
    54
  0
VERTEX
  5
4D2
  8
0
 62
     9
 10
0.0
 20
0.0
 30
0.0
 70
   128
 71
    55
 72
    56
 73
    51
  0
VERTEX
  5
4D3
  8
0
 62
     9
 10
0.0
 20
0.0
 30
0.0
 70
   128
 71
    32
 72
    55
 73
    51
  0
VERTEX
  5
4D4
  8
0
 62
     9
 10
0.0
 20
0.0
 30
0.0
 70
   128
 71
    32
 72
    34
 73
    55
  0
VERTEX
  5
4D5
  8
0
 62
     9
 10
0.0
 20
0.0
 30
0.0
 70
   128
 71
    32
 72
    51
 73
    52
  0
VERTEX
  5
4D6
  8
0
 62
     9
 10
0.0
 20
0.0
 30
0.0
 70
   128
 71
    29
 72
    32
 73
    27
  0
VERTEX
  5
4D7
  8
0
 62
     9
 10
0.0
 20
0.0
 30
0.0
 70
   128
 71
    27
 72
    32
 73
    52
  0
VERTEX
  5
4D8
  8
0
 62
     9
 10
0.0
 20
0.0
 30
0.0
 70
   128
 71
    26
 72
    27
 73
    17
  0
VERTEX
  5
4D9
  8
0
 62
     9
 10
0.0
 20
0.0
 30
0.0
 70
   128
 71
    27
 72
    23
 73
    17
  0
VERTEX
  5
4DA
  8
0
 62
     9
 10
0.0
 20
0.0
 30
0.0
 70
   128
 71
    18
 72
    17
 73
    21
  0
VERTEX
  5
4DB
  8
0
 62
     9
 10
0.0
 20
0.0
 30
0.0
 70
   128
 71
    21
 72
    17
 73
    23
  0
VERTEX
  5
4DC
  8
0
 62
     9
 10
0.0
 20
0.0
 30
0.0
 70
   128
 71
    23
 72
    52
 73
    24
  0
VERTEX
  5
4DD
  8
0
 62
     9
 10
0.0
 20
0.0
 30
0.0
 70
   128
 71
    52
 72
    23
 73
    27
  0
VERTEX
  5
4DE
  8
0
 62
     9
 10
0.0
 20
0.0
 30
0.0
 70
   128
 71
    59
 72
    25
 73
    52
  0
VERTEX
  5
4DF
  8
0
 62
     9
 10
0.0
 20
0.0
 30
0.0
 70
   128
 71
    60
 72
    57
 73
    56
  0
VERTEX
  5
4E0
  8
0
 62
     9
 10
0.0
 20
0.0
 30
0.0
 70
   128
 71
    53
 72
    51
 73
    61
  0
VERTEX
  5
4E1
  8
0
 62
     9
 10
0.0
 20
0.0
 30
0.0
 70
   128
 71
    63
 72
    62
 73
    54
  0
VERTEX
  5
4E2
  8
0
 62
     9
 10
0.0
 20
0.0
 30
0.0
 70
   128
 71
    58
 72
    64
 73
    56
  0
VERTEX
  5
4E3
  8
0
 62
     9
 10
0.0
 20
0.0
 30
0.0
 70
   128
 71
    63
 72
    55
 73
    65
  0
VERTEX
  5
4E4
  8
0
 62
     9
 10
0.0
 20
0.0
 30
0.0
 70
   128
 71
    55
 72
    63
 73
    54
  0
VERTEX
  5
4E5
  8
0
 62
     9
 10
0.0
 20
0.0
 30
0.0
 70
   128
 71
    34
 72
    33
 73
    65
  0
VERTEX
  5
4E6
  8
0
 62
     9
 10
0.0
 20
0.0
 30
0.0
 70
   128
 71
    65
 72
    55
 73
    34
  0
VERTEX
  5
4E7
  8
0
 62
     9
 10
0.0
 20
0.0
 30
0.0
 70
   128
 71
    64
 72
    58
 73
    62
  0
VERTEX
  5
4E8
  8
0
 62
     9
 10
0.0
 20
0.0
 30
0.0
 70
   128
 71
    54
 72
    62
 73
    58
  0
VERTEX
  5
4E9
  8
0
 62
     9
 10
0.0
 20
0.0
 30
0.0
 70
   128
 71
    57
 72
    60
 73
    66
  0
VERTEX
  5
4EA
  8
0
 62
     9
 10
0.0
 20
0.0
 30
0.0
 70
   128
 71
    64
 72
    60
 73
    56
  0
VERTEX
  5
4EB
  8
0
 62
     9
 10
0.0
 20
0.0
 30
0.0
 70
   128
 71
    51
 72
    66
 73
    61
  0
VERTEX
  5
4EC
  8
0
 62
     9
 10
0.0
 20
0.0
 30
0.0
 70
   128
 71
    66
 72
    51
 73
    57
  0
VERTEX
  5
4ED
  8
0
 62
     9
 10
0.0
 20
0.0
 30
0.0
 70
   128
 71
    52
 72
    53
 73
    59
  0
VERTEX
  5
4EE
  8
0
 62
     9
 10
0.0
 20
0.0
 30
0.0
 70
   128
 71
    59
 72
    53
 73
    61
  0
VERTEX
  5
4EF
  8
0
 62
     9
 10
0.0
 20
0.0
 30
0.0
 70
   128
 71
    24
 72
    52
 73
    25
  0
VERTEX
  5
4F0
  8
0
 62
     7
 10
0.0
 20
0.0
 30
0.0
 70
   128
 71
     3
 72
    65
 73
    33
  0
VERTEX
  5
4F1
  8
0
 62
     7
 10
0.0
 20
0.0
 30
0.0
 70
   128
 71
    64
 72
    62
 73
     6
  0
VERTEX
  5
4F2
  8
0
 62
     7
 10
0.0
 20
0.0
 30
0.0
 70
   128
 71
     4
 72
    65
 73
     3
  0
VERTEX
  5
4F3
  8
0
 62
     7
 10
0.0
 20
0.0
 30
0.0
 70
   128
 71
    63
 72
     4
 73
     6
  0
VERTEX
  5
4F4
  8
0
 62
     7
 10
0.0
 20
0.0
 30
0.0
 70
   128
 71
    31
 72
     9
 73
     3
  0
VERTEX
  5
4F5
  8
0
 62
     7
 10
0.0
 20
0.0
 30
0.0
 70
   128
 71
    11
 72
     9
 73
    30
  0
VERTEX
  5
4F6
  8
0
 62
     7
 10
0.0
 20
0.0
 30
0.0
 70
   128
 71
     8
 72
    64
 73
     6
  0
VERTEX
  5
4F7
  8
0
 62
     7
 10
0.0
 20
0.0
 30
0.0
 70
   128
 71
    15
 72
    11
 73
    28
  0
VERTEX
  5
4F8
  8
0
 62
     7
 10
0.0
 20
0.0
 30
0.0
 70
   128
 71
    30
 72
    28
 73
    11
  0
VERTEX
  5
4F9
  8
0
 62
     7
 10
0.0
 20
0.0
 30
0.0
 70
   128
 71
    15
 72
    16
 73
    12
  0
VERTEX
  5
4FA
  8
0
 62
     7
 10
0.0
 20
0.0
 30
0.0
 70
   128
 71
    67
 72
    16
 73
    19
  0
VERTEX
  5
4FB
  8
0
 62
     7
 10
0.0
 20
0.0
 30
0.0
 70
   128
 71
    68
 72
    67
 73
    20
  0
VERTEX
  5
4FC
  8
0
 62
     7
 10
0.0
 20
0.0
 30
0.0
 70
   128
 71
    69
 72
    68
 73
    22
  0
VERTEX
  5
4FD
  8
0
 62
     7
 10
0.0
 20
0.0
 30
0.0
 70
   128
 71
    61
 72
    71
 73
    70
  0
VERTEX
  5
4FE
  8
0
 62
     7
 10
0.0
 20
0.0
 30
0.0
 70
   128
 71
    15
 72
    12
 73
    11
  0
VERTEX
  5
4FF
  8
0
 62
     7
 10
0.0
 20
0.0
 30
0.0
 70
   128
 71
    59
 72
    70
 73
    69
  0
VERTEX
  5
500
  8
0
 62
     7
 10
0.0
 20
0.0
 30
0.0
 70
   128
 71
    71
 72
    61
 73
    66
  0
VERTEX
  5
501
  8
0
 62
     7
 10
0.0
 20
0.0
 30
0.0
 70
   128
 71
    22
 72
    25
 73
    69
  0
VERTEX
  5
502
  8
0
 62
     7
 10
0.0
 20
0.0
 30
0.0
 70
   128
 71
     9
 72
    31
 73
    30
  0
VERTEX
  5
503
  8
0
 62
     7
 10
0.0
 20
0.0
 30
0.0
 70
   128
 71
     3
 72
    33
 73
    31
  0
VERTEX
  5
504
  8
0
 62
     7
 10
0.0
 20
0.0
 30
0.0
 70
   128
 71
     4
 72
    63
 73
    65
  0
VERTEX
  5
505
  8
0
 62
     7
 10
0.0
 20
0.0
 30
0.0
 70
   128
 71
     6
 72
    62
 73
    63
  0
VERTEX
  5
506
  8
0
 62
     7
 10
0.0
 20
0.0
 30
0.0
 70
   128
 71
     8
 72
    60
 73
    64
  0
VERTEX
  5
507
  8
0
 62
     7
 10
0.0
 20
0.0
 30
0.0
 70
   128
 71
    71
 72
    66
 73
    60
  0
VERTEX
  5
508
  8
0
 62
     7
 10
0.0
 20
0.0
 30
0.0
 70
   128
 71
    71
 72
    60
 73
     8
  0
VERTEX
  5
509
  8
0
 62
     7
 10
0.0
 20
0.0
 30
0.0
 70
   128
 71
    70
 72
    59
 73
    61
  0
VERTEX
  5
50A
  8
0
 62
     7
 10
0.0
 20
0.0
 30
0.0
 70
   128
 71
    69
 72
    25
 73
    59
  0
VERTEX
  5
50B
  8
0
 62
     7
 10
0.0
 20
0.0
 30
0.0
 70
   128
 71
    68
 72
    20
 73
    22
  0
VERTEX
  5
50C
  8
0
 62
     7
 10
0.0
 20
0.0
 30
0.0
 70
   128
 71
    67
 72
    19
 73
    20
  0
VERTEX
  5
50D
  8
0
 62
     7
 10
0.0
 20
0.0
 30
0.0
 70
   128
 71
    67
 72
    12
 73
    16
  0
VERTEX
  5
50E
  8
0
 62
     7
 10
0.0
 20
0.0
 30
0.0
 70
   128
 71
    71
 72
     8
 73
    72
  0
VERTEX
  5
50F
  8
0
 62
     7
 10
0.0
 20
0.0
 30
0.0
 70
   128
 71
    69
 72
    73
 73
    68
  0
VERTEX
  5
510
  8
0
 62
     7
 10
0.0
 20
0.0
 30
0.0
 70
   128
 71
    75
 72
    74
 73
    70
  0
VERTEX
  5
511
  8
0
 62
     7
 10
0.0
 20
0.0
 30
0.0
 70
   128
 71
    76
 72
    14
 73
    67
  0
VERTEX
  5
512
  8
0
 62
     7
 10
0.0
 20
0.0
 30
0.0
 70
   128
 71
    67
 72
    68
 73
    76
  0
VERTEX
  5
513
  8
0
 62
     7
 10
0.0
 20
0.0
 30
0.0
 70
   128
 71
    67
 72
    14
 73
    12
  0
VERTEX
  5
514
  8
0
 62
     7
 10
0.0
 20
0.0
 30
0.0
 70
   128
 71
    73
 72
    69
 73
    74
  0
VERTEX
  5
515
  8
0
 62
     7
 10
0.0
 20
0.0
 30
0.0
 70
   128
 71
    68
 72
    73
 73
    76
  0
VERTEX
  5
516
  8
0
 62
     7
 10
0.0
 20
0.0
 30
0.0
 70
   128
 71
    71
 72
    75
 73
    70
  0
VERTEX
  5
517
  8
0
 62
     7
 10
0.0
 20
0.0
 30
0.0
 70
   128
 71
    70
 72
    74
 73
    69
  0
VERTEX
  5
518
  8
0
 62
     7
 10
0.0
 20
0.0
 30
0.0
 70
   128
 71
     7
 72
    72
 73
     8
  0
VERTEX
  5
519
  8
0
 62
     7
 10
0.0
 20
0.0
 30
0.0
 70
   128
 71
    72
 72
    75
 73
    71
  0
VERTEX
  5
51A
  8
0
 62
     7
 10
0.0
 20
0.0
 30
0.0
 70
   128
 71
    38
 72
     7
 73
     5
  0
VERTEX
  5
51B
  8
0
 62
     7
 10
0.0
 20
0.0
 30
0.0
 70
   128
 71
    10
 72
    45
 73
     2
  0
VERTEX
  5
51C
  8
0
 62
     7
 10
0.0
 20
0.0
 30
0.0
 70
   128
 71
     5
 72
     1
 73
    48
  0
VERTEX
  5
51D
  8
0
 62
     7
 10
0.0
 20
0.0
 30
0.0
 70
   128
 71
    72
 72
     7
 73
    38
  0
VERTEX
  5
51E
  8
0
 62
     7
 10
0.0
 20
0.0
 30
0.0
 70
   128
 71
    75
 72
    72
 73
    36
  0
VERTEX
  5
51F
  8
0
 62
     7
 10
0.0
 20
0.0
 30
0.0
 70
   128
 71
    45
 72
     1
 73
     2
  0
VERTEX
  5
520
  8
0
 62
     7
 10
0.0
 20
0.0
 30
0.0
 70
   128
 71
    75
 72
    37
 73
    74
  0
VERTEX
  5
521
  8
0
 62
     7
 10
0.0
 20
0.0
 30
0.0
 70
   128
 71
    41
 72
    76
 73
    43
  0
VERTEX
  5
522
  8
0
 62
     7
 10
0.0
 20
0.0
 30
0.0
 70
   128
 71
    76
 72
    41
 73
    14
  0
VERTEX
  5
523
  8
0
 62
     7
 10
0.0
 20
0.0
 30
0.0
 70
   128
 71
    13
 72
    14
 73
    41
  0
VERTEX
  5
524
  8
0
 62
     7
 10
0.0
 20
0.0
 30
0.0
 70
   128
 71
    10
 72
    13
 73
    49
  0
VERTEX
  5
525
  8
0
 62
     7
 10
0.0
 20
0.0
 30
0.0
 70
   128
 71
    37
 72
    73
 73
    74
  0
VERTEX
  5
526
  8
0
 62
     7
 10
0.0
 20
0.0
 30
0.0
 70
   128
 71
    37
 72
    43
 73
    73
  0
VERTEX
  5
527
  8
0
 62
     7
 10
0.0
 20
0.0
 30
0.0
 70
   128
 71
    73
 72
    43
 73
    76
  0
VERTEX
  5
528
  8
0
 62
     7
 10
0.0
 20
0.0
 30
0.0
 70
   128
 71
    36
 72
    37
 73
    75
  0
VERTEX
  5
529
  8
0
 62
     7
 10
0.0
 20
0.0
 30
0.0
 70
   128
 71
    38
 72
    36
 73
    72
  0
VERTEX
  5
52A
  8
0
 62
     7
 10
0.0
 20
0.0
 30
0.0
 70
   128
 71
    48
 72
    38
 73
     5
  0
VERTEX
  5
52B
  8
0
 62
     7
 10
0.0
 20
0.0
 30
0.0
 70
   128
 71
    45
 72
    48
 73
     1
  0
VERTEX
  5
52C
  8
0
 62
     7
 10
0.0
 20
0.0
 30
0.0
 70
   128
 71
    41
 72
    49
 73
    13
  0
VERTEX
  5
52D
  8
0
 62
     7
 10
0.0
 20
0.0
 30
0.0
 70
   128
 71
    49
 72
    45
 73
    10
  0
VERTEX
  5
52E
  8
0
 62
     9
 10
0.0
 20
0.0
 30
0.0
 70
   128
 71
    42
 72
    35
 73
    50
  0
VERTEX
  5
52F
  8
0
 62
     9
 10
0.0
 20
0.0
 30
0.0
 70
   128
 71
    44
 72
    35
 73
    42
  0
VERTEX
  5
530
  8
0
 62
     9
 10
0.0
 20
0.0
 30
0.0
 70
   128
 71
    46
 72
    47
 73
    40
  0
VERTEX
  5
531
  8
0
 62
     9
 10
0.0
 20
0.0
 30
0.0
 70
   128
 71
    50
 72
    35
 73
    47
  0
VERTEX
  5
532
  8
0
 62
     9
 10
0.0
 20
0.0
 30
0.0
 70
   128
 71
    39
 72
    47
 73
    35
  0
VERTEX
  5
533
  8
0
 62
     9
 10
0.0
 20
0.0
 30
0.0
 70
   128
 71
    39
 72
    40
 73
    47
  0
SEQEND
  5
534
  8
0
  0
ENDBLK
  5
537
  8
0
  0
BLOCK
  8
0
  2
12550-02
 70
     0
 10
0.0
 20
0.0
 30
0.0
  3
12550-02
  1

  0
POLYLINE
  5
539
  8
0
 62
     9
 66
     1
 10
0.0
 20
0.0
 30
0.0
 70
    64
 71
    24
 72
    44
  0
VERTEX
  5
53A
  8
0
 10
581.4180297851562
 20
21.94108581542969
 30
-58.17068099975586
 70
   192
  0
VERTEX
  5
53B
  8
0
 10
585.8963623046875
 20
23.1777458190918
 30
-58.17068099975586
 70
   192
  0
VERTEX
  5
53C
  8
0
 10
585.8963623046875
 20
23.1777458190918
 30
-80.17068481445312
 70
   192
  0
VERTEX
  5
53D
  8
0
 10
580.9807739257812
 20
21.75998115539551
 30
-80.17068481445312
 70
   192
  0
VERTEX
  5
53E
  8
0
 10
577.8141479492188
 20
18.59331512451172
 30
-58.17068099975586
 70
   192
  0
VERTEX
  5
53F
  8
0
 10
577.8141479492188
 20
18.59331512451172
 30
-80.17068481445312
 70
   192
  0
VERTEX
  5
540
  8
0
 10
576.3963623046875
 20
13.6777458190918
 30
-58.17068099975586
 70
   192
  0
VERTEX
  5
541
  8
0
 10
576.3963623046875
 20
13.6777458190918
 30
-80.17068481445312
 70
   192
  0
VERTEX
  5
542
  8
0
 10
590.3746948242188
 20
21.94108581542969
 30
-80.17068481445312
 70
   192
  0
VERTEX
  5
543
  8
0
 10
590.8119506835938
 20
21.75998115539551
 30
-58.17068099975586
 70
   192
  0
VERTEX
  5
544
  8
0
 10
593.9785766601562
 20
18.59331512451172
 30
-80.17068481445312
 70
   192
  0
VERTEX
  5
545
  8
0
 10
595.3963623046875
 20
13.6777458190918
 30
-80.17068481445312
 70
   192
  0
VERTEX
  5
546
  8
0
 10
593.9785766601562
 20
18.59331512451172
 30
-58.17068099975586
 70
   192
  0
VERTEX
  5
547
  8
0
 10
595.3963623046875
 20
13.6777458190918
 30
-58.17068099975586
 70
   192
  0
VERTEX
  5
548
  8
0
 10
581.2389526367188
 20
5.490566253662109
 30
-58.17068099975586
 70
   192
  0
VERTEX
  5
549
  8
0
 10
590.7334594726562
 20
5.660123348236084
 30
-58.17068099975586
 70
   192
  0
VERTEX
  5
54A
  8
0
 10
586.0670166015625
 20
4.273272037506104
 30
-58.17068099975586
 70
   192
  0
VERTEX
  5
54B
  8
0
 10
594.036376953125
 20
9.001913070678711
 30
-58.17068099975586
 70
   192
  0
VERTEX
  5
54C
  8
0
 10
577.69384765625
 20
8.856745719909668
 30
-58.17068099975586
 70
   192
  0
VERTEX
  5
54D
  8
0
 10
577.8141479492188
 20
8.762177467346191
 30
-80.17068481445312
 70
   192
  0
VERTEX
  5
54E
  8
0
 10
590.8119506835938
 20
5.595510959625244
 30
-80.17068481445312
 70
   192
  0
VERTEX
  5
54F
  8
0
 10
585.8963623046875
 20
4.177745819091797
 30
-80.17068481445312
 70
   192
  0
VERTEX
  5
550
  8
0
 10
581.4180297851562
 20
5.414406299591064
 30
-80.17068481445312
 70
   192
  0
VERTEX
  5
551
  8
0
 10
593.9785766601562
 20
8.762177467346191
 30
-80.17068481445312
 70
   192
  0
VERTEX
  5
552
  8
0
 62
     9
 10
0.0
 20
0.0
 30
0.0
 70
   128
 71
     3
 72
     2
 73
     1
  0
VERTEX
  5
553
  8
0
 62
     9
 10
0.0
 20
0.0
 30
0.0
 70
   128
 71
     1
 72
     5
 73
     4
  0
VERTEX
  5
554
  8
0
 62
     9
 10
0.0
 20
0.0
 30
0.0
 70
   128
 71
     4
 72
     3
 73
     1
  0
VERTEX
  5
555
  8
0
 62
     9
 10
0.0
 20
0.0
 30
0.0
 70
   128
 71
     7
 72
     6
 73
     5
  0
VERTEX
  5
556
  8
0
 62
     9
 10
0.0
 20
0.0
 30
0.0
 70
   128
 71
     4
 72
     5
 73
     6
  0
VERTEX
  5
557
  8
0
 62
     9
 10
0.0
 20
0.0
 30
0.0
 70
   128
 71
     7
 72
     8
 73
     6
  0
VERTEX
  5
558
  8
0
 62
     9
 10
0.0
 20
0.0
 30
0.0
 70
   128
 71
     3
 72
     9
 73
     2
  0
VERTEX
  5
559
  8
0
 62
     9
 10
0.0
 20
0.0
 30
0.0
 70
   128
 71
    11
 72
    10
 73
     9
  0
VERTEX
  5
55A
  8
0
 62
     9
 10
0.0
 20
0.0
 30
0.0
 70
   128
 71
     2
 72
     9
 73
    10
  0
VERTEX
  5
55B
  8
0
 62
     9
 10
0.0
 20
0.0
 30
0.0
 70
   128
 71
    13
 72
    11
 73
    12
  0
VERTEX
  5
55C
  8
0
 62
     9
 10
0.0
 20
0.0
 30
0.0
 70
   128
 71
    11
 72
    13
 73
    10
  0
VERTEX
  5
55D
  8
0
 62
     9
 10
0.0
 20
0.0
 30
0.0
 70
   128
 71
    14
 72
    13
 73
    12
  0
VERTEX
  5
55E
  8
0
 62
     9
 10
0.0
 20
0.0
 30
0.0
 70
   128
 71
    13
 72
    16
 73
    15
  0
VERTEX
  5
55F
  8
0
 62
     9
 10
0.0
 20
0.0
 30
0.0
 70
   128
 71
    10
 72
     1
 73
     2
  0
VERTEX
  5
560
  8
0
 62
     9
 10
0.0
 20
0.0
 30
0.0
 70
   128
 71
    15
 72
    16
 73
    17
  0
VERTEX
  5
561
  8
0
 62
     9
 10
0.0
 20
0.0
 30
0.0
 70
   128
 71
    13
 72
    18
 73
    16
  0
VERTEX
  5
562
  8
0
 62
     9
 10
0.0
 20
0.0
 30
0.0
 70
   128
 71
    13
 72
    14
 73
    18
  0
VERTEX
  5
563
  8
0
 62
     9
 10
0.0
 20
0.0
 30
0.0
 70
   128
 71
    19
 72
    10
 73
    15
  0
VERTEX
  5
564
  8
0
 62
     9
 10
0.0
 20
0.0
 30
0.0
 70
   128
 71
    10
 72
    13
 73
    15
  0
VERTEX
  5
565
  8
0
 62
     9
 10
0.0
 20
0.0
 30
0.0
 70
   128
 71
     1
 72
    10
 73
    19
  0
VERTEX
  5
566
  8
0
 62
     9
 10
0.0
 20
0.0
 30
0.0
 70
   128
 71
    19
 72
     5
 73
     1
  0
VERTEX
  5
567
  8
0
 62
     9
 10
0.0
 20
0.0
 30
0.0
 70
   128
 71
     7
 72
     5
 73
    19
  0
VERTEX
  5
568
  8
0
 62
     9
 10
0.0
 20
0.0
 30
0.0
 70
   128
 71
    20
 72
     8
 73
    19
  0
VERTEX
  5
569
  8
0
 62
     9
 10
0.0
 20
0.0
 30
0.0
 70
   128
 71
    22
 72
    16
 73
    21
  0
VERTEX
  5
56A
  8
0
 62
     9
 10
0.0
 20
0.0
 30
0.0
 70
   128
 71
    15
 72
    17
 73
    23
  0
VERTEX
  5
56B
  8
0
 62
     9
 10
0.0
 20
0.0
 30
0.0
 70
   128
 71
    18
 72
    14
 73
    24
  0
VERTEX
  5
56C
  8
0
 62
     9
 10
0.0
 20
0.0
 30
0.0
 70
   128
 71
    24
 72
    21
 73
    18
  0
VERTEX
  5
56D
  8
0
 62
     9
 10
0.0
 20
0.0
 30
0.0
 70
   128
 71
    24
 72
    14
 73
    12
  0
VERTEX
  5
56E
  8
0
 62
     9
 10
0.0
 20
0.0
 30
0.0
 70
   128
 71
    16
 72
    22
 73
    17
  0
VERTEX
  5
56F
  8
0
 62
     9
 10
0.0
 20
0.0
 30
0.0
 70
   128
 71
    21
 72
    16
 73
    18
  0
VERTEX
  5
570
  8
0
 62
     9
 10
0.0
 20
0.0
 30
0.0
 70
   128
 71
    20
 72
    15
 73
    23
  0
VERTEX
  5
571
  8
0
 62
     9
 10
0.0
 20
0.0
 30
0.0
 70
   128
 71
    23
 72
    17
 73
    22
  0
VERTEX
  5
572
  8
0
 62
     9
 10
0.0
 20
0.0
 30
0.0
 70
   128
 71
     7
 72
    19
 73
     8
  0
VERTEX
  5
573
  8
0
 62
     9
 10
0.0
 20
0.0
 30
0.0
 70
   128
 71
    19
 72
    15
 73
    20
  0
VERTEX
  5
574
  8
0
 62
     9
 10
0.0
 20
0.0
 30
0.0
 70
   128
 71
     9
 72
     3
 73
     4
  0
VERTEX
  5
575
  8
0
 62
     9
 10
0.0
 20
0.0
 30
0.0
 70
   128
 71
    20
 72
     9
 73
     6
  0
VERTEX
  5
576
  8
0
 62
     9
 10
0.0
 20
0.0
 30
0.0
 70
   128
 71
     6
 72
     9
 73
     4
  0
VERTEX
  5
577
  8
0
 62
     9
 10
0.0
 20
0.0
 30
0.0
 70
   128
 71
    24
 72
    12
 73
    11
  0
VERTEX
  5
578
  8
0
 62
     9
 10
0.0
 20
0.0
 30
0.0
 70
   128
 71
    23
 72
     9
 73
    20
  0
VERTEX
  5
579
  8
0
 62
     9
 10
0.0
 20
0.0
 30
0.0
 70
   128
 71
    23
 72
    21
 73
    24
  0
VERTEX
  5
57A
  8
0
 62
     9
 10
0.0
 20
0.0
 30
0.0
 70
   128
 71
    23
 72
    22
 73
    21
  0
VERTEX
  5
57B
  8
0
 62
     9
 10
0.0
 20
0.0
 30
0.0
 70
   128
 71
    23
 72
    24
 73
    11
  0
VERTEX
  5
57C
  8
0
 62
     9
 10
0.0
 20
0.0
 30
0.0
 70
   128
 71
    23
 72
    11
 73
     9
  0
VERTEX
  5
57D
  8
0
 62
     9
 10
0.0
 20
0.0
 30
0.0
 70
   128
 71
     8
 72
    20
 73
     6
  0
SEQEND
  5
57E
  8
0
 62
     9
  0
ENDBLK
  5
581
  8
0
  0
BLOCK
  8
0
  2
12550-01
 70
     0
 10
0.0
 20
0.0
 30
0.0
  3
12550-01
  1

  0
POLYLINE
  5
583
  8
0
 62
     7
 66
     1
 10
0.0
 20
0.0
 30
0.0
 70
    64
 71
    39
 72
    74
  0
VERTEX
  5
584
  8
0
 10
555.0963745117188
 20
19.74246978759766
 30
-72.6662826538086
 70
   192
  0
VERTEX
  5
585
  8
0
 10
579.2886962890625
 20
20.50334930419922
 30
-70.72309875488281
 70
   192
  0
VERTEX
  5
586
  8
0
 10
578.136474609375
 20
19.15807723999023
 30
-73.52586364746094
 70
   192
  0
VERTEX
  5
587
  8
0
 10
555.0963745117188
 20
17.17334365844727
 30
-75.23540496826172
 70
   192
  0
VERTEX
  5
588
  8
0
 10
576.9238891601562
 20
16.79945755004883
 30
-75.43609619140625
 70
   192
  0
VERTEX
  5
589
  8
0
 10
555.0963745117188
 20
13.6777458190918
 30
-76.17068481445312
 70
   192
  0
VERTEX
  5
58A
  8
0
 10
576.3963623046875
 20
13.6777458190918
 30
-76.17068481445312
 70
   192
  0
VERTEX
  5
58B
  8
0
 10
555.0963745117188
 20
20.6777458190918
 30
-69.17068481445312
 70
   192
  0
VERTEX
  5
58C
  8
0
 10
579.2882690429688
 20
20.50294494628906
 30
-67.61648559570312
 70
   192
  0
VERTEX
  5
58D
  8
0
 10
555.0963745117188
 20
19.74246978759766
 30
-65.67508697509766
 70
   192
  0
VERTEX
  5
58E
  8
0
 10
555.0963745117188
 20
17.17334365844727
 30
-63.10595703125
 70
   192
  0
VERTEX
  5
58F
  8
0
 10
578.1363525390625
 20
19.15790367126465
 30
-64.81527709960938
 70
   192
  0
VERTEX
  5
590
  8
0
 10
576.9212036132812
 20
16.7917366027832
 30
-62.90142822265625
 70
   192
  0
VERTEX
  5
591
  8
0
 10
555.0963745117188
 20
13.6777458190918
 30
-62.17068099975586
 70
   192
  0
VERTEX
  5
592
  8
0
 10
576.3963623046875
 20
13.6777458190918
 30
-62.17068099975586
 70
   192
  0
VERTEX
  5
593
  8
0
 10
555.0963745117188
 20
11.24440670013428
 30
-75.72870635986328
 70
   192
  0
VERTEX
  5
594
  8
0
 10
576.7449340820312
 20
11.19112586975098
 30
-75.7045669555664
 70
   192
  0
VERTEX
  5
595
  8
0
 10
555.0963745117188
 20
6.807965278625488
 30
-67.90254211425781
 70
   192
  0
VERTEX
  5
596
  8
0
 10
555.0963745117188
 20
6.781665325164795
 30
-70.33588409423828
 70
   192
  0
VERTEX
  5
597
  8
0
 10
579.34521484375
 20
6.786099910736084
 30
-70.39478302001953
 70
   192
  0
VERTEX
  5
598
  8
0
 10
577.5110473632812
 20
9.156893730163574
 30
-74.52275085449219
 70
   192
  0
VERTEX
  5
599
  8
0
 10
555.0963745117188
 20
7.613021373748779
 30
-72.6662826538086
 70
   192
  0
VERTEX
  5
59A
  8
0
 10
555.0963745117188
 20
9.144233703613281
 30
-74.48197174072266
 70
   192
  0
VERTEX
  5
59B
  8
0
 10
555.0963745117188
 20
9.222831726074219
 30
-63.78079605102539
 70
   192
  0
VERTEX
  5
59C
  8
0
 10
555.0963745117188
 20
7.613021373748779
 30
-65.67508697509766
 70
   192
  0
VERTEX
  5
59D
  8
0
 10
578.6486206054688
 20
7.599471092224121
 30
-65.71599578857422
 70
   192
  0
VERTEX
  5
59E
  8
0
 10
579.3455200195312
 20
6.785785675048828
 30
-67.97853088378906
 70
   192
  0
VERTEX
  5
59F
  8
0
 10
555.0963745117188
 20
11.24440670013428
 30
-62.6126594543457
 70
   192
  0
VERTEX
  5
5A0
  8
0
 10
576.7474975585938
 20
11.18380165100098
 30
-62.64043045043945
 70
   192
  0
VERTEX
  5
5A1
  8
0
 10
577.60498046875
 20
9.120585441589355
 30
-63.85631561279297
 70
   192
  0
VERTEX
  5
5A2
  8
0
 10
578.52734375
 20
7.635782241821289
 30
-72.69094848632812
 70
   192
  0
VERTEX
  5
5A3
  8
0
 10
553.5963745117188
 20
16.62774658203125
 30
-72.12068176269531
 70
   192
  0
VERTEX
  5
5A4
  8
0
 10
553.5963745117188
 20
10.72774600982666
 30
-66.2206802368164
 70
   192
  0
VERTEX
  5
5A5
  8
0
 10
553.5963745117188
 20
16.62774658203125
 30
-66.2206802368164
 70
   192
  0
VERTEX
  5
5A6
  8
0
 10
553.5963745117188
 20
10.72774600982666
 30
-72.12068176269531
 70
   192
  0
VERTEX
  5
5A7
  8
0
 10
555.0963745117188
 20
16.62774658203125
 30
-66.2206802368164
 70
   192
  0
VERTEX
  5
5A8
  8
0
 10
555.0963745117188
 20
16.62774658203125
 30
-72.12068176269531
 70
   192
  0
VERTEX
  5
5A9
  8
0
 10
555.0963745117188
 20
10.72774600982666
 30
-72.12068176269531
 70
   192
  0
VERTEX
  5
5AA
  8
0
 10
555.0963745117188
 20
10.72774600982666
 30
-66.2206802368164
 70
   192
  0
VERTEX
  5
5AB
  8
0
 62
     7
 10
0.0
 20
0.0
 30
0.0
 70
   128
 71
     3
 72
     2
 73
     1
  0
VERTEX
  5
5AC
  8
0
 62
     7
 10
0.0
 20
0.0
 30
0.0
 70
   128
 71
     5
 72
     3
 73
     4
  0
VERTEX
  5
5AD
  8
0
 62
     7
 10
0.0
 20
0.0
 30
0.0
 70
   128
 71
     3
 72
     1
 73
     4
  0
VERTEX
  5
5AE
  8
0
 62
     7
 10
0.0
 20
0.0
 30
0.0
 70
   128
 71
     7
 72
     5
 73
     6
  0
VERTEX
  5
5AF
  8
0
 62
     7
 10
0.0
 20
0.0
 30
0.0
 70
   128
 71
     6
 72
     5
 73
     4
  0
VERTEX
  5
5B0
  8
0
 62
     7
 10
0.0
 20
0.0
 30
0.0
 70
   128
 71
     8
 72
     1
 73
     2
  0
VERTEX
  5
5B1
  8
0
 62
     7
 10
0.0
 20
0.0
 30
0.0
 70
   128
 71
     2
 72
     9
 73
     8
  0
VERTEX
  5
5B2
  8
0
 62
     7
 10
0.0
 20
0.0
 30
0.0
 70
   128
 71
    10
 72
     8
 73
     9
  0
VERTEX
  5
5B3
  8
0
 62
     7
 10
0.0
 20
0.0
 30
0.0
 70
   128
 71
    12
 72
    11
 73
    10
  0
VERTEX
  5
5B4
  8
0
 62
     7
 10
0.0
 20
0.0
 30
0.0
 70
   128
 71
    10
 72
     9
 73
    12
  0
VERTEX
  5
5B5
  8
0
 62
     7
 10
0.0
 20
0.0
 30
0.0
 70
   128
 71
    14
 72
    11
 73
    13
  0
VERTEX
  5
5B6
  8
0
 62
     7
 10
0.0
 20
0.0
 30
0.0
 70
   128
 71
    12
 72
    13
 73
    11
  0
VERTEX
  5
5B7
  8
0
 62
     7
 10
0.0
 20
0.0
 30
0.0
 70
   128
 71
    15
 72
    14
 73
    13
  0
VERTEX
  5
5B8
  8
0
 62
     7
 10
0.0
 20
0.0
 30
0.0
 70
   128
 71
    17
 72
     7
 73
    16
  0
VERTEX
  5
5B9
  8
0
 62
     7
 10
0.0
 20
0.0
 30
0.0
 70
   128
 71
    20
 72
    19
 73
    18
  0
VERTEX
  5
5BA
  8
0
 62
     7
 10
0.0
 20
0.0
 30
0.0
 70
   128
 71
    23
 72
    22
 73
    21
  0
VERTEX
  5
5BB
  8
0
 62
     7
 10
0.0
 20
0.0
 30
0.0
 70
   128
 71
    26
 72
    25
 73
    24
  0
VERTEX
  5
5BC
  8
0
 62
     7
 10
0.0
 20
0.0
 30
0.0
 70
   128
 71
    25
 72
    26
 73
    27
  0
VERTEX
  5
5BD
  8
0
 62
     7
 10
0.0
 20
0.0
 30
0.0
 70
   128
 71
    29
 72
    24
 73
    28
  0
VERTEX
  5
5BE
  8
0
 62
     7
 10
0.0
 20
0.0
 30
0.0
 70
   128
 71
    24
 72
    29
 73
    30
  0
VERTEX
  5
5BF
  8
0
 62
     7
 10
0.0
 20
0.0
 30
0.0
 70
   128
 71
    28
 72
    14
 73
    15
  0
VERTEX
  5
5C0
  8
0
 62
     7
 10
0.0
 20
0.0
 30
0.0
 70
   128
 71
    15
 72
    29
 73
    28
  0
VERTEX
  5
5C1
  8
0
 62
     7
 10
0.0
 20
0.0
 30
0.0
 70
   128
 71
    25
 72
    27
 73
    18
  0
VERTEX
  5
5C2
  8
0
 62
     7
 10
0.0
 20
0.0
 30
0.0
 70
   128
 71
    30
 72
    26
 73
    24
  0
VERTEX
  5
5C3
  8
0
 62
     7
 10
0.0
 20
0.0
 30
0.0
 70
   128
 71
    20
 72
    31
 73
    19
  0
VERTEX
  5
5C4
  8
0
 62
     7
 10
0.0
 20
0.0
 30
0.0
 70
   128
 71
    27
 72
    20
 73
    18
  0
VERTEX
  5
5C5
  8
0
 62
     7
 10
0.0
 20
0.0
 30
0.0
 70
   128
 71
    22
 72
    31
 73
    21
  0
VERTEX
  5
5C6
  8
0
 62
     7
 10
0.0
 20
0.0
 30
0.0
 70
   128
 71
    31
 72
    22
 73
    19
  0
VERTEX
  5
5C7
  8
0
 62
     7
 10
0.0
 20
0.0
 30
0.0
 70
   128
 71
    16
 72
    23
 73
    17
  0
VERTEX
  5
5C8
  8
0
 62
     7
 10
0.0
 20
0.0
 30
0.0
 70
   128
 71
    17
 72
    23
 73
    21
  0
VERTEX
  5
5C9
  8
0
 62
     7
 10
0.0
 20
0.0
 30
0.0
 70
   128
 71
     6
 72
    16
 73
     7
  0
VERTEX
  5
5CA
  8
0
 62
     7
 10
0.0
 20
0.0
 30
0.0
 70
   128
 71
    20
 72
    27
 73
    26
  0
VERTEX
  5
5CB
  8
0
 62
     7
 10
0.0
 20
0.0
 30
0.0
 70
   128
 71
    15
 72
    13
 73
     7
  0
VERTEX
  5
5CC
  8
0
 62
     7
 10
0.0
 20
0.0
 30
0.0
 70
   128
 71
    26
 72
    30
 73
    31
  0
VERTEX
  5
5CD
  8
0
 62
     7
 10
0.0
 20
0.0
 30
0.0
 70
   128
 71
    31
 72
    20
 73
    26
  0
VERTEX
  5
5CE
  8
0
 62
     7
 10
0.0
 20
0.0
 30
0.0
 70
   128
 71
    30
 72
    21
 73
    31
  0
VERTEX
  5
5CF
  8
0
 62
     7
 10
0.0
 20
0.0
 30
0.0
 70
   128
 71
    29
 72
    17
 73
    21
  0
VERTEX
  5
5D0
  8
0
 62
     7
 10
0.0
 20
0.0
 30
0.0
 70
   128
 71
    21
 72
    30
 73
    29
  0
VERTEX
  5
5D1
  8
0
 62
     7
 10
0.0
 20
0.0
 30
0.0
 70
   128
 71
    15
 72
    17
 73
    29
  0
VERTEX
  5
5D2
  8
0
 62
     7
 10
0.0
 20
0.0
 30
0.0
 70
   128
 71
     5
 72
    12
 73
     3
  0
VERTEX
  5
5D3
  8
0
 62
     7
 10
0.0
 20
0.0
 30
0.0
 70
   128
 71
    15
 72
     7
 73
    17
  0
VERTEX
  5
5D4
  8
0
 62
     7
 10
0.0
 20
0.0
 30
0.0
 70
   128
 71
     3
 72
     9
 73
     2
  0
VERTEX
  5
5D5
  8
0
 62
     7
 10
0.0
 20
0.0
 30
0.0
 70
   128
 71
    13
 72
    12
 73
     5
  0
VERTEX
  5
5D6
  8
0
 62
     7
 10
0.0
 20
0.0
 30
0.0
 70
   128
 71
    12
 72
     9
 73
     3
  0
VERTEX
  5
5D7
  8
0
 62
     7
 10
0.0
 20
0.0
 30
0.0
 70
   128
 71
     5
 72
     7
 73
    13
  0
VERTEX
  5
5D8
  8
0
 62
     7
 10
0.0
 20
0.0
 30
0.0
 70
   128
 71
    34
 72
    33
 73
    32
  0
VERTEX
  5
5D9
  8
0
 62
     7
 10
0.0
 20
0.0
 30
0.0
 70
   128
 71
    35
 72
    32
 73
    33
  0
VERTEX
  5
5DA
  8
0
 62
     7
 10
0.0
 20
0.0
 30
0.0
 70
   128
 71
    32
 72
    37
 73
    36
  0
VERTEX
  5
5DB
  8
0
 62
     7
 10
0.0
 20
0.0
 30
0.0
 70
   128
 71
    36
 72
    34
 73
    32
  0
VERTEX
  5
5DC
  8
0
 62
     7
 10
0.0
 20
0.0
 30
0.0
 70
   128
 71
    38
 72
    37
 73
    32
  0
VERTEX
  5
5DD
  8
0
 62
     7
 10
0.0
 20
0.0
 30
0.0
 70
   128
 71
    32
 72
    35
 73
    38
  0
VERTEX
  5
5DE
  8
0
 62
     7
 10
0.0
 20
0.0
 30
0.0
 70
   128
 71
    39
 72
    38
 73
    35
  0
VERTEX
  5
5DF
  8
0
 62
     7
 10
0.0
 20
0.0
 30
0.0
 70
   128
 71
    35
 72
    33
 73
    39
  0
VERTEX
  5
5E0
  8
0
 62
     7
 10
0.0
 20
0.0
 30
0.0
 70
   128
 71
    36
 72
    39
 73
    34
  0
VERTEX
  5
5E1
  8
0
 62
     7
 10
0.0
 20
0.0
 30
0.0
 70
   128
 71
    39
 72
    33
 73
    34
  0
VERTEX
  5
5E2
  8
0
 62
     7
 10
0.0
 20
0.0
 30
0.0
 70
   128
 71
    10
 72
    11
 73
    36
  0
VERTEX
  5
5E3
  8
0
 62
     7
 10
0.0
 20
0.0
 30
0.0
 70
   128
 71
    28
 72
    24
 73
    39
  0
VERTEX
  5
5E4
  8
0
 62
     7
 10
0.0
 20
0.0
 30
0.0
 70
   128
 71
    36
 72
    11
 73
    14
  0
VERTEX
  5
5E5
  8
0
 62
     7
 10
0.0
 20
0.0
 30
0.0
 70
   128
 71
    18
 72
    39
 73
    25
  0
VERTEX
  5
5E6
  8
0
 62
     7
 10
0.0
 20
0.0
 30
0.0
 70
   128
 71
     8
 72
    36
 73
    37
  0
VERTEX
  5
5E7
  8
0
 62
     7
 10
0.0
 20
0.0
 30
0.0
 70
   128
 71
    18
 72
    38
 73
    39
  0
VERTEX
  5
5E8
  8
0
 62
     7
 10
0.0
 20
0.0
 30
0.0
 70
   128
 71
     1
 72
     8
 73
    37
  0
VERTEX
  5
5E9
  8
0
 62
     7
 10
0.0
 20
0.0
 30
0.0
 70
   128
 71
    19
 72
    38
 73
    18
  0
VERTEX
  5
5EA
  8
0
 62
     7
 10
0.0
 20
0.0
 30
0.0
 70
   128
 71
    38
 72
    19
 73
    22
  0
VERTEX
  5
5EB
  8
0
 62
     7
 10
0.0
 20
0.0
 30
0.0
 70
   128
 71
    24
 72
    25
 73
    39
  0
VERTEX
  5
5EC
  8
0
 62
     7
 10
0.0
 20
0.0
 30
0.0
 70
   128
 71
     6
 72
    38
 73
    16
  0
VERTEX
  5
5ED
  8
0
 62
     7
 10
0.0
 20
0.0
 30
0.0
 70
   128
 71
    23
 72
    16
 73
    38
  0
VERTEX
  5
5EE
  8
0
 62
     7
 10
0.0
 20
0.0
 30
0.0
 70
   128
 71
    37
 72
    38
 73
     6
  0
VERTEX
  5
5EF
  8
0
 62
     7
 10
0.0
 20
0.0
 30
0.0
 70
   128
 71
    36
 72
     8
 73
    10
  0
VERTEX
  5
5F0
  8
0
 62
     7
 10
0.0
 20
0.0
 30
0.0
 70
   128
 71
    39
 72
    14
 73
    28
  0
VERTEX
  5
5F1
  8
0
 62
     7
 10
0.0
 20
0.0
 30
0.0
 70
   128
 71
     4
 72
    37
 73
     6
  0
VERTEX
  5
5F2
  8
0
 62
     7
 10
0.0
 20
0.0
 30
0.0
 70
   128
 71
    37
 72
     4
 73
     1
  0
VERTEX
  5
5F3
  8
0
 62
     7
 10
0.0
 20
0.0
 30
0.0
 70
   128
 71
    38
 72
    22
 73
    23
  0
VERTEX
  5
5F4
  8
0
 62
     7
 10
0.0
 20
0.0
 30
0.0
 70
   128
 71
    36
 72
    14
 73
    39
  0
SEQEND
  5
5F5
  8
0
 62
     7
  0
ENDBLK
  5
5F8
  8
0
  0
BLOCK
  8
0
  2
12500-02
 70
     0
 10
0.0
 20
0.0
 30
0.0
  3
12500-02
  1

  0
POLYLINE
  5
5FA
  8
0
 62
     9
 66
     1
 10
0.0
 20
0.0
 30
0.0
 70
    64
 71
    24
 72
    44
  0
VERTEX
  5
5FB
  8
0
 10
525.0963745117188
 20
5.42816686630249
 30
-84.39262390136719
 70
   192
  0
VERTEX
  5
5FC
  8
0
 10
525.0963745117188
 20
13.6777458190918
 30
-86.67068481445312
 70
   192
  0
VERTEX
  5
5FD
  8
0
 10
555.0963745117188
 20
13.6777458190918
 30
-86.67068481445312
 70
   192
  0
VERTEX
  5
5FE
  8
0
 10
555.0963745117188
 20
5.42816686630249
 30
-84.39262390136719
 70
   192
  0
VERTEX
  5
5FF
  8
0
 10
525.0963745117188
 20
-1.21058189868927
 30
-78.22567749023438
 70
   192
  0
VERTEX
  5
600
  8
0
 10
555.0963745117188
 20
-1.21058189868927
 30
-78.22567749023438
 70
   192
  0
VERTEX
  5
601
  8
0
 10
525.0963745117188
 20
-3.822254180908203
 30
-69.17068481445312
 70
   192
  0
VERTEX
  5
602
  8
0
 10
555.0963745117188
 20
-3.822254180908203
 30
-69.17068481445312
 70
   192
  0
VERTEX
  5
603
  8
0
 10
555.0963745117188
 20
22.73274040222168
 30
-84.05901336669922
 70
   192
  0
VERTEX
  5
604
  8
0
 10
525.0963745117188
 20
22.73274040222168
 30
-84.05901336669922
 70
   192
  0
VERTEX
  5
605
  8
0
 10
555.0963745117188
 20
28.56607437133789
 30
-78.22567749023438
 70
   192
  0
VERTEX
  5
606
  8
0
 10
555.0963745117188
 20
31.1777458190918
 30
-69.17068481445312
 70
   192
  0
VERTEX
  5
607
  8
0
 10
525.0963745117188
 20
28.56607437133789
 30
-78.22567749023438
 70
   192
  0
VERTEX
  5
608
  8
0
 10
525.0963745117188
 20
31.1777458190918
 30
-69.17068481445312
 70
   192
  0
VERTEX
  5
609
  8
0
 10
555.0963745117188
 20
4.76732063293457
 30
-54.4013786315918
 70
   192
  0
VERTEX
  5
60A
  8
0
 10
555.0963745117188
 20
22.25721740722656
 30
-54.08903503417969
 70
   192
  0
VERTEX
  5
60B
  8
0
 10
555.0963745117188
 20
13.36342239379883
 30
-51.84664916992188
 70
   192
  0
VERTEX
  5
60C
  8
0
 10
555.0963745117188
 20
-1.317007660865784
 30
-60.55730438232422
 70
   192
  0
VERTEX
  5
60D
  8
0
 10
555.0963745117188
 20
28.78769683837891
 30
-60.28989028930664
 70
   192
  0
VERTEX
  5
60E
  8
0
 10
525.0963745117188
 20
-1.21058189868927
 30
-60.11568832397461
 70
   192
  0
VERTEX
  5
60F
  8
0
 10
525.0963745117188
 20
21.92732429504395
 30
-53.9487419128418
 70
   192
  0
VERTEX
  5
610
  8
0
 10
525.0963745117188
 20
13.6777458190918
 30
-51.67068099975586
 70
   192
  0
VERTEX
  5
611
  8
0
 10
525.0963745117188
 20
4.622751712799072
 30
-54.28235626220703
 70
   192
  0
VERTEX
  5
612
  8
0
 10
525.0963745117188
 20
28.56607437133789
 30
-60.11568832397461
 70
   192
  0
VERTEX
  5
613
  8
0
 62
     9
 10
0.0
 20
0.0
 30
0.0
 70
   128
 71
     3
 72
     2
 73
     1
  0
VERTEX
  5
614
  8
0
 62
     9
 10
0.0
 20
0.0
 30
0.0
 70
   128
 71
     1
 72
     5
 73
     4
  0
VERTEX
  5
615
  8
0
 62
     9
 10
0.0
 20
0.0
 30
0.0
 70
   128
 71
     4
 72
     3
 73
     1
  0
VERTEX
  5
616
  8
0
 62
     9
 10
0.0
 20
0.0
 30
0.0
 70
   128
 71
     7
 72
     6
 73
     5
  0
VERTEX
  5
617
  8
0
 62
     9
 10
0.0
 20
0.0
 30
0.0
 70
   128
 71
     4
 72
     5
 73
     6
  0
VERTEX
  5
618
  8
0
 62
     9
 10
0.0
 20
0.0
 30
0.0
 70
   128
 71
     7
 72
     8
 73
     6
  0
VERTEX
  5
619
  8
0
 62
     9
 10
0.0
 20
0.0
 30
0.0
 70
   128
 71
     3
 72
     9
 73
     2
  0
VERTEX
  5
61A
  8
0
 62
     9
 10
0.0
 20
0.0
 30
0.0
 70
   128
 71
    11
 72
    10
 73
     9
  0
VERTEX
  5
61B
  8
0
 62
     9
 10
0.0
 20
0.0
 30
0.0
 70
   128
 71
     2
 72
     9
 73
    10
  0
VERTEX
  5
61C
  8
0
 62
     9
 10
0.0
 20
0.0
 30
0.0
 70
   128
 71
    13
 72
    11
 73
    12
  0
VERTEX
  5
61D
  8
0
 62
     9
 10
0.0
 20
0.0
 30
0.0
 70
   128
 71
    11
 72
    13
 73
    10
  0
VERTEX
  5
61E
  8
0
 62
     9
 10
0.0
 20
0.0
 30
0.0
 70
   128
 71
    14
 72
    13
 73
    12
  0
VERTEX
  5
61F
  8
0
 62
     9
 10
0.0
 20
0.0
 30
0.0
 70
   128
 71
    17
 72
    16
 73
    15
  0
VERTEX
  5
620
  8
0
 62
     9
 10
0.0
 20
0.0
 30
0.0
 70
   128
 71
    16
 72
     6
 73
    18
  0
VERTEX
  5
621
  8
0
 62
     9
 10
0.0
 20
0.0
 30
0.0
 70
   128
 71
    16
 72
    18
 73
    15
  0
VERTEX
  5
622
  8
0
 62
     9
 10
0.0
 20
0.0
 30
0.0
 70
   128
 71
    12
 72
    11
 73
    19
  0
VERTEX
  5
623
  8
0
 62
     9
 10
0.0
 20
0.0
 30
0.0
 70
   128
 71
    16
 72
     4
 73
     6
  0
VERTEX
  5
624
  8
0
 62
     9
 10
0.0
 20
0.0
 30
0.0
 70
   128
 71
     9
 72
     4
 73
    11
  0
VERTEX
  5
625
  8
0
 62
     9
 10
0.0
 20
0.0
 30
0.0
 70
   128
 71
     3
 72
     4
 73
     9
  0
VERTEX
  5
626
  8
0
 62
     9
 10
0.0
 20
0.0
 30
0.0
 70
   128
 71
    11
 72
     4
 73
    19
  0
VERTEX
  5
627
  8
0
 62
     9
 10
0.0
 20
0.0
 30
0.0
 70
   128
 71
    19
 72
     4
 73
    16
  0
VERTEX
  5
628
  8
0
 62
     9
 10
0.0
 20
0.0
 30
0.0
 70
   128
 71
     6
 72
     8
 73
    18
  0
VERTEX
  5
629
  8
0
 62
     9
 10
0.0
 20
0.0
 30
0.0
 70
   128
 71
    18
 72
     8
 73
    20
  0
VERTEX
  5
62A
  8
0
 62
     9
 10
0.0
 20
0.0
 30
0.0
 70
   128
 71
    17
 72
    21
 73
    16
  0
VERTEX
  5
62B
  8
0
 62
     9
 10
0.0
 20
0.0
 30
0.0
 70
   128
 71
    23
 72
    22
 73
    15
  0
VERTEX
  5
62C
  8
0
 62
     9
 10
0.0
 20
0.0
 30
0.0
 70
   128
 71
    24
 72
    14
 73
    19
  0
VERTEX
  5
62D
  8
0
 62
     9
 10
0.0
 20
0.0
 30
0.0
 70
   128
 71
    19
 72
    16
 73
    24
  0
VERTEX
  5
62E
  8
0
 62
     9
 10
0.0
 20
0.0
 30
0.0
 70
   128
 71
    19
 72
    14
 73
    12
  0
VERTEX
  5
62F
  8
0
 62
     9
 10
0.0
 20
0.0
 30
0.0
 70
   128
 71
    21
 72
    17
 73
    22
  0
VERTEX
  5
630
  8
0
 62
     9
 10
0.0
 20
0.0
 30
0.0
 70
   128
 71
    16
 72
    21
 73
    24
  0
VERTEX
  5
631
  8
0
 62
     9
 10
0.0
 20
0.0
 30
0.0
 70
   128
 71
    18
 72
    23
 73
    15
  0
VERTEX
  5
632
  8
0
 62
     9
 10
0.0
 20
0.0
 30
0.0
 70
   128
 71
    15
 72
    22
 73
    17
  0
VERTEX
  5
633
  8
0
 62
     9
 10
0.0
 20
0.0
 30
0.0
 70
   128
 71
     7
 72
    20
 73
     8
  0
VERTEX
  5
634
  8
0
 62
     9
 10
0.0
 20
0.0
 30
0.0
 70
   128
 71
    20
 72
    23
 73
    18
  0
VERTEX
  5
635
  8
0
 62
     9
 10
0.0
 20
0.0
 30
0.0
 70
   128
 71
    21
 72
    22
 73
    23
  0
VERTEX
  5
636
  8
0
 62
     9
 10
0.0
 20
0.0
 30
0.0
 70
   128
 71
     5
 72
    21
 73
    20
  0
VERTEX
  5
637
  8
0
 62
     9
 10
0.0
 20
0.0
 30
0.0
 70
   128
 71
    20
 72
    21
 73
    23
  0
VERTEX
  5
638
  8
0
 62
     9
 10
0.0
 20
0.0
 30
0.0
 70
   128
 71
    13
 72
    14
 73
    24
  0
VERTEX
  5
639
  8
0
 62
     9
 10
0.0
 20
0.0
 30
0.0
 70
   128
 71
     1
 72
    21
 73
     5
  0
VERTEX
  5
63A
  8
0
 62
     9
 10
0.0
 20
0.0
 30
0.0
 70
   128
 71
     1
 72
    10
 73
    13
  0
VERTEX
  5
63B
  8
0
 62
     9
 10
0.0
 20
0.0
 30
0.0
 70
   128
 71
     1
 72
     2
 73
    10
  0
VERTEX
  5
63C
  8
0
 62
     9
 10
0.0
 20
0.0
 30
0.0
 70
   128
 71
     1
 72
    13
 73
    24
  0
VERTEX
  5
63D
  8
0
 62
     9
 10
0.0
 20
0.0
 30
0.0
 70
   128
 71
     1
 72
    24
 73
    21
  0
VERTEX
  5
63E
  8
0
 62
     9
 10
0.0
 20
0.0
 30
0.0
 70
   128
 71
     7
 72
     5
 73
    20
  0
SEQEND
  5
63F
  8
0
 62
     9
  0
ENDBLK
  5
642
  8
0
  0
BLOCK
  8
0
  2
12550-05
 70
     0
 10
0.0
 20
0.0
 30
0.0
  3
12550-05
  1

  0
POLYLINE
  5
644
  8
0
 62
     9
 66
     1
 10
0.0
 20
0.0
 30
0.0
 70
    64
 71
   153
 72
   294
  0
VERTEX
  5
645
  8
0
 10
588.896240234375
 20
13.70186233520508
 30
-103.4706802368164
 70
   192
  0
VERTEX
  5
646
  8
0
 10
588.4610595703125
 20
12.14602851867676
 30
-103.4706802368164
 70
   192
  0
VERTEX
  5
647
  8
0
 10
585.8963623046875
 20
13.6777458190918
 30
-103.6706848144531
 70
   192
  0
VERTEX
  5
648
  8
0
 10
587.3314819335938
 20
11.0797233581543
 30
-103.4706802368164
 70
   192
  0
VERTEX
  5
649
  8
0
 10
583.3566284179688
 20
12.10499382019043
 30
-103.4706802368164
 70
   192
  0
VERTEX
  5
64A
  8
0
 10
584.3646240234375
 20
11.11306476593018
 30
-103.4706802368164
 70
   192
  0
VERTEX
  5
64B
  8
0
 10
582.896484375
 20
13.65362930297852
 30
-103.4706802368164
 70
   192
  0
VERTEX
  5
64C
  8
0
 10
585.9204711914062
 20
10.67784309387207
 30
-103.4706802368164
 70
   192
  0
VERTEX
  5
64D
  8
0
 10
588.4743041992188
 20
15.22094058990479
 30
-103.4706802368164
 70
   192
  0
VERTEX
  5
64E
  8
0
 10
583.3140258789062
 20
15.13361263275146
 30
-103.4706802368164
 70
   192
  0
VERTEX
  5
64F
  8
0
 10
584.3485717773438
 20
16.197265625
 30
-103.4706802368164
 70
   192
  0
VERTEX
  5
650
  8
0
 10
587.3463134765625
 20
16.27490997314453
 30
-103.4706802368164
 70
   192
  0
VERTEX
  5
651
  8
0
 10
585.818603515625
 20
16.64705085754395
 30
-103.4706802368164
 70
   192
  0
VERTEX
  5
652
  8
0
 10
585.0910034179688
 20
18.33762359619141
 30
-101.3706817626953
 70
   192
  0
VERTEX
  5
653
  8
0
 10
586.7242431640625
 20
18.35075378417969
 30
-101.3706817626953
 70
   192
  0
VERTEX
  5
654
  8
0
 10
586.7242431640625
 20
18.35075378417969
 30
-102.6706848144531
 70
   192
  0
VERTEX
  5
655
  8
0
 10
588.2888793945312
 20
17.75552749633789
 30
-102.6706848144531
 70
   192
  0
VERTEX
  5
656
  8
0
 10
588.2888793945312
 20
17.75552749633789
 30
-101.3706817626953
 70
   192
  0
VERTEX
  5
657
  8
0
 10
589.5260620117188
 20
16.7397403717041
 30
-101.3706817626953
 70
   192
  0
VERTEX
  5
658
  8
0
 10
589.5260620117188
 20
16.7397403717041
 30
-102.6706848144531
 70
   192
  0
VERTEX
  5
659
  8
0
 10
590.3118286132812
 20
15.39320850372314
 30
-101.3706817626953
 70
   192
  0
VERTEX
  5
65A
  8
0
 10
590.3118286132812
 20
15.39320850372314
 30
-102.6706848144531
 70
   192
  0
VERTEX
  5
65B
  8
0
 10
590.6461791992188
 20
13.7159309387207
 30
-102.6706848144531
 70
   192
  0
VERTEX
  5
65C
  8
0
 10
590.6461791992188
 20
13.7159309387207
 30
-101.3706817626953
 70
   192
  0
VERTEX
  5
65D
  8
0
 10
585.0910034179688
 20
18.33762359619141
 30
-102.6706848144531
 70
   192
  0
VERTEX
  5
65E
  8
0
 10
583.5386962890625
 20
17.79163932800293
 30
-102.6706848144531
 70
   192
  0
VERTEX
  5
65F
  8
0
 10
583.5386962890625
 20
17.79163932800293
 30
-101.3706817626953
 70
   192
  0
VERTEX
  5
660
  8
0
 10
582.2623901367188
 20
16.71436882019043
 30
-102.6706848144531
 70
   192
  0
VERTEX
  5
661
  8
0
 10
582.2623901367188
 20
16.71436882019043
 30
-101.3706817626953
 70
   192
  0
VERTEX
  5
662
  8
0
 10
581.453857421875
 20
15.32199859619141
 30
-101.3706817626953
 70
   192
  0
VERTEX
  5
663
  8
0
 10
581.453857421875
 20
15.32199859619141
 30
-102.6706848144531
 70
   192
  0
VERTEX
  5
664
  8
0
 10
581.1465454101562
 20
13.63956069946289
 30
-101.3706817626953
 70
   192
  0
VERTEX
  5
665
  8
0
 10
581.1465454101562
 20
13.63956069946289
 30
-102.6706848144531
 70
   192
  0
VERTEX
  5
666
  8
0
 10
583.4879760742188
 20
4.49359655380249
 30
-104.6706848144531
 70
   192
  0
VERTEX
  5
667
  8
0
 10
585.91650390625
 20
4.189164161682129
 30
-104.6706848144531
 70
   192
  0
VERTEX
  5
668
  8
0
 10
586.0287475585938
 20
4.190066337585449
 30
-102.6706848144531
 70
   192
  0
VERTEX
  5
669
  8
0
 10
583.514892578125
 20
4.480781078338623
 30
-102.6706848144531
 70
   192
  0
VERTEX
  5
66A
  8
0
 10
581.182861328125
 20
5.432715892791748
 30
-104.6706848144531
 70
   192
  0
VERTEX
  5
66B
  8
0
 10
581.2611083984375
 20
5.395433902740479
 30
-102.6706848144531
 70
   192
  0
VERTEX
  5
66C
  8
0
 10
579.2128295898438
 20
6.944109439849854
 30
-104.6706848144531
 70
   192
  0
VERTEX
  5
66D
  8
0
 10
577.6962890625
 20
8.884509086608887
 30
-104.6706848144531
 70
   192
  0
VERTEX
  5
66E
  8
0
 10
579.2652587890625
 20
6.880695343017578
 30
-102.6706848144531
 70
   192
  0
VERTEX
  5
66F
  8
0
 10
577.7351684570312
 20
8.83753490447998
 30
-102.6706848144531
 70
   192
  0
VERTEX
  5
670
  8
0
 10
576.757568359375
 20
11.10359764099121
 30
-104.6706848144531
 70
   192
  0
VERTEX
  5
671
  8
0
 10
576.757568359375
 20
11.10359764099121
 30
-102.6706848144531
 70
   192
  0
VERTEX
  5
672
  8
0
 10
576.3966674804688
 20
13.6013765335083
 30
-104.6706848144531
 70
   192
  0
VERTEX
  5
673
  8
0
 10
576.3966674804688
 20
13.6013765335083
 30
-102.6706848144531
 70
   192
  0
VERTEX
  5
674
  8
0
 10
588.4520874023438
 20
4.533503532409668
 30
-102.6706848144531
 70
   192
  0
VERTEX
  5
675
  8
0
 10
588.4253540039062
 20
4.520256996154785
 30
-104.6706848144531
 70
   192
  0
VERTEX
  5
676
  8
0
 10
590.7418212890625
 20
5.509561538696289
 30
-102.6706848144531
 70
   192
  0
VERTEX
  5
677
  8
0
 10
592.6873168945312
 20
7.052433013916016
 30
-102.6706848144531
 70
   192
  0
VERTEX
  5
678
  8
0
 10
590.6641235351562
 20
5.471026420593262
 30
-104.6706848144531
 70
   192
  0
VERTEX
  5
679
  8
0
 10
592.6359252929688
 20
6.988183975219727
 30
-104.6706848144531
 70
   192
  0
VERTEX
  5
67A
  8
0
 10
594.1724243164062
 20
9.016963005065918
 30
-102.6706848144531
 70
   192
  0
VERTEX
  5
67B
  8
0
 10
594.1343383789062
 20
8.96937084197998
 30
-104.6706848144531
 70
   192
  0
VERTEX
  5
67C
  8
0
 10
595.0753173828125
 20
11.25085639953613
 30
-102.6706848144531
 70
   192
  0
VERTEX
  5
67D
  8
0
 10
595.3960571289062
 20
13.75411510467529
 30
-102.6706848144531
 70
   192
  0
VERTEX
  5
67E
  8
0
 10
595.0753173828125
 20
11.25085639953613
 30
-104.6706848144531
 70
   192
  0
VERTEX
  5
67F
  8
0
 10
595.3960571289062
 20
13.75411510467529
 30
-104.6706848144531
 70
   192
  0
VERTEX
  5
680
  8
0
 10
595.0316772460938
 20
16.20825958251953
 30
-104.6706848144531
 70
   192
  0
VERTEX
  5
681
  8
0
 10
592.557861328125
 20
20.39853477478027
 30
-104.6706848144531
 70
   192
  0
VERTEX
  5
682
  8
0
 10
594.075439453125
 20
18.4401741027832
 30
-104.6706848144531
 70
   192
  0
VERTEX
  5
683
  8
0
 10
576.6786499023438
 20
16.08379364013672
 30
-104.6706848144531
 70
   192
  0
VERTEX
  5
684
  8
0
 10
590.5828247070312
 20
21.90883827209473
 30
-104.6706848144531
 70
   192
  0
VERTEX
  5
685
  8
0
 10
588.3085327148438
 20
22.84855461120605
 30
-104.6706848144531
 70
   192
  0
VERTEX
  5
686
  8
0
 10
585.850341796875
 20
23.16903305053711
 30
-104.6706848144531
 70
   192
  0
VERTEX
  5
687
  8
0
 10
581.0790405273438
 20
21.87026596069336
 30
-104.6706848144531
 70
   192
  0
VERTEX
  5
688
  8
0
 10
583.37890625
 20
22.82594871520996
 30
-104.6706848144531
 70
   192
  0
VERTEX
  5
689
  8
0
 10
577.6175537109375
 20
18.3969612121582
 30
-104.6706848144531
 70
   192
  0
VERTEX
  5
68A
  8
0
 10
579.1273803710938
 20
20.36746215820312
 30
-104.6706848144531
 70
   192
  0
VERTEX
  5
68B
  8
0
 10
576.7174072265625
 20
16.10463523864746
 30
-102.6706848144531
 70
   192
  0
VERTEX
  5
68C
  8
0
 10
581.0509033203125
 20
21.8459300994873
 30
-102.6706848144531
 70
   192
  0
VERTEX
  5
68D
  8
0
 10
577.6203002929688
 20
18.33852958679199
 30
-102.6706848144531
 70
   192
  0
VERTEX
  5
68E
  8
0
 10
588.27783203125
 20
22.87471008300781
 30
-102.6706848144531
 70
   192
  0
VERTEX
  5
68F
  8
0
 10
583.3406372070312
 20
22.82198905944824
 30
-102.6706848144531
 70
   192
  0
VERTEX
  5
690
  8
0
 10
585.7639770507812
 20
23.16542434692383
 30
-102.6706848144531
 70
   192
  0
VERTEX
  5
691
  8
0
 10
592.5274658203125
 20
20.47479629516602
 30
-102.6706848144531
 70
   192
  0
VERTEX
  5
692
  8
0
 10
590.5316162109375
 20
21.96005821228027
 30
-102.6706848144531
 70
   192
  0
VERTEX
  5
693
  8
0
 10
594.0575561523438
 20
18.5179557800293
 30
-102.6706848144531
 70
   192
  0
VERTEX
  5
694
  8
0
 10
595.03515625
 20
16.25189399719238
 30
-102.6706848144531
 70
   192
  0
VERTEX
  5
695
  8
0
 10
579.1054077148438
 20
20.30305862426758
 30
-102.6706848144531
 70
   192
  0
VERTEX
  5
696
  8
0
 10
588.2813720703125
 20
9.58149242401123
 30
-102.6706848144531
 70
   192
  0
VERTEX
  5
697
  8
0
 10
589.5501098632812
 20
10.62788200378418
 30
-102.6706848144531
 70
   192
  0
VERTEX
  5
698
  8
0
 10
586.7440795898438
 20
9.021931648254395
 30
-102.6706848144531
 70
   192
  0
VERTEX
  5
699
  8
0
 10
585.0939331054688
 20
9.002218246459961
 30
-102.6706848144531
 70
   192
  0
VERTEX
  5
69A
  8
0
 10
582.28173828125
 20
10.65082263946533
 30
-102.6706848144531
 70
   192
  0
VERTEX
  5
69B
  8
0
 10
581.4675903320312
 20
12.02406787872314
 30
-102.6706848144531
 70
   192
  0
VERTEX
  5
69C
  8
0
 10
583.5372314453125
 20
9.587223052978516
 30
-102.6706848144531
 70
   192
  0
VERTEX
  5
69D
  8
0
 10
590.3898315429688
 20
12.06383609771729
 30
-102.6706848144531
 70
   192
  0
VERTEX
  5
69E
  8
0
 10
590.3388671875
 20
12.03349304199219
 30
-101.3706817626953
 70
   192
  0
VERTEX
  5
69F
  8
0
 10
586.7017211914062
 20
9.017868041992188
 30
-101.3706817626953
 70
   192
  0
VERTEX
  5
6A0
  8
0
 10
589.5303344726562
 20
10.64112186431885
 30
-101.3706817626953
 70
   192
  0
VERTEX
  5
6A1
  8
0
 10
583.5037841796875
 20
9.599964141845703
 30
-101.3706817626953
 70
   192
  0
VERTEX
  5
6A2
  8
0
 10
582.2666625976562
 20
10.61575031280518
 30
-101.3706817626953
 70
   192
  0
VERTEX
  5
6A3
  8
0
 10
585.0684814453125
 20
9.004737854003906
 30
-101.3706817626953
 70
   192
  0
VERTEX
  5
6A4
  8
0
 10
581.4808959960938
 20
11.96228313446045
 30
-101.3706817626953
 70
   192
  0
VERTEX
  5
6A5
  8
0
 10
588.2540283203125
 20
9.563852310180664
 30
-101.3706817626953
 70
   192
  0
VERTEX
  5
6A6
  8
0
 10
589.7211303710938
 20
16.48759269714355
 30
-99.37068176269531
 70
   192
  0
VERTEX
  5
6A7
  8
0
 10
589.5260620117188
 20
16.7397403717041
 30
-99.87068176269531
 70
   192
  0
VERTEX
  5
6A8
  8
0
 10
588.6810302734375
 20
17.54583358764648
 30
-99.37068176269531
 70
   192
  0
VERTEX
  5
6A9
  8
0
 10
585.0910034179688
 20
18.33762359619141
 30
-99.87068176269531
 70
   192
  0
VERTEX
  5
6AA
  8
0
 10
585.858154296875
 20
18.42759323120117
 30
-99.37068176269531
 70
   192
  0
VERTEX
  5
6AB
  8
0
 10
586.7242431640625
 20
18.35075378417969
 30
-99.87068176269531
 70
   192
  0
VERTEX
  5
6AC
  8
0
 10
590.3853149414062
 20
15.18797492980957
 30
-99.37068176269531
 70
   192
  0
VERTEX
  5
6AD
  8
0
 10
590.3118286132812
 20
15.39320850372314
 30
-99.87068176269531
 70
   192
  0
VERTEX
  5
6AE
  8
0
 10
590.6461791992188
 20
13.7159309387207
 30
-99.87068176269531
 70
   192
  0
VERTEX
  5
6AF
  8
0
 10
590.6461791992188
 20
13.7159309387207
 30
-99.37068176269531
 70
   192
  0
VERTEX
  5
6B0
  8
0
 10
588.2888793945312
 20
17.75552749633789
 30
-99.87068176269531
 70
   192
  0
VERTEX
  5
6B1
  8
0
 10
587.3427124023438
 20
18.22223281860352
 30
-99.37068176269531
 70
   192
  0
VERTEX
  5
6B2
  8
0
 10
581.453857421875
 20
15.32199859619141
 30
-99.87068176269531
 70
   192
  0
VERTEX
  5
6B3
  8
0
 10
582.0663452148438
 20
16.44748115539551
 30
-99.37068176269531
 70
   192
  0
VERTEX
  5
6B4
  8
0
 10
582.2623901367188
 20
16.71436882019043
 30
-99.87068176269531
 70
   192
  0
VERTEX
  5
6B5
  8
0
 10
583.5386962890625
 20
17.79163932800293
 30
-99.87068176269531
 70
   192
  0
VERTEX
  5
6B6
  8
0
 10
583.1126708984375
 20
17.49482536315918
 30
-99.37068176269531
 70
   192
  0
VERTEX
  5
6B7
  8
0
 10
584.3970336914062
 20
18.16876983642578
 30
-99.37068176269531
 70
   192
  0
VERTEX
  5
6B8
  8
0
 10
581.1465454101562
 20
13.63956069946289
 30
-99.87068176269531
 70
   192
  0
VERTEX
  5
6B9
  8
0
 10
581.1465454101562
 20
13.63956069946289
 30
-99.37068176269531
 70
   192
  0
VERTEX
  5
6BA
  8
0
 10
581.38330078125
 20
15.12349414825439
 30
-99.37068176269531
 70
   192
  0
VERTEX
  5
6BB
  8
0
 10
588.727294921875
 20
9.892756462097168
 30
-99.37068176269531
 70
   192
  0
VERTEX
  5
6BC
  8
0
 10
587.4312744140625
 20
9.727066040039062
 30
-98.87068176269531
 70
   192
  0
VERTEX
  5
6BD
  8
0
 10
587.4144897460938
 20
9.188486099243164
 30
-99.37068176269531
 70
   192
  0
VERTEX
  5
6BE
  8
0
 10
590.410888671875
 20
12.25078582763672
 30
-99.37068176269531
 70
   192
  0
VERTEX
  5
6BF
  8
0
 10
590.0767822265625
 20
13.02429103851318
 30
-98.87068176269531
 70
   192
  0
VERTEX
  5
6C0
  8
0
 10
589.6106567382812
 20
11.62771797180176
 30
-98.87068176269531
 70
   192
  0
VERTEX
  5
6C1
  8
0
 10
588.665283203125
 20
10.47041893005371
 30
-98.87068176269531
 70
   192
  0
VERTEX
  5
6C2
  8
0
 10
589.7576904296875
 20
10.95579624176025
 30
-99.37068176269531
 70
   192
  0
VERTEX
  5
6C3
  8
0
 10
585.9345703125
 20
8.927899360656738
 30
-99.37068176269531
 70
   192
  0
VERTEX
  5
6C4
  8
0
 10
585.9305419921875
 20
9.42788314819336
 30
-98.87068176269531
 70
   192
  0
VERTEX
  5
6C5
  8
0
 10
590.0650024414062
 20
14.48559665679932
 30
-98.87068176269531
 70
   192
  0
VERTEX
  5
6C6
  8
0
 10
589.510009765625
 20
15.87682819366455
 30
-98.87068176269531
 70
   192
  0
VERTEX
  5
6C7
  8
0
 10
588.58349609375
 20
16.96899795532227
 30
-98.87068176269531
 70
   192
  0
VERTEX
  5
6C8
  8
0
 10
587.3675537109375
 20
17.65259170532227
 30
-98.87068176269531
 70
   192
  0
VERTEX
  5
6C9
  8
0
 10
585.8621826171875
 20
17.92760848999023
 30
-98.87068176269531
 70
   192
  0
VERTEX
  5
6CA
  8
0
 10
584.3684692382812
 20
17.66477394104004
 30
-98.87068176269531
 70
   192
  0
VERTEX
  5
6CB
  8
0
 10
583.1184692382812
 20
16.8892707824707
 30
-98.87068176269531
 70
   192
  0
VERTEX
  5
6CC
  8
0
 10
584.4757690429688
 20
9.704120635986328
 30
-98.87068176269531
 70
   192
  0
VERTEX
  5
6CD
  8
0
 10
582.216552734375
 20
15.76749801635742
 30
-98.87068176269531
 70
   192
  0
VERTEX
  5
6CE
  8
0
 10
581.7041015625
 20
14.35168361663818
 30
-98.87068176269531
 70
   192
  0
VERTEX
  5
6CF
  8
0
 10
582.2682495117188
 20
11.51848888397217
 30
-98.87068176269531
 70
   192
  0
VERTEX
  5
6D0
  8
0
 10
583.2550048828125
 20
10.4009895324707
 30
-98.87068176269531
 70
   192
  0
VERTEX
  5
6D1
  8
0
 10
581.7486572265625
 20
12.86781883239746
 30
-98.87068176269531
 70
   192
  0
VERTEX
  5
6D2
  8
0
 10
584.45849609375
 20
9.165079116821289
 30
-99.37068176269531
 70
   192
  0
VERTEX
  5
6D3
  8
0
 10
582.0735473632812
 20
10.83123111724854
 30
-99.37068176269531
 70
   192
  0
VERTEX
  5
6D4
  8
0
 10
581.375732421875
 20
12.15850925445557
 30
-99.37068176269531
 70
   192
  0
VERTEX
  5
6D5
  8
0
 10
583.1483764648438
 20
9.8082857131958
 30
-99.37068176269531
 70
   192
  0
VERTEX
  5
6D6
  8
0
 10
586.7017211914062
 20
9.017868041992188
 30
-99.87068176269531
 70
   192
  0
VERTEX
  5
6D7
  8
0
 10
588.2540283203125
 20
9.563852310180664
 30
-99.87068176269531
 70
   192
  0
VERTEX
  5
6D8
  8
0
 10
589.5303344726562
 20
10.64112186431885
 30
-99.87068176269531
 70
   192
  0
VERTEX
  5
6D9
  8
0
 10
583.5037841796875
 20
9.599964141845703
 30
-99.87068176269531
 70
   192
  0
VERTEX
  5
6DA
  8
0
 10
585.0684814453125
 20
9.004737854003906
 30
-99.87068176269531
 70
   192
  0
VERTEX
  5
6DB
  8
0
 10
581.4808959960938
 20
11.96228313446045
 30
-99.87068176269531
 70
   192
  0
VERTEX
  5
6DC
  8
0
 10
582.2666625976562
 20
10.61575031280518
 30
-99.87068176269531
 70
   192
  0
VERTEX
  5
6DD
  8
0
 10
590.3388671875
 20
12.03349304199219
 30
-99.87068176269531
 70
   192
  0
VERTEX
  5
6DE
  8
0
 62
     9
 10
0.0
 20
0.0
 30
0.0
 70
   128
 71
     3
 72
     2
 73
     1
  0
VERTEX
  5
6DF
  8
0
 62
     9
 10
0.0
 20
0.0
 30
0.0
 70
   128
 71
     2
 72
     3
 73
     4
  0
VERTEX
  5
6E0
  8
0
 62
     9
 10
0.0
 20
0.0
 30
0.0
 70
   128
 71
     6
 72
     3
 73
     5
  0
VERTEX
  5
6E1
  8
0
 62
     9
 10
0.0
 20
0.0
 30
0.0
 70
   128
 71
     3
 72
     7
 73
     5
  0
VERTEX
  5
6E2
  8
0
 62
     9
 10
0.0
 20
0.0
 30
0.0
 70
   128
 71
     3
 72
     6
 73
     8
  0
VERTEX
  5
6E3
  8
0
 62
     9
 10
0.0
 20
0.0
 30
0.0
 70
   128
 71
     4
 72
     3
 73
     8
  0
VERTEX
  5
6E4
  8
0
 62
     9
 10
0.0
 20
0.0
 30
0.0
 70
   128
 71
     9
 72
     1
 73
     2
  0
VERTEX
  5
6E5
  8
0
 62
     9
 10
0.0
 20
0.0
 30
0.0
 70
   128
 71
     6
 72
     5
 73
     4
  0
VERTEX
  5
6E6
  8
0
 62
     9
 10
0.0
 20
0.0
 30
0.0
 70
   128
 71
     4
 72
     8
 73
     6
  0
VERTEX
  5
6E7
  8
0
 62
     9
 10
0.0
 20
0.0
 30
0.0
 70
   128
 71
    11
 72
     4
 73
    10
  0
VERTEX
  5
6E8
  8
0
 62
     9
 10
0.0
 20
0.0
 30
0.0
 70
   128
 71
    11
 72
    12
 73
     9
  0
VERTEX
  5
6E9
  8
0
 62
     9
 10
0.0
 20
0.0
 30
0.0
 70
   128
 71
    12
 72
    11
 73
    13
  0
VERTEX
  5
6EA
  8
0
 62
     9
 10
0.0
 20
0.0
 30
0.0
 70
   128
 71
     2
 72
    11
 73
     9
  0
VERTEX
  5
6EB
  8
0
 62
     9
 10
0.0
 20
0.0
 30
0.0
 70
   128
 71
    11
 72
     2
 73
     4
  0
VERTEX
  5
6EC
  8
0
 62
     9
 10
0.0
 20
0.0
 30
0.0
 70
   128
 71
    10
 72
     5
 73
     7
  0
VERTEX
  5
6ED
  8
0
 62
     9
 10
0.0
 20
0.0
 30
0.0
 70
   128
 71
    10
 72
     4
 73
     5
  0
VERTEX
  5
6EE
  8
0
 62
     9
 10
0.0
 20
0.0
 30
0.0
 70
   128
 71
     3
 72
    10
 73
     7
  0
VERTEX
  5
6EF
  8
0
 62
     9
 10
0.0
 20
0.0
 30
0.0
 70
   128
 71
    10
 72
     3
 73
    11
  0
VERTEX
  5
6F0
  8
0
 62
     9
 10
0.0
 20
0.0
 30
0.0
 70
   128
 71
    12
 72
     3
 73
     9
  0
VERTEX
  5
6F1
  8
0
 62
     9
 10
0.0
 20
0.0
 30
0.0
 70
   128
 71
     3
 72
     1
 73
     9
  0
VERTEX
  5
6F2
  8
0
 62
     9
 10
0.0
 20
0.0
 30
0.0
 70
   128
 71
     3
 72
    12
 73
    13
  0
VERTEX
  5
6F3
  8
0
 62
     9
 10
0.0
 20
0.0
 30
0.0
 70
   128
 71
    11
 72
     3
 73
    13
  0
VERTEX
  5
6F4
  8
0
 62
     9
 10
0.0
 20
0.0
 30
0.0
 70
   128
 71
    16
 72
    15
 73
    14
  0
VERTEX
  5
6F5
  8
0
 62
     9
 10
0.0
 20
0.0
 30
0.0
 70
   128
 71
    18
 72
    15
 73
    17
  0
VERTEX
  5
6F6
  8
0
 62
     9
 10
0.0
 20
0.0
 30
0.0
 70
   128
 71
    16
 72
    17
 73
    15
  0
VERTEX
  5
6F7
  8
0
 62
     9
 10
0.0
 20
0.0
 30
0.0
 70
   128
 71
    18
 72
    20
 73
    19
  0
VERTEX
  5
6F8
  8
0
 62
     9
 10
0.0
 20
0.0
 30
0.0
 70
   128
 71
    20
 72
    18
 73
    17
  0
VERTEX
  5
6F9
  8
0
 62
     9
 10
0.0
 20
0.0
 30
0.0
 70
   128
 71
    22
 72
    21
 73
    19
  0
VERTEX
  5
6FA
  8
0
 62
     9
 10
0.0
 20
0.0
 30
0.0
 70
   128
 71
    19
 72
    20
 73
    22
  0
VERTEX
  5
6FB
  8
0
 62
     9
 10
0.0
 20
0.0
 30
0.0
 70
   128
 71
    22
 72
    23
 73
    21
  0
VERTEX
  5
6FC
  8
0
 62
     9
 10
0.0
 20
0.0
 30
0.0
 70
   128
 71
    23
 72
    24
 73
    21
  0
VERTEX
  5
6FD
  8
0
 62
     9
 10
0.0
 20
0.0
 30
0.0
 70
   128
 71
    25
 72
    16
 73
    14
  0
VERTEX
  5
6FE
  8
0
 62
     9
 10
0.0
 20
0.0
 30
0.0
 70
   128
 71
    25
 72
    27
 73
    26
  0
VERTEX
  5
6FF
  8
0
 62
     9
 10
0.0
 20
0.0
 30
0.0
 70
   128
 71
    27
 72
    25
 73
    14
  0
VERTEX
  5
700
  8
0
 62
     9
 10
0.0
 20
0.0
 30
0.0
 70
   128
 71
    29
 72
    28
 73
    26
  0
VERTEX
  5
701
  8
0
 62
     9
 10
0.0
 20
0.0
 30
0.0
 70
   128
 71
    26
 72
    27
 73
    29
  0
VERTEX
  5
702
  8
0
 62
     9
 10
0.0
 20
0.0
 30
0.0
 70
   128
 71
    31
 72
    28
 73
    30
  0
VERTEX
  5
703
  8
0
 62
     9
 10
0.0
 20
0.0
 30
0.0
 70
   128
 71
    29
 72
    30
 73
    28
  0
VERTEX
  5
704
  8
0
 62
     9
 10
0.0
 20
0.0
 30
0.0
 70
   128
 71
    32
 72
    31
 73
    30
  0
VERTEX
  5
705
  8
0
 62
     9
 10
0.0
 20
0.0
 30
0.0
 70
   128
 71
    33
 72
    31
 73
    32
  0
VERTEX
  5
706
  8
0
 62
     9
 10
0.0
 20
0.0
 30
0.0
 70
   128
 71
    36
 72
    35
 73
    34
  0
VERTEX
  5
707
  8
0
 62
     9
 10
0.0
 20
0.0
 30
0.0
 70
   128
 71
    34
 72
    38
 73
    37
  0
VERTEX
  5
708
  8
0
 62
     9
 10
0.0
 20
0.0
 30
0.0
 70
   128
 71
    37
 72
    36
 73
    34
  0
VERTEX
  5
709
  8
0
 62
     9
 10
0.0
 20
0.0
 30
0.0
 70
   128
 71
    40
 72
    39
 73
    38
  0
VERTEX
  5
70A
  8
0
 62
     9
 10
0.0
 20
0.0
 30
0.0
 70
   128
 71
    37
 72
    38
 73
    39
  0
VERTEX
  5
70B
  8
0
 62
     9
 10
0.0
 20
0.0
 30
0.0
 70
   128
 71
    42
 72
    40
 73
    41
  0
VERTEX
  5
70C
  8
0
 62
     9
 10
0.0
 20
0.0
 30
0.0
 70
   128
 71
    40
 72
    42
 73
    39
  0
VERTEX
  5
70D
  8
0
 62
     9
 10
0.0
 20
0.0
 30
0.0
 70
   128
 71
    41
 72
    44
 73
    43
  0
VERTEX
  5
70E
  8
0
 62
     9
 10
0.0
 20
0.0
 30
0.0
 70
   128
 71
    43
 72
    42
 73
    41
  0
VERTEX
  5
70F
  8
0
 62
     9
 10
0.0
 20
0.0
 30
0.0
 70
   128
 71
    46
 72
    45
 73
    44
  0
VERTEX
  5
710
  8
0
 62
     9
 10
0.0
 20
0.0
 30
0.0
 70
   128
 71
    43
 72
    44
 73
    45
  0
VERTEX
  5
711
  8
0
 62
     9
 10
0.0
 20
0.0
 30
0.0
 70
   128
 71
    46
 72
    47
 73
    45
  0
VERTEX
  5
712
  8
0
 62
     9
 10
0.0
 20
0.0
 30
0.0
 70
   128
 71
    36
 72
    48
 73
    35
  0
VERTEX
  5
713
  8
0
 62
     9
 10
0.0
 20
0.0
 30
0.0
 70
   128
 71
    50
 72
    49
 73
    48
  0
VERTEX
  5
714
  8
0
 62
     9
 10
0.0
 20
0.0
 30
0.0
 70
   128
 71
    35
 72
    48
 73
    49
  0
VERTEX
  5
715
  8
0
 62
     9
 10
0.0
 20
0.0
 30
0.0
 70
   128
 71
    52
 72
    50
 73
    51
  0
VERTEX
  5
716
  8
0
 62
     9
 10
0.0
 20
0.0
 30
0.0
 70
   128
 71
    50
 72
    52
 73
    49
  0
VERTEX
  5
717
  8
0
 62
     9
 10
0.0
 20
0.0
 30
0.0
 70
   128
 71
    51
 72
    54
 73
    53
  0
VERTEX
  5
718
  8
0
 62
     9
 10
0.0
 20
0.0
 30
0.0
 70
   128
 71
    53
 72
    52
 73
    51
  0
VERTEX
  5
719
  8
0
 62
     9
 10
0.0
 20
0.0
 30
0.0
 70
   128
 71
    56
 72
    55
 73
    54
  0
VERTEX
  5
71A
  8
0
 62
     9
 10
0.0
 20
0.0
 30
0.0
 70
   128
 71
    53
 72
    54
 73
    55
  0
VERTEX
  5
71B
  8
0
 62
     9
 10
0.0
 20
0.0
 30
0.0
 70
   128
 71
    58
 72
    56
 73
    57
  0
VERTEX
  5
71C
  8
0
 62
     9
 10
0.0
 20
0.0
 30
0.0
 70
   128
 71
    56
 72
    58
 73
    55
  0
VERTEX
  5
71D
  8
0
 62
     9
 10
0.0
 20
0.0
 30
0.0
 70
   128
 71
    59
 72
    58
 73
    57
  0
VERTEX
  5
71E
  8
0
 62
     9
 10
0.0
 20
0.0
 30
0.0
 70
   128
 71
    62
 72
    61
 73
    60
  0
VERTEX
  5
71F
  8
0
 62
     9
 10
0.0
 20
0.0
 30
0.0
 70
   128
 71
    63
 72
    52
 73
    53
  0
VERTEX
  5
720
  8
0
 62
     9
 10
0.0
 20
0.0
 30
0.0
 70
   128
 71
    65
 72
    61
 73
    64
  0
VERTEX
  5
721
  8
0
 62
     9
 10
0.0
 20
0.0
 30
0.0
 70
   128
 71
    65
 72
    66
 73
    61
  0
VERTEX
  5
722
  8
0
 62
     9
 10
0.0
 20
0.0
 30
0.0
 70
   128
 71
    66
 72
    60
 73
    61
  0
VERTEX
  5
723
  8
0
 62
     9
 10
0.0
 20
0.0
 30
0.0
 70
   128
 71
    60
 72
    66
 73
    67
  0
VERTEX
  5
724
  8
0
 62
     9
 10
0.0
 20
0.0
 30
0.0
 70
   128
 71
    66
 72
    68
 73
    67
  0
VERTEX
  5
725
  8
0
 62
     9
 10
0.0
 20
0.0
 30
0.0
 70
   128
 71
    58
 72
    70
 73
    69
  0
VERTEX
  5
726
  8
0
 62
     9
 10
0.0
 20
0.0
 30
0.0
 70
   128
 71
    59
 72
    60
 73
    67
  0
VERTEX
  5
727
  8
0
 62
     9
 10
0.0
 20
0.0
 30
0.0
 70
   128
 71
    44
 72
    35
 73
    52
  0
VERTEX
  5
728
  8
0
 62
     9
 10
0.0
 20
0.0
 30
0.0
 70
   128
 71
    58
 72
    69
 73
    55
  0
VERTEX
  5
729
  8
0
 62
     9
 10
0.0
 20
0.0
 30
0.0
 70
   128
 71
    52
 72
    46
 73
    44
  0
VERTEX
  5
72A
  8
0
 62
     9
 10
0.0
 20
0.0
 30
0.0
 70
   128
 71
    44
 72
    41
 73
    40
  0
VERTEX
  5
72B
  8
0
 62
     9
 10
0.0
 20
0.0
 30
0.0
 70
   128
 71
    35
 72
    40
 73
    34
  0
VERTEX
  5
72C
  8
0
 62
     9
 10
0.0
 20
0.0
 30
0.0
 70
   128
 71
    40
 72
    38
 73
    34
  0
VERTEX
  5
72D
  8
0
 62
     9
 10
0.0
 20
0.0
 30
0.0
 70
   128
 71
    35
 72
    44
 73
    40
  0
VERTEX
  5
72E
  8
0
 62
     9
 10
0.0
 20
0.0
 30
0.0
 70
   128
 71
    52
 72
    63
 73
    46
  0
VERTEX
  5
72F
  8
0
 62
     9
 10
0.0
 20
0.0
 30
0.0
 70
   128
 71
    49
 72
    52
 73
    35
  0
VERTEX
  5
730
  8
0
 62
     9
 10
0.0
 20
0.0
 30
0.0
 70
   128
 71
    53
 72
    55
 73
    63
  0
VERTEX
  5
731
  8
0
 62
     9
 10
0.0
 20
0.0
 30
0.0
 70
   128
 71
    63
 72
    55
 73
    69
  0
VERTEX
  5
732
  8
0
 62
     9
 10
0.0
 20
0.0
 30
0.0
 70
   128
 71
    67
 72
    58
 73
    59
  0
VERTEX
  5
733
  8
0
 62
     9
 10
0.0
 20
0.0
 30
0.0
 70
   128
 71
    58
 72
    67
 73
    70
  0
VERTEX
  5
734
  8
0
 62
     9
 10
0.0
 20
0.0
 30
0.0
 70
   128
 71
    71
 72
    47
 73
    63
  0
VERTEX
  5
735
  8
0
 62
     9
 10
0.0
 20
0.0
 30
0.0
 70
   128
 71
    72
 72
    67
 73
    68
  0
VERTEX
  5
736
  8
0
 62
     9
 10
0.0
 20
0.0
 30
0.0
 70
   128
 71
    69
 72
    70
 73
    73
  0
VERTEX
  5
737
  8
0
 62
     9
 10
0.0
 20
0.0
 30
0.0
 70
   128
 71
    64
 72
    74
 73
    65
  0
VERTEX
  5
738
  8
0
 62
     9
 10
0.0
 20
0.0
 30
0.0
 70
   128
 71
    66
 72
    76
 73
    75
  0
VERTEX
  5
739
  8
0
 62
     9
 10
0.0
 20
0.0
 30
0.0
 70
   128
 71
    62
 72
    77
 73
    61
  0
VERTEX
  5
73A
  8
0
 62
     9
 10
0.0
 20
0.0
 30
0.0
 70
   128
 71
    64
 72
    61
 73
    78
  0
VERTEX
  5
73B
  8
0
 62
     9
 10
0.0
 20
0.0
 30
0.0
 70
   128
 71
    79
 72
    62
 73
    60
  0
VERTEX
  5
73C
  8
0
 62
     9
 10
0.0
 20
0.0
 30
0.0
 70
   128
 71
    62
 72
    79
 73
    77
  0
VERTEX
  5
73D
  8
0
 62
     9
 10
0.0
 20
0.0
 30
0.0
 70
   128
 71
    60
 72
    59
 73
    80
  0
VERTEX
  5
73E
  8
0
 62
     9
 10
0.0
 20
0.0
 30
0.0
 70
   128
 71
    80
 72
    79
 73
    60
  0
VERTEX
  5
73F
  8
0
 62
     9
 10
0.0
 20
0.0
 30
0.0
 70
   128
 71
    80
 72
    59
 73
    57
  0
VERTEX
  5
740
  8
0
 62
     9
 10
0.0
 20
0.0
 30
0.0
 70
   128
 71
    74
 72
    64
 73
    78
  0
VERTEX
  5
741
  8
0
 62
     9
 10
0.0
 20
0.0
 30
0.0
 70
   128
 71
    61
 72
    77
 73
    78
  0
VERTEX
  5
742
  8
0
 62
     9
 10
0.0
 20
0.0
 30
0.0
 70
   128
 71
    65
 72
    76
 73
    66
  0
VERTEX
  5
743
  8
0
 62
     9
 10
0.0
 20
0.0
 30
0.0
 70
   128
 71
    65
 72
    74
 73
    76
  0
VERTEX
  5
744
  8
0
 62
     9
 10
0.0
 20
0.0
 30
0.0
 70
   128
 71
    75
 72
    72
 73
    68
  0
VERTEX
  5
745
  8
0
 62
     9
 10
0.0
 20
0.0
 30
0.0
 70
   128
 71
    66
 72
    75
 73
    68
  0
VERTEX
  5
746
  8
0
 62
     9
 10
0.0
 20
0.0
 30
0.0
 70
   128
 71
    81
 72
    70
 73
    67
  0
VERTEX
  5
747
  8
0
 62
     9
 10
0.0
 20
0.0
 30
0.0
 70
   128
 71
    72
 72
    81
 73
    67
  0
VERTEX
  5
748
  8
0
 62
     9
 10
0.0
 20
0.0
 30
0.0
 70
   128
 71
    71
 72
    69
 73
    73
  0
VERTEX
  5
749
  8
0
 62
     9
 10
0.0
 20
0.0
 30
0.0
 70
   128
 71
    73
 72
    70
 73
    81
  0
VERTEX
  5
74A
  8
0
 62
     9
 10
0.0
 20
0.0
 30
0.0
 70
   128
 71
    46
 72
    63
 73
    47
  0
VERTEX
  5
74B
  8
0
 62
     9
 10
0.0
 20
0.0
 30
0.0
 70
   128
 71
    63
 72
    69
 73
    71
  0
VERTEX
  5
74C
  8
0
 62
     9
 10
0.0
 20
0.0
 30
0.0
 70
   128
 71
    83
 72
    51
 73
    82
  0
VERTEX
  5
74D
  8
0
 62
     9
 10
0.0
 20
0.0
 30
0.0
 70
   128
 71
    75
 72
    76
 73
    25
  0
VERTEX
  5
74E
  8
0
 62
     9
 10
0.0
 20
0.0
 30
0.0
 70
   128
 71
    85
 72
    84
 73
    36
  0
VERTEX
  5
74F
  8
0
 62
     9
 10
0.0
 20
0.0
 30
0.0
 70
   128
 71
    86
 72
    42
 73
    43
  0
VERTEX
  5
750
  8
0
 62
     9
 10
0.0
 20
0.0
 30
0.0
 70
   128
 71
    47
 72
    71
 73
    33
  0
VERTEX
  5
751
  8
0
 62
     9
 10
0.0
 20
0.0
 30
0.0
 70
   128
 71
    87
 72
    45
 73
    33
  0
VERTEX
  5
752
  8
0
 62
     9
 10
0.0
 20
0.0
 30
0.0
 70
   128
 71
    85
 72
    37
 73
    88
  0
VERTEX
  5
753
  8
0
 62
     9
 10
0.0
 20
0.0
 30
0.0
 70
   128
 71
    42
 72
    88
 73
    39
  0
VERTEX
  5
754
  8
0
 62
     9
 10
0.0
 20
0.0
 30
0.0
 70
   128
 71
    73
 72
    31
 73
    71
  0
VERTEX
  5
755
  8
0
 62
     9
 10
0.0
 20
0.0
 30
0.0
 70
   128
 71
    73
 72
    81
 73
    28
  0
VERTEX
  5
756
  8
0
 62
     9
 10
0.0
 20
0.0
 30
0.0
 70
   128
 71
    81
 72
    72
 73
    26
  0
VERTEX
  5
757
  8
0
 62
     9
 10
0.0
 20
0.0
 30
0.0
 70
   128
 71
    72
 72
    75
 73
    26
  0
VERTEX
  5
758
  8
0
 62
     9
 10
0.0
 20
0.0
 30
0.0
 70
   128
 71
    56
 72
    23
 73
    57
  0
VERTEX
  5
759
  8
0
 62
     9
 10
0.0
 20
0.0
 30
0.0
 70
   128
 71
    74
 72
    17
 73
    16
  0
VERTEX
  5
75A
  8
0
 62
     9
 10
0.0
 20
0.0
 30
0.0
 70
   128
 71
    16
 72
    76
 73
    74
  0
VERTEX
  5
75B
  8
0
 62
     9
 10
0.0
 20
0.0
 30
0.0
 70
   128
 71
    22
 72
    80
 73
    23
  0
VERTEX
  5
75C
  8
0
 62
     9
 10
0.0
 20
0.0
 30
0.0
 70
   128
 71
    22
 72
    79
 73
    80
  0
VERTEX
  5
75D
  8
0
 62
     9
 10
0.0
 20
0.0
 30
0.0
 70
   128
 71
    36
 72
    37
 73
    85
  0
VERTEX
  5
75E
  8
0
 62
     9
 10
0.0
 20
0.0
 30
0.0
 70
   128
 71
    17
 72
    78
 73
    77
  0
VERTEX
  5
75F
  8
0
 62
     9
 10
0.0
 20
0.0
 30
0.0
 70
   128
 71
    20
 72
    79
 73
    22
  0
VERTEX
  5
760
  8
0
 62
     9
 10
0.0
 20
0.0
 30
0.0
 70
   128
 71
    23
 72
    80
 73
    57
  0
VERTEX
  5
761
  8
0
 62
     9
 10
0.0
 20
0.0
 30
0.0
 70
   128
 71
    54
 72
    83
 73
    89
  0
VERTEX
  5
762
  8
0
 62
     9
 10
0.0
 20
0.0
 30
0.0
 70
   128
 71
    82
 72
    48
 73
    84
  0
VERTEX
  5
763
  8
0
 62
     9
 10
0.0
 20
0.0
 30
0.0
 70
   128
 71
    17
 72
    77
 73
    20
  0
VERTEX
  5
764
  8
0
 62
     9
 10
0.0
 20
0.0
 30
0.0
 70
   128
 71
    77
 72
    79
 73
    20
  0
VERTEX
  5
765
  8
0
 62
     9
 10
0.0
 20
0.0
 30
0.0
 70
   128
 71
    17
 72
    74
 73
    78
  0
VERTEX
  5
766
  8
0
 62
     9
 10
0.0
 20
0.0
 30
0.0
 70
   128
 71
    25
 72
    76
 73
    16
  0
VERTEX
  5
767
  8
0
 62
     9
 10
0.0
 20
0.0
 30
0.0
 70
   128
 71
    26
 72
    75
 73
    25
  0
VERTEX
  5
768
  8
0
 62
     9
 10
0.0
 20
0.0
 30
0.0
 70
   128
 71
    28
 72
    81
 73
    26
  0
VERTEX
  5
769
  8
0
 62
     9
 10
0.0
 20
0.0
 30
0.0
 70
   128
 71
    31
 72
    73
 73
    28
  0
VERTEX
  5
76A
  8
0
 62
     9
 10
0.0
 20
0.0
 30
0.0
 70
   128
 71
    33
 72
    71
 73
    31
  0
VERTEX
  5
76B
  8
0
 62
     9
 10
0.0
 20
0.0
 30
0.0
 70
   128
 71
    33
 72
    45
 73
    47
  0
VERTEX
  5
76C
  8
0
 62
     9
 10
0.0
 20
0.0
 30
0.0
 70
   128
 71
    86
 72
    43
 73
    87
  0
VERTEX
  5
76D
  8
0
 62
     9
 10
0.0
 20
0.0
 30
0.0
 70
   128
 71
    43
 72
    45
 73
    87
  0
VERTEX
  5
76E
  8
0
 62
     9
 10
0.0
 20
0.0
 30
0.0
 70
   128
 71
    88
 72
    42
 73
    86
  0
VERTEX
  5
76F
  8
0
 62
     9
 10
0.0
 20
0.0
 30
0.0
 70
   128
 71
    88
 72
    37
 73
    39
  0
VERTEX
  5
770
  8
0
 62
     9
 10
0.0
 20
0.0
 30
0.0
 70
   128
 71
    48
 72
    36
 73
    84
  0
VERTEX
  5
771
  8
0
 62
     9
 10
0.0
 20
0.0
 30
0.0
 70
   128
 71
    50
 72
    48
 73
    82
  0
VERTEX
  5
772
  8
0
 62
     9
 10
0.0
 20
0.0
 30
0.0
 70
   128
 71
    83
 72
    54
 73
    51
  0
VERTEX
  5
773
  8
0
 62
     9
 10
0.0
 20
0.0
 30
0.0
 70
   128
 71
    82
 72
    51
 73
    50
  0
VERTEX
  5
774
  8
0
 62
     9
 10
0.0
 20
0.0
 30
0.0
 70
   128
 71
    89
 72
    56
 73
    54
  0
VERTEX
  5
775
  8
0
 62
     9
 10
0.0
 20
0.0
 30
0.0
 70
   128
 71
    56
 72
    89
 73
    23
  0
VERTEX
  5
776
  8
0
 62
     9
 10
0.0
 20
0.0
 30
0.0
 70
   128
 71
    90
 72
    24
 73
    89
  0
VERTEX
  5
777
  8
0
 62
     9
 10
0.0
 20
0.0
 30
0.0
 70
   128
 71
    91
 72
    84
 73
    85
  0
VERTEX
  5
778
  8
0
 62
     9
 10
0.0
 20
0.0
 30
0.0
 70
   128
 71
    83
 72
    82
 73
    92
  0
VERTEX
  5
779
  8
0
 62
     9
 10
0.0
 20
0.0
 30
0.0
 70
   128
 71
    94
 72
    93
 73
    86
  0
VERTEX
  5
77A
  8
0
 62
     9
 10
0.0
 20
0.0
 30
0.0
 70
   128
 71
    88
 72
    95
 73
    85
  0
VERTEX
  5
77B
  8
0
 62
     9
 10
0.0
 20
0.0
 30
0.0
 70
   128
 71
    94
 72
    87
 73
    96
  0
VERTEX
  5
77C
  8
0
 62
     9
 10
0.0
 20
0.0
 30
0.0
 70
   128
 71
    87
 72
    94
 73
    86
  0
VERTEX
  5
77D
  8
0
 62
     9
 10
0.0
 20
0.0
 30
0.0
 70
   128
 71
    33
 72
    32
 73
    96
  0
VERTEX
  5
77E
  8
0
 62
     9
 10
0.0
 20
0.0
 30
0.0
 70
   128
 71
    96
 72
    87
 73
    33
  0
VERTEX
  5
77F
  8
0
 62
     9
 10
0.0
 20
0.0
 30
0.0
 70
   128
 71
    95
 72
    88
 73
    93
  0
VERTEX
  5
780
  8
0
 62
     9
 10
0.0
 20
0.0
 30
0.0
 70
   128
 71
    86
 72
    93
 73
    88
  0
VERTEX
  5
781
  8
0
 62
     9
 10
0.0
 20
0.0
 30
0.0
 70
   128
 71
    84
 72
    91
 73
    97
  0
VERTEX
  5
782
  8
0
 62
     9
 10
0.0
 20
0.0
 30
0.0
 70
   128
 71
    95
 72
    91
 73
    85
  0
VERTEX
  5
783
  8
0
 62
     9
 10
0.0
 20
0.0
 30
0.0
 70
   128
 71
    82
 72
    97
 73
    92
  0
VERTEX
  5
784
  8
0
 62
     9
 10
0.0
 20
0.0
 30
0.0
 70
   128
 71
    97
 72
    82
 73
    84
  0
VERTEX
  5
785
  8
0
 62
     9
 10
0.0
 20
0.0
 30
0.0
 70
   128
 71
    89
 72
    83
 73
    90
  0
VERTEX
  5
786
  8
0
 62
     9
 10
0.0
 20
0.0
 30
0.0
 70
   128
 71
    90
 72
    83
 73
    92
  0
VERTEX
  5
787
  8
0
 62
     9
 10
0.0
 20
0.0
 30
0.0
 70
   128
 71
    23
 72
    89
 73
    24
  0
VERTEX
  5
788
  8
0
 62
     9
 10
0.0
 20
0.0
 30
0.0
 70
   128
 71
    91
 72
    30
 73
    92
  0
VERTEX
  5
789
  8
0
 62
     9
 10
0.0
 20
0.0
 30
0.0
 70
   128
 71
    96
 72
    91
 73
    93
  0
VERTEX
  5
78A
  8
0
 62
     9
 10
0.0
 20
0.0
 30
0.0
 70
   128
 71
    93
 72
    94
 73
    96
  0
VERTEX
  5
78B
  8
0
 62
     9
 10
0.0
 20
0.0
 30
0.0
 70
   128
 71
    29
 72
    92
 73
    30
  0
VERTEX
  5
78C
  8
0
 62
     9
 10
0.0
 20
0.0
 30
0.0
 70
   128
 71
    93
 72
    91
 73
    95
  0
VERTEX
  5
78D
  8
0
 62
     9
 10
0.0
 20
0.0
 30
0.0
 70
   128
 71
    91
 72
    92
 73
    97
  0
VERTEX
  5
78E
  8
0
 62
     9
 10
0.0
 20
0.0
 30
0.0
 70
   128
 71
    21
 72
    24
 73
    90
  0
VERTEX
  5
78F
  8
0
 62
     9
 10
0.0
 20
0.0
 30
0.0
 70
   128
 71
    14
 72
    29
 73
    27
  0
VERTEX
  5
790
  8
0
 62
     9
 10
0.0
 20
0.0
 30
0.0
 70
   128
 71
    18
 72
    19
 73
    21
  0
VERTEX
  5
791
  8
0
 62
     9
 10
0.0
 20
0.0
 30
0.0
 70
   128
 71
    18
 72
    21
 73
    14
  0
VERTEX
  5
792
  8
0
 62
     9
 10
0.0
 20
0.0
 30
0.0
 70
   128
 71
    90
 72
    14
 73
    21
  0
VERTEX
  5
793
  8
0
 62
     9
 10
0.0
 20
0.0
 30
0.0
 70
   128
 71
    90
 72
    29
 73
    14
  0
VERTEX
  5
794
  8
0
 62
     9
 10
0.0
 20
0.0
 30
0.0
 70
   128
 71
    14
 72
    15
 73
    18
  0
VERTEX
  5
795
  8
0
 62
     9
 10
0.0
 20
0.0
 30
0.0
 70
   128
 71
    91
 72
    96
 73
    30
  0
VERTEX
  5
796
  8
0
 62
     9
 10
0.0
 20
0.0
 30
0.0
 70
   128
 71
    90
 72
    92
 73
    29
  0
VERTEX
  5
797
  8
0
 62
     9
 10
0.0
 20
0.0
 30
0.0
 70
   128
 71
    32
 72
    30
 73
    96
  0
VERTEX
  5
798
  8
0
 62
     9
 10
0.0
 20
0.0
 30
0.0
 70
   128
 71
   100
 72
    99
 73
    98
  0
VERTEX
  5
799
  8
0
 62
     9
 10
0.0
 20
0.0
 30
0.0
 70
   128
 71
   103
 72
   102
 73
   101
  0
VERTEX
  5
79A
  8
0
 62
     9
 10
0.0
 20
0.0
 30
0.0
 70
   128
 71
   105
 72
   104
 73
    98
  0
VERTEX
  5
79B
  8
0
 62
     9
 10
0.0
 20
0.0
 30
0.0
 70
   128
 71
    98
 72
    99
 73
   105
  0
VERTEX
  5
79C
  8
0
 62
     9
 10
0.0
 20
0.0
 30
0.0
 70
   128
 71
   105
 72
   106
 73
   104
  0
VERTEX
  5
79D
  8
0
 62
     9
 10
0.0
 20
0.0
 30
0.0
 70
   128
 71
   106
 72
   107
 73
   104
  0
VERTEX
  5
79E
  8
0
 62
     9
 10
0.0
 20
0.0
 30
0.0
 70
   128
 71
   108
 72
    99
 73
   100
  0
VERTEX
  5
79F
  8
0
 62
     9
 10
0.0
 20
0.0
 30
0.0
 70
   128
 71
   103
 72
   108
 73
   109
  0
VERTEX
  5
7A0
  8
0
 62
     9
 10
0.0
 20
0.0
 30
0.0
 70
   128
 71
   100
 72
   109
 73
   108
  0
VERTEX
  5
7A1
  8
0
 62
     9
 10
0.0
 20
0.0
 30
0.0
 70
   128
 71
   102
 72
   103
 73
   109
  0
VERTEX
  5
7A2
  8
0
 62
     9
 10
0.0
 20
0.0
 30
0.0
 70
   128
 71
   112
 72
   111
 73
   110
  0
VERTEX
  5
7A3
  8
0
 62
     9
 10
0.0
 20
0.0
 30
0.0
 70
   128
 71
   115
 72
   114
 73
   113
  0
VERTEX
  5
7A4
  8
0
 62
     9
 10
0.0
 20
0.0
 30
0.0
 70
   128
 71
   118
 72
   117
 73
   116
  0
VERTEX
  5
7A5
  8
0
 62
     9
 10
0.0
 20
0.0
 30
0.0
 70
   128
 71
   116
 72
   110
 73
   118
  0
VERTEX
  5
7A6
  8
0
 62
     9
 10
0.0
 20
0.0
 30
0.0
 70
   128
 71
   114
 72
   111
 73
   112
  0
VERTEX
  5
7A7
  8
0
 62
     9
 10
0.0
 20
0.0
 30
0.0
 70
   128
 71
   110
 72
   111
 73
   118
  0
VERTEX
  5
7A8
  8
0
 62
     9
 10
0.0
 20
0.0
 30
0.0
 70
   128
 71
   101
 72
   115
 73
   113
  0
VERTEX
  5
7A9
  8
0
 62
     9
 10
0.0
 20
0.0
 30
0.0
 70
   128
 71
   113
 72
   114
 73
   112
  0
VERTEX
  5
7AA
  8
0
 62
     9
 10
0.0
 20
0.0
 30
0.0
 70
   128
 71
   115
 72
   101
 73
   102
  0
VERTEX
  5
7AB
  8
0
 62
     9
 10
0.0
 20
0.0
 30
0.0
 70
   128
 71
   121
 72
   120
 73
   119
  0
VERTEX
  5
7AC
  8
0
 62
     9
 10
0.0
 20
0.0
 30
0.0
 70
   128
 71
   123
 72
   107
 73
   122
  0
VERTEX
  5
7AD
  8
0
 62
     9
 10
0.0
 20
0.0
 30
0.0
 70
   128
 71
   126
 72
   125
 73
   124
  0
VERTEX
  5
7AE
  8
0
 62
     9
 10
0.0
 20
0.0
 30
0.0
 70
   128
 71
   125
 72
   126
 73
   119
  0
VERTEX
  5
7AF
  8
0
 62
     9
 10
0.0
 20
0.0
 30
0.0
 70
   128
 71
   119
 72
   120
 73
   125
  0
VERTEX
  5
7B0
  8
0
 62
     9
 10
0.0
 20
0.0
 30
0.0
 70
   128
 71
   121
 72
   127
 73
   120
  0
VERTEX
  5
7B1
  8
0
 62
     9
 10
0.0
 20
0.0
 30
0.0
 70
   128
 71
   124
 72
   122
 73
   126
  0
VERTEX
  5
7B2
  8
0
 62
     9
 10
0.0
 20
0.0
 30
0.0
 70
   128
 71
   127
 72
   128
 73
   120
  0
VERTEX
  5
7B3
  8
0
 62
     9
 10
0.0
 20
0.0
 30
0.0
 70
   128
 71
   124
 72
   123
 73
   122
  0
VERTEX
  5
7B4
  8
0
 62
     9
 10
0.0
 20
0.0
 30
0.0
 70
   128
 71
   104
 72
   107
 73
   129
  0
VERTEX
  5
7B5
  8
0
 62
     9
 10
0.0
 20
0.0
 30
0.0
 70
   128
 71
   123
 72
   129
 73
   107
  0
VERTEX
  5
7B6
  8
0
 62
     9
 10
0.0
 20
0.0
 30
0.0
 70
   128
 71
   104
 72
   130
 73
    98
  0
VERTEX
  5
7B7
  8
0
 62
     9
 10
0.0
 20
0.0
 30
0.0
 70
   128
 71
   130
 72
   104
 73
   129
  0
VERTEX
  5
7B8
  8
0
 62
     9
 10
0.0
 20
0.0
 30
0.0
 70
   128
 71
   131
 72
   100
 73
    98
  0
VERTEX
  5
7B9
  8
0
 62
     9
 10
0.0
 20
0.0
 30
0.0
 70
   128
 71
    98
 72
   130
 73
   131
  0
VERTEX
  5
7BA
  8
0
 62
     9
 10
0.0
 20
0.0
 30
0.0
 70
   128
 71
   109
 72
   100
 73
   132
  0
VERTEX
  5
7BB
  8
0
 62
     9
 10
0.0
 20
0.0
 30
0.0
 70
   128
 71
   131
 72
   132
 73
   100
  0
VERTEX
  5
7BC
  8
0
 62
     9
 10
0.0
 20
0.0
 30
0.0
 70
   128
 71
   133
 72
   109
 73
   132
  0
VERTEX
  5
7BD
  8
0
 62
     9
 10
0.0
 20
0.0
 30
0.0
 70
   128
 71
   102
 72
   109
 73
   133
  0
VERTEX
  5
7BE
  8
0
 62
     9
 10
0.0
 20
0.0
 30
0.0
 70
   128
 71
   134
 72
   123
 73
   125
  0
VERTEX
  5
7BF
  8
0
 62
     9
 10
0.0
 20
0.0
 30
0.0
 70
   128
 71
   123
 72
   132
 73
   130
  0
VERTEX
  5
7C0
  8
0
 62
     9
 10
0.0
 20
0.0
 30
0.0
 70
   128
 71
   131
 72
   130
 73
   132
  0
VERTEX
  5
7C1
  8
0
 62
     9
 10
0.0
 20
0.0
 30
0.0
 70
   128
 71
   125
 72
   135
 73
   134
  0
VERTEX
  5
7C2
  8
0
 62
     9
 10
0.0
 20
0.0
 30
0.0
 70
   128
 71
   123
 72
   130
 73
   129
  0
VERTEX
  5
7C3
  8
0
 62
     9
 10
0.0
 20
0.0
 30
0.0
 70
   128
 71
   125
 72
   123
 73
   124
  0
VERTEX
  5
7C4
  8
0
 62
     9
 10
0.0
 20
0.0
 30
0.0
 70
   128
 71
   128
 72
   136
 73
   120
  0
VERTEX
  5
7C5
  8
0
 62
     9
 10
0.0
 20
0.0
 30
0.0
 70
   128
 71
   135
 72
   138
 73
   137
  0
VERTEX
  5
7C6
  8
0
 62
     9
 10
0.0
 20
0.0
 30
0.0
 70
   128
 71
   140
 72
   139
 73
   136
  0
VERTEX
  5
7C7
  8
0
 62
     9
 10
0.0
 20
0.0
 30
0.0
 70
   128
 71
   136
 72
   139
 73
   138
  0
VERTEX
  5
7C8
  8
0
 62
     9
 10
0.0
 20
0.0
 30
0.0
 70
   128
 71
   138
 72
   120
 73
   136
  0
VERTEX
  5
7C9
  8
0
 62
     9
 10
0.0
 20
0.0
 30
0.0
 70
   128
 71
   135
 72
   120
 73
   138
  0
VERTEX
  5
7CA
  8
0
 62
     9
 10
0.0
 20
0.0
 30
0.0
 70
   128
 71
   141
 72
   138
 73
   139
  0
VERTEX
  5
7CB
  8
0
 62
     9
 10
0.0
 20
0.0
 30
0.0
 70
   128
 71
   132
 72
   123
 73
   134
  0
VERTEX
  5
7CC
  8
0
 62
     9
 10
0.0
 20
0.0
 30
0.0
 70
   128
 71
   125
 72
   120
 73
   135
  0
VERTEX
  5
7CD
  8
0
 62
     9
 10
0.0
 20
0.0
 30
0.0
 70
   128
 71
   134
 72
   133
 73
   132
  0
VERTEX
  5
7CE
  8
0
 62
     9
 10
0.0
 20
0.0
 30
0.0
 70
   128
 71
   136
 72
   128
 73
   142
  0
VERTEX
  5
7CF
  8
0
 62
     9
 10
0.0
 20
0.0
 30
0.0
 70
   128
 71
   140
 72
   143
 73
   139
  0
VERTEX
  5
7D0
  8
0
 62
     9
 10
0.0
 20
0.0
 30
0.0
 70
   128
 71
   118
 72
   137
 73
   138
  0
VERTEX
  5
7D1
  8
0
 62
     9
 10
0.0
 20
0.0
 30
0.0
 70
   128
 71
   141
 72
   144
 73
   117
  0
VERTEX
  5
7D2
  8
0
 62
     9
 10
0.0
 20
0.0
 30
0.0
 70
   128
 71
   114
 72
   134
 73
   135
  0
VERTEX
  5
7D3
  8
0
 62
     9
 10
0.0
 20
0.0
 30
0.0
 70
   128
 71
   135
 72
   111
 73
   114
  0
VERTEX
  5
7D4
  8
0
 62
     9
 10
0.0
 20
0.0
 30
0.0
 70
   128
 71
   134
 72
   115
 73
   102
  0
VERTEX
  5
7D5
  8
0
 62
     9
 10
0.0
 20
0.0
 30
0.0
 70
   128
 71
   114
 72
   115
 73
   134
  0
VERTEX
  5
7D6
  8
0
 62
     9
 10
0.0
 20
0.0
 30
0.0
 70
   128
 71
   111
 72
   135
 73
   137
  0
VERTEX
  5
7D7
  8
0
 62
     9
 10
0.0
 20
0.0
 30
0.0
 70
   128
 71
   133
 72
   134
 73
   102
  0
VERTEX
  5
7D8
  8
0
 62
     9
 10
0.0
 20
0.0
 30
0.0
 70
   128
 71
   117
 72
   118
 73
   138
  0
VERTEX
  5
7D9
  8
0
 62
     9
 10
0.0
 20
0.0
 30
0.0
 70
   128
 71
   118
 72
   111
 73
   137
  0
VERTEX
  5
7DA
  8
0
 62
     9
 10
0.0
 20
0.0
 30
0.0
 70
   128
 71
   138
 72
   141
 73
   117
  0
VERTEX
  5
7DB
  8
0
 62
     9
 10
0.0
 20
0.0
 30
0.0
 70
   128
 71
   139
 72
   143
 73
   144
  0
VERTEX
  5
7DC
  8
0
 62
     9
 10
0.0
 20
0.0
 30
0.0
 70
   128
 71
   141
 72
   139
 73
   144
  0
VERTEX
  5
7DD
  8
0
 62
     9
 10
0.0
 20
0.0
 30
0.0
 70
   128
 71
   136
 72
   145
 73
   140
  0
VERTEX
  5
7DE
  8
0
 62
     9
 10
0.0
 20
0.0
 30
0.0
 70
   128
 71
   140
 72
   145
 73
   143
  0
VERTEX
  5
7DF
  8
0
 62
     9
 10
0.0
 20
0.0
 30
0.0
 70
   128
 71
   127
 72
   142
 73
   128
  0
VERTEX
  5
7E0
  8
0
 62
     9
 10
0.0
 20
0.0
 30
0.0
 70
   128
 71
   142
 72
   145
 73
   136
  0
VERTEX
  5
7E1
  8
0
 62
     9
 10
0.0
 20
0.0
 30
0.0
 70
   128
 71
   107
 72
   106
 73
   122
  0
VERTEX
  5
7E2
  8
0
 62
     9
 10
0.0
 20
0.0
 30
0.0
 70
   128
 71
   121
 72
   147
 73
   146
  0
VERTEX
  5
7E3
  8
0
 62
     9
 10
0.0
 20
0.0
 30
0.0
 70
   128
 71
   126
 72
   148
 73
   119
  0
VERTEX
  5
7E4
  8
0
 62
     9
 10
0.0
 20
0.0
 30
0.0
 70
   128
 71
   145
 72
   142
 73
   149
  0
VERTEX
  5
7E5
  8
0
 62
     9
 10
0.0
 20
0.0
 30
0.0
 70
   128
 71
   150
 72
   142
 73
   127
  0
VERTEX
  5
7E6
  8
0
 62
     9
 10
0.0
 20
0.0
 30
0.0
 70
   128
 71
   143
 72
   152
 73
   151
  0
VERTEX
  5
7E7
  8
0
 62
     9
 10
0.0
 20
0.0
 30
0.0
 70
   128
 71
   152
 72
   143
 73
   145
  0
VERTEX
  5
7E8
  8
0
 62
     9
 10
0.0
 20
0.0
 30
0.0
 70
   128
 71
   151
 72
   116
 73
   144
  0
VERTEX
  5
7E9
  8
0
 62
     9
 10
0.0
 20
0.0
 30
0.0
 70
   128
 71
   144
 72
   143
 73
   151
  0
VERTEX
  5
7EA
  8
0
 62
     9
 10
0.0
 20
0.0
 30
0.0
 70
   128
 71
   144
 72
   116
 73
   117
  0
VERTEX
  5
7EB
  8
0
 62
     9
 10
0.0
 20
0.0
 30
0.0
 70
   128
 71
   149
 72
   142
 73
   150
  0
VERTEX
  5
7EC
  8
0
 62
     9
 10
0.0
 20
0.0
 30
0.0
 70
   128
 71
   152
 72
   145
 73
   149
  0
VERTEX
  5
7ED
  8
0
 62
     9
 10
0.0
 20
0.0
 30
0.0
 70
   128
 71
   127
 72
   121
 73
   146
  0
VERTEX
  5
7EE
  8
0
 62
     9
 10
0.0
 20
0.0
 30
0.0
 70
   128
 71
   150
 72
   127
 73
   146
  0
VERTEX
  5
7EF
  8
0
 62
     9
 10
0.0
 20
0.0
 30
0.0
 70
   128
 71
   119
 72
   148
 73
   147
  0
VERTEX
  5
7F0
  8
0
 62
     9
 10
0.0
 20
0.0
 30
0.0
 70
   128
 71
   121
 72
   119
 73
   147
  0
VERTEX
  5
7F1
  8
0
 62
     9
 10
0.0
 20
0.0
 30
0.0
 70
   128
 71
   122
 72
   153
 73
   126
  0
VERTEX
  5
7F2
  8
0
 62
     9
 10
0.0
 20
0.0
 30
0.0
 70
   128
 71
   126
 72
   153
 73
   148
  0
VERTEX
  5
7F3
  8
0
 62
     9
 10
0.0
 20
0.0
 30
0.0
 70
   128
 71
   153
 72
   122
 73
   106
  0
VERTEX
  5
7F4
  8
0
 62
     9
 10
0.0
 20
0.0
 30
0.0
 70
   128
 71
   110
 72
   146
 73
   148
  0
VERTEX
  5
7F5
  8
0
 62
     9
 10
0.0
 20
0.0
 30
0.0
 70
   128
 71
   146
 72
   151
 73
   149
  0
VERTEX
  5
7F6
  8
0
 62
     9
 10
0.0
 20
0.0
 30
0.0
 70
   128
 71
   152
 72
   149
 73
   151
  0
VERTEX
  5
7F7
  8
0
 62
     9
 10
0.0
 20
0.0
 30
0.0
 70
   128
 71
   148
 72
   112
 73
   110
  0
VERTEX
  5
7F8
  8
0
 62
     9
 10
0.0
 20
0.0
 30
0.0
 70
   128
 71
   146
 72
   149
 73
   150
  0
VERTEX
  5
7F9
  8
0
 62
     9
 10
0.0
 20
0.0
 30
0.0
 70
   128
 71
   148
 72
   146
 73
   147
  0
VERTEX
  5
7FA
  8
0
 62
     9
 10
0.0
 20
0.0
 30
0.0
 70
   128
 71
   106
 72
   105
 73
   153
  0
VERTEX
  5
7FB
  8
0
 62
     9
 10
0.0
 20
0.0
 30
0.0
 70
   128
 71
   112
 72
   101
 73
   113
  0
VERTEX
  5
7FC
  8
0
 62
     9
 10
0.0
 20
0.0
 30
0.0
 70
   128
 71
    99
 72
   108
 73
   105
  0
VERTEX
  5
7FD
  8
0
 62
     9
 10
0.0
 20
0.0
 30
0.0
 70
   128
 71
   105
 72
   108
 73
   101
  0
VERTEX
  5
7FE
  8
0
 62
     9
 10
0.0
 20
0.0
 30
0.0
 70
   128
 71
   101
 72
   153
 73
   105
  0
VERTEX
  5
7FF
  8
0
 62
     9
 10
0.0
 20
0.0
 30
0.0
 70
   128
 71
   112
 72
   153
 73
   101
  0
VERTEX
  5
800
  8
0
 62
     9
 10
0.0
 20
0.0
 30
0.0
 70
   128
 71
   103
 72
   101
 73
   108
  0
VERTEX
  5
801
  8
0
 62
     9
 10
0.0
 20
0.0
 30
0.0
 70
   128
 71
   151
 72
   146
 73
   110
  0
VERTEX
  5
802
  8
0
 62
     9
 10
0.0
 20
0.0
 30
0.0
 70
   128
 71
   148
 72
   153
 73
   112
  0
VERTEX
  5
803
  8
0
 62
     9
 10
0.0
 20
0.0
 30
0.0
 70
   128
 71
   110
 72
   116
 73
   151
  0
SEQEND
  5
804
  8
0
 62
     9
  0
ENDBLK
  5
807
  8
0
  0
BLOCK
  8
0
  2
12550-05_1_
 70
     0
 10
0.0
 20
0.0
 30
0.0
  3
12550-05_1_
  1

  0
POLYLINE
  5
809
  8
0
 62
     9
 66
     1
 10
0.0
 20
0.0
 30
0.0
 70
    64
 71
   141
 72
   270
  0
VERTEX
  5
80A
  8
0
 10
588.7525024414062
 20
14.59557056427002
 30
-34.87068176269531
 70
   192
  0
VERTEX
  5
80B
  8
0
 10
587.8513793945312
 20
15.93644905090332
 30
-34.87068176269531
 70
   192
  0
VERTEX
  5
80C
  8
0
 10
585.8963623046875
 20
13.6777458190918
 30
-34.67068099975586
 70
   192
  0
VERTEX
  5
80D
  8
0
 10
586.4443969726562
 20
16.59476470947266
 30
-34.87068176269531
 70
   192
  0
VERTEX
  5
80E
  8
0
 10
582.9915771484375
 20
14.37474918365479
 30
-34.87068176269531
 70
   192
  0
VERTEX
  5
80F
  8
0
 10
583.6376342773438
 20
15.63274097442627
 30
-34.87068176269531
 70
   192
  0
VERTEX
  5
810
  8
0
 10
583.0402221679688
 20
12.75992107391357
 30
-34.87068176269531
 70
   192
  0
VERTEX
  5
811
  8
0
 10
584.978515625
 20
16.53389739990234
 30
-34.87068176269531
 70
   192
  0
VERTEX
  5
812
  8
0
 10
588.8281860351562
 20
13.02079772949219
 30
-34.87068176269531
 70
   192
  0
VERTEX
  5
813
  8
0
 10
583.9008178710938
 20
11.4855375289917
 30
-34.87068176269531
 70
   192
  0
VERTEX
  5
814
  8
0
 10
585.2167358398438
 20
10.79994201660156
 30
-34.87068176269531
 70
   192
  0
VERTEX
  5
815
  8
0
 10
588.0875854492188
 20
11.666259765625
 30
-34.87068176269531
 70
   192
  0
VERTEX
  5
816
  8
0
 10
586.753662109375
 20
10.83382892608643
 30
-34.87068176269531
 70
   192
  0
VERTEX
  5
817
  8
0
 10
587.4114990234375
 20
9.193380355834961
 30
-35.67068099975586
 70
   192
  0
VERTEX
  5
818
  8
0
 10
587.4114990234375
 20
9.193380355834961
 30
-36.97068023681641
 70
   192
  0
VERTEX
  5
819
  8
0
 10
588.9886474609375
 20
10.09320163726807
 30
-35.67068099975586
 70
   192
  0
VERTEX
  5
81A
  8
0
 10
590.1390380859375
 20
11.55411720275879
 30
-35.67068099975586
 70
   192
  0
VERTEX
  5
81B
  8
0
 10
588.9886474609375
 20
10.09320163726807
 30
-36.97068023681641
 70
   192
  0
VERTEX
  5
81C
  8
0
 10
590.1390380859375
 20
11.55411720275879
 30
-36.97068023681641
 70
   192
  0
VERTEX
  5
81D
  8
0
 10
590.6156616210938
 20
13.23337268829346
 30
-35.67068099975586
 70
   192
  0
VERTEX
  5
81E
  8
0
 10
590.6156616210938
 20
13.23337268829346
 30
-36.97068023681641
 70
   192
  0
VERTEX
  5
81F
  8
0
 10
590.4185791015625
 20
15.13096809387207
 30
-35.67068099975586
 70
   192
  0
VERTEX
  5
820
  8
0
 10
590.4185791015625
 20
15.13096809387207
 30
-36.97068023681641
 70
   192
  0
VERTEX
  5
821
  8
0
 10
585.5294799804688
 20
8.943201065063477
 30
-36.97068023681641
 70
   192
  0
VERTEX
  5
822
  8
0
 10
585.5294799804688
 20
8.943201065063477
 30
-35.67068099975586
 70
   192
  0
VERTEX
  5
823
  8
0
 10
583.78515625
 20
9.44644832611084
 30
-36.97068023681641
 70
   192
  0
VERTEX
  5
824
  8
0
 10
583.78515625
 20
9.44644832611084
 30
-35.67068099975586
 70
   192
  0
VERTEX
  5
825
  8
0
 10
582.3193359375
 20
10.56735038757324
 30
-36.97068023681641
 70
   192
  0
VERTEX
  5
826
  8
0
 10
581.3741455078125
 20
12.22452449798584
 30
-36.97068023681641
 70
   192
  0
VERTEX
  5
827
  8
0
 10
582.3193359375
 20
10.56735038757324
 30
-35.67068099975586
 70
   192
  0
VERTEX
  5
828
  8
0
 10
581.3741455078125
 20
12.22452449798584
 30
-35.67068099975586
 70
   192
  0
VERTEX
  5
829
  8
0
 10
580.7294921875
 20
21.64342308044434
 30
-33.67068099975586
 70
   192
  0
VERTEX
  5
82A
  8
0
 10
582.9400024414062
 20
22.69404029846191
 30
-33.67068099975586
 70
   192
  0
VERTEX
  5
82B
  8
0
 10
583.0424194335938
 20
22.72978591918945
 30
-35.67068099975586
 70
   192
  0
VERTEX
  5
82C
  8
0
 10
580.7584838867188
 20
21.66812515258789
 30
-35.67068099975586
 70
   192
  0
VERTEX
  5
82D
  8
0
 10
578.8350830078125
 20
20.02881622314453
 30
-33.67068099975586
 70
   192
  0
VERTEX
  5
82E
  8
0
 10
578.9005737304688
 20
20.08790397644043
 30
-35.67068099975586
 70
   192
  0
VERTEX
  5
82F
  8
0
 10
577.4383544921875
 20
17.97588157653809
 30
-33.67068099975586
 70
   192
  0
VERTEX
  5
830
  8
0
 10
576.6068115234375
 20
15.65780067443848
 30
-33.67068099975586
 70
   192
  0
VERTEX
  5
831
  8
0
 10
577.4639282226562
 20
18.04710388183594
 30
-35.67068099975586
 70
   192
  0
VERTEX
  5
832
  8
0
 10
576.627685546875
 20
15.71567344665527
 30
-35.67068099975586
 70
   192
  0
VERTEX
  5
833
  8
0
 10
576.4113159179688
 20
13.25627517700195
 30
-33.67068099975586
 70
   192
  0
VERTEX
  5
834
  8
0
 10
576.4122924804688
 20
13.26052665710449
 30
-35.67068099975586
 70
   192
  0
VERTEX
  5
835
  8
0
 10
576.8518676757812
 20
10.77130222320557
 30
-33.67068099975586
 70
   192
  0
VERTEX
  5
836
  8
0
 10
576.8518676757812
 20
10.77130222320557
 30
-35.67068099975586
 70
   192
  0
VERTEX
  5
837
  8
0
 10
585.4493408203125
 20
23.16098213195801
 30
-35.67068099975586
 70
   192
  0
VERTEX
  5
838
  8
0
 10
585.4261474609375
 20
23.16639137268066
 30
-33.67068099975586
 70
   192
  0
VERTEX
  5
839
  8
0
 10
587.9404296875
 20
22.9505615234375
 30
-35.67068099975586
 70
   192
  0
VERTEX
  5
83A
  8
0
 10
590.2703247070312
 20
22.09807395935059
 30
-35.67068099975586
 70
   192
  0
VERTEX
  5
83B
  8
0
 10
587.8501586914062
 20
22.96562576293945
 30
-33.67068099975586
 70
   192
  0
VERTEX
  5
83C
  8
0
 10
590.1982421875
 20
22.1433048248291
 30
-33.67068099975586
 70
   192
  0
VERTEX
  5
83D
  8
0
 10
592.2911987304688
 20
20.70146751403809
 30
-35.67068099975586
 70
   192
  0
VERTEX
  5
83E
  8
0
 10
592.2423706054688
 20
20.73193740844727
 30
-33.67068099975586
 70
   192
  0
VERTEX
  5
83F
  8
0
 10
593.8480224609375
 20
18.86350631713867
 30
-35.67068099975586
 70
   192
  0
VERTEX
  5
840
  8
0
 10
594.9408569335938
 20
16.58419036865234
 30
-35.67068099975586
 70
   192
  0
VERTEX
  5
841
  8
0
 10
593.851318359375
 20
18.86061096191406
 30
-33.67068099975586
 70
   192
  0
VERTEX
  5
842
  8
0
 10
594.9408569335938
 20
16.58419036865234
 30
-33.67068099975586
 70
   192
  0
VERTEX
  5
843
  8
0
 10
595.3644409179688
 20
14.13957595825195
 30
-33.67068099975586
 70
   192
  0
VERTEX
  5
844
  8
0
 10
594.3294067382812
 20
9.384902000427246
 30
-33.67068099975586
 70
   192
  0
VERTEX
  5
845
  8
0
 10
595.1563110351562
 20
11.72037506103516
 30
-33.67068099975586
 70
   192
  0
VERTEX
  5
846
  8
0
 10
577.8980712890625
 20
8.50251293182373
 30
-33.67068099975586
 70
   192
  0
VERTEX
  5
847
  8
0
 10
592.9276123046875
 20
7.331437587738037
 30
-33.67068099975586
 70
   192
  0
VERTEX
  5
848
  8
0
 10
591.062744140625
 20
5.725940227508545
 30
-33.67068099975586
 70
   192
  0
VERTEX
  5
849
  8
0
 10
588.8289794921875
 20
4.650761127471924
 30
-33.67068099975586
 70
   192
  0
VERTEX
  5
84A
  8
0
 10
583.8910522460938
 20
4.38780689239502
 30
-33.67068099975586
 70
   192
  0
VERTEX
  5
84B
  8
0
 10
586.3746337890625
 20
4.201536655426025
 30
-33.67068099975586
 70
   192
  0
VERTEX
  5
84C
  8
0
 10
579.5150146484375
 20
6.600451946258545
 30
-33.67068099975586
 70
   192
  0
VERTEX
  5
84D
  8
0
 10
581.5665893554688
 20
5.202811717987061
 30
-33.67068099975586
 70
   192
  0
VERTEX
  5
84E
  8
0
 10
577.94140625
 20
8.494881629943848
 30
-35.67068099975586
 70
   192
  0
VERTEX
  5
84F
  8
0
 10
583.8567504882812
 20
4.40210485458374
 30
-35.67068099975586
 70
   192
  0
VERTEX
  5
850
  8
0
 10
579.4993286132812
 20
6.656806945800781
 30
-35.67068099975586
 70
   192
  0
VERTEX
  5
851
  8
0
 10
591.041748046875
 20
5.691462516784668
 30
-35.67068099975586
 70
   192
  0
VERTEX
  5
852
  8
0
 10
586.3370361328125
 20
4.193307876586914
 30
-35.67068099975586
 70
   192
  0
VERTEX
  5
853
  8
0
 10
588.745849609375
 20
4.627100944519043
 30
-35.67068099975586
 70
   192
  0
VERTEX
  5
854
  8
0
 10
594.324462890625
 20
9.302956581115723
 30
-35.67068099975586
 70
   192
  0
VERTEX
  5
855
  8
0
 10
592.89501953125
 20
7.266730308532715
 30
-35.67068099975586
 70
   192
  0
VERTEX
  5
856
  8
0
 10
595.1637573242188
 20
11.64090919494629
 30
-35.67068099975586
 70
   192
  0
VERTEX
  5
857
  8
0
 10
595.3814086914062
 20
14.09921741485596
 30
-35.67068099975586
 70
   192
  0
VERTEX
  5
858
  8
0
 10
581.5255737304688
 20
5.257078170776367
 30
-35.67068099975586
 70
   192
  0
VERTEX
  5
859
  8
0
 10
588.0324096679688
 20
17.90788841247559
 30
-35.67068099975586
 70
   192
  0
VERTEX
  5
85A
  8
0
 10
581.1970825195312
 20
14.06630706787109
 30
-35.67068099975586
 70
   192
  0
VERTEX
  5
85B
  8
0
 10
581.6867065429688
 20
15.7696361541748
 30
-35.67068099975586
 70
   192
  0
VERTEX
  5
85C
  8
0
 10
582.80810546875
 20
17.24686241149902
 30
-35.67068099975586
 70
   192
  0
VERTEX
  5
85D
  8
0
 10
584.443115234375
 20
18.19998550415039
 30
-35.67068099975586
 70
   192
  0
VERTEX
  5
85E
  8
0
 10
586.2478637695312
 20
18.39417266845703
 30
-35.67068099975586
 70
   192
  0
VERTEX
  5
85F
  8
0
 10
589.5151977539062
 20
16.79344177246094
 30
-35.67068099975586
 70
   192
  0
VERTEX
  5
860
  8
0
 10
589.4733276367188
 20
16.78814125061035
 30
-36.97068023681641
 70
   192
  0
VERTEX
  5
861
  8
0
 10
584.3812255859375
 20
18.16211128234863
 30
-36.97068023681641
 70
   192
  0
VERTEX
  5
862
  8
0
 10
586.2632446289062
 20
18.41229057312012
 30
-36.97068023681641
 70
   192
  0
VERTEX
  5
863
  8
0
 10
588.007568359375
 20
17.90904426574707
 30
-36.97068023681641
 70
   192
  0
VERTEX
  5
864
  8
0
 10
581.6536865234375
 20
15.8013744354248
 30
-36.97068023681641
 70
   192
  0
VERTEX
  5
865
  8
0
 10
582.8040771484375
 20
17.26228904724121
 30
-36.97068023681641
 70
   192
  0
VERTEX
  5
866
  8
0
 10
581.1770629882812
 20
14.12211894989014
 30
-36.97068023681641
 70
   192
  0
VERTEX
  5
867
  8
0
 10
590.1339111328125
 20
11.5018196105957
 30
-38.97068023681641
 70
   192
  0
VERTEX
  5
868
  8
0
 10
590.6156616210938
 20
13.23337268829346
 30
-38.47068023681641
 70
   192
  0
VERTEX
  5
869
  8
0
 10
590.1390380859375
 20
11.55411720275879
 30
-38.47068023681641
 70
   192
  0
VERTEX
  5
86A
  8
0
 10
587.4114990234375
 20
9.193380355834961
 30
-38.47068023681641
 70
   192
  0
VERTEX
  5
86B
  8
0
 10
585.5294799804688
 20
8.943201065063477
 30
-38.47068023681641
 70
   192
  0
VERTEX
  5
86C
  8
0
 10
585.5197143554688
 20
8.960220336914062
 30
-38.97068023681641
 70
   192
  0
VERTEX
  5
86D
  8
0
 10
590.61767578125
 20
13.28728580474854
 30
-38.97068023681641
 70
   192
  0
VERTEX
  5
86E
  8
0
 10
590.4185791015625
 20
15.13096809387207
 30
-38.97068023681641
 70
   192
  0
VERTEX
  5
86F
  8
0
 10
590.4185791015625
 20
15.13096809387207
 30
-38.47068023681641
 70
   192
  0
VERTEX
  5
870
  8
0
 10
588.98291015625
 20
10.03908729553223
 30
-38.97068023681641
 70
   192
  0
VERTEX
  5
871
  8
0
 10
587.349609375
 20
9.15550708770752
 30
-38.97068023681641
 70
   192
  0
VERTEX
  5
872
  8
0
 10
588.9886474609375
 20
10.09320163726807
 30
-38.47068023681641
 70
   192
  0
VERTEX
  5
873
  8
0
 10
583.78515625
 20
9.44644832611084
 30
-38.47068023681641
 70
   192
  0
VERTEX
  5
874
  8
0
 10
583.748779296875
 20
9.467499732971191
 30
-38.97068023681641
 70
   192
  0
VERTEX
  5
875
  8
0
 10
582.3193359375
 20
10.56735038757324
 30
-38.47068023681641
 70
   192
  0
VERTEX
  5
876
  8
0
 10
581.3741455078125
 20
12.22452449798584
 30
-38.47068023681641
 70
   192
  0
VERTEX
  5
877
  8
0
 10
581.3741455078125
 20
12.22452449798584
 30
-38.97068023681641
 70
   192
  0
VERTEX
  5
878
  8
0
 10
582.2909545898438
 20
10.60431480407715
 30
-38.97068023681641
 70
   192
  0
VERTEX
  5
879
  8
0
 10
589.5113525390625
 20
16.7320671081543
 30
-38.97068023681641
 70
   192
  0
VERTEX
  5
87A
  8
0
 10
589.1483154296875
 20
16.41229057312012
 30
-39.47068023681641
 70
   192
  0
VERTEX
  5
87B
  8
0
 10
588.0673828125
 20
17.87594223022461
 30
-38.97068023681641
 70
   192
  0
VERTEX
  5
87C
  8
0
 10
589.9473266601562
 20
14.91322135925293
 30
-39.47068023681641
 70
   192
  0
VERTEX
  5
87D
  8
0
 10
587.8731079101562
 20
17.41856575012207
 30
-39.47068023681641
 70
   192
  0
VERTEX
  5
87E
  8
0
 10
586.2941284179688
 20
18.39865112304688
 30
-38.97068023681641
 70
   192
  0
VERTEX
  5
87F
  8
0
 10
586.2939453125
 20
17.90029716491699
 30
-39.47068023681641
 70
   192
  0
VERTEX
  5
880
  8
0
 10
584.443115234375
 20
18.19998550415039
 30
-38.97068023681641
 70
   192
  0
VERTEX
  5
881
  8
0
 10
584.5961303710938
 20
17.72395896911621
 30
-39.47068023681641
 70
   192
  0
VERTEX
  5
882
  8
0
 10
590.1149291992188
 20
13.29726028442383
 30
-39.47068023681641
 70
   192
  0
VERTEX
  5
883
  8
0
 10
589.652099609375
 20
11.69918537139893
 30
-39.47068023681641
 70
   192
  0
VERTEX
  5
884
  8
0
 10
588.6793212890625
 20
10.47727584838867
 30
-39.47068023681641
 70
   192
  0
VERTEX
  5
885
  8
0
 10
587.1965942382812
 20
9.631531715393066
 30
-39.47068023681641
 70
   192
  0
VERTEX
  5
886
  8
0
 10
585.5167236328125
 20
9.422008514404297
 30
-39.47068023681641
 70
   192
  0
VERTEX
  5
887
  8
0
 10
581.8501586914062
 20
12.37749481201172
 30
-39.47068023681641
 70
   192
  0
VERTEX
  5
888
  8
0
 10
583.9334106445312
 20
9.919473648071289
 30
-39.47068023681641
 70
   192
  0
VERTEX
  5
889
  8
0
 10
582.6495971679688
 20
10.96382904052734
 30
-39.47068023681641
 70
   192
  0
VERTEX
  5
88A
  8
0
 10
583.1644287109375
 20
16.89273071289062
 30
-39.47068023681641
 70
   192
  0
VERTEX
  5
88B
  8
0
 10
581.6911010742188
 20
14.06333541870117
 30
-39.47068023681641
 70
   192
  0
VERTEX
  5
88C
  8
0
 10
582.1808471679688
 20
15.64886093139648
 30
-39.47068023681641
 70
   192
  0
VERTEX
  5
88D
  8
0
 10
582.82861328125
 20
17.28776931762695
 30
-38.97068023681641
 70
   192
  0
VERTEX
  5
88E
  8
0
 10
581.1408081054688
 20
14.0668306350708
 30
-38.97068023681641
 70
   192
  0
VERTEX
  5
88F
  8
0
 10
581.6592407226562
 20
15.85443305969238
 30
-38.97068023681641
 70
   192
  0
VERTEX
  5
890
  8
0
 10
589.4733276367188
 20
16.78814125061035
 30
-38.47068023681641
 70
   192
  0
VERTEX
  5
891
  8
0
 10
584.3812255859375
 20
18.16211128234863
 30
-38.47068023681641
 70
   192
  0
VERTEX
  5
892
  8
0
 10
586.2632446289062
 20
18.41229057312012
 30
-38.47068023681641
 70
   192
  0
VERTEX
  5
893
  8
0
 10
588.007568359375
 20
17.90904426574707
 30
-38.47068023681641
 70
   192
  0
VERTEX
  5
894
  8
0
 10
582.8040771484375
 20
17.26228904724121
 30
-38.47068023681641
 70
   192
  0
VERTEX
  5
895
  8
0
 10
581.6536865234375
 20
15.8013744354248
 30
-38.47068023681641
 70
   192
  0
VERTEX
  5
896
  8
0
 10
581.1770629882812
 20
14.12211894989014
 30
-38.47068023681641
 70
   192
  0
VERTEX
  5
897
  8
0
 62
     9
 10
0.0
 20
0.0
 30
0.0
 70
   128
 71
     3
 72
     2
 73
     1
  0
VERTEX
  5
898
  8
0
 62
     9
 10
0.0
 20
0.0
 30
0.0
 70
   128
 71
     2
 72
     3
 73
     4
  0
VERTEX
  5
899
  8
0
 62
     9
 10
0.0
 20
0.0
 30
0.0
 70
   128
 71
     6
 72
     3
 73
     5
  0
VERTEX
  5
89A
  8
0
 62
     9
 10
0.0
 20
0.0
 30
0.0
 70
   128
 71
     3
 72
     7
 73
     5
  0
VERTEX
  5
89B
  8
0
 62
     9
 10
0.0
 20
0.0
 30
0.0
 70
   128
 71
     3
 72
     6
 73
     8
  0
VERTEX
  5
89C
  8
0
 62
     9
 10
0.0
 20
0.0
 30
0.0
 70
   128
 71
     4
 72
     3
 73
     8
  0
VERTEX
  5
89D
  8
0
 62
     9
 10
0.0
 20
0.0
 30
0.0
 70
   128
 71
     9
 72
     1
 73
     2
  0
VERTEX
  5
89E
  8
0
 62
     9
 10
0.0
 20
0.0
 30
0.0
 70
   128
 71
     6
 72
     5
 73
     4
  0
VERTEX
  5
89F
  8
0
 62
     9
 10
0.0
 20
0.0
 30
0.0
 70
   128
 71
     4
 72
     8
 73
     6
  0
VERTEX
  5
8A0
  8
0
 62
     9
 10
0.0
 20
0.0
 30
0.0
 70
   128
 71
    11
 72
     4
 73
    10
  0
VERTEX
  5
8A1
  8
0
 62
     9
 10
0.0
 20
0.0
 30
0.0
 70
   128
 71
    11
 72
    12
 73
     9
  0
VERTEX
  5
8A2
  8
0
 62
     9
 10
0.0
 20
0.0
 30
0.0
 70
   128
 71
    12
 72
    11
 73
    13
  0
VERTEX
  5
8A3
  8
0
 62
     9
 10
0.0
 20
0.0
 30
0.0
 70
   128
 71
     2
 72
    11
 73
     9
  0
VERTEX
  5
8A4
  8
0
 62
     9
 10
0.0
 20
0.0
 30
0.0
 70
   128
 71
    11
 72
     2
 73
     4
  0
VERTEX
  5
8A5
  8
0
 62
     9
 10
0.0
 20
0.0
 30
0.0
 70
   128
 71
    10
 72
     5
 73
     7
  0
VERTEX
  5
8A6
  8
0
 62
     9
 10
0.0
 20
0.0
 30
0.0
 70
   128
 71
    10
 72
     4
 73
     5
  0
VERTEX
  5
8A7
  8
0
 62
     9
 10
0.0
 20
0.0
 30
0.0
 70
   128
 71
     3
 72
    10
 73
     7
  0
VERTEX
  5
8A8
  8
0
 62
     9
 10
0.0
 20
0.0
 30
0.0
 70
   128
 71
    10
 72
     3
 73
    11
  0
VERTEX
  5
8A9
  8
0
 62
     9
 10
0.0
 20
0.0
 30
0.0
 70
   128
 71
    12
 72
     3
 73
     9
  0
VERTEX
  5
8AA
  8
0
 62
     9
 10
0.0
 20
0.0
 30
0.0
 70
   128
 71
     3
 72
     1
 73
     9
  0
VERTEX
  5
8AB
  8
0
 62
     9
 10
0.0
 20
0.0
 30
0.0
 70
   128
 71
     3
 72
    12
 73
    13
  0
VERTEX
  5
8AC
  8
0
 62
     9
 10
0.0
 20
0.0
 30
0.0
 70
   128
 71
    11
 72
     3
 73
    13
  0
VERTEX
  5
8AD
  8
0
 62
     9
 10
0.0
 20
0.0
 30
0.0
 70
   128
 71
    16
 72
    15
 73
    14
  0
VERTEX
  5
8AE
  8
0
 62
     9
 10
0.0
 20
0.0
 30
0.0
 70
   128
 71
    18
 72
    16
 73
    17
  0
VERTEX
  5
8AF
  8
0
 62
     9
 10
0.0
 20
0.0
 30
0.0
 70
   128
 71
    16
 72
    18
 73
    15
  0
VERTEX
  5
8B0
  8
0
 62
     9
 10
0.0
 20
0.0
 30
0.0
 70
   128
 71
    17
 72
    20
 73
    19
  0
VERTEX
  5
8B1
  8
0
 62
     9
 10
0.0
 20
0.0
 30
0.0
 70
   128
 71
    19
 72
    18
 73
    17
  0
VERTEX
  5
8B2
  8
0
 62
     9
 10
0.0
 20
0.0
 30
0.0
 70
   128
 71
    22
 72
    21
 73
    20
  0
VERTEX
  5
8B3
  8
0
 62
     9
 10
0.0
 20
0.0
 30
0.0
 70
   128
 71
    19
 72
    20
 73
    21
  0
VERTEX
  5
8B4
  8
0
 62
     9
 10
0.0
 20
0.0
 30
0.0
 70
   128
 71
    22
 72
    23
 73
    21
  0
VERTEX
  5
8B5
  8
0
 62
     9
 10
0.0
 20
0.0
 30
0.0
 70
   128
 71
    15
 72
    24
 73
    14
  0
VERTEX
  5
8B6
  8
0
 62
     9
 10
0.0
 20
0.0
 30
0.0
 70
   128
 71
    24
 72
    26
 73
    25
  0
VERTEX
  5
8B7
  8
0
 62
     9
 10
0.0
 20
0.0
 30
0.0
 70
   128
 71
    25
 72
    14
 73
    24
  0
VERTEX
  5
8B8
  8
0
 62
     9
 10
0.0
 20
0.0
 30
0.0
 70
   128
 71
    28
 72
    27
 73
    26
  0
VERTEX
  5
8B9
  8
0
 62
     9
 10
0.0
 20
0.0
 30
0.0
 70
   128
 71
    25
 72
    26
 73
    27
  0
VERTEX
  5
8BA
  8
0
 62
     9
 10
0.0
 20
0.0
 30
0.0
 70
   128
 71
    30
 72
    28
 73
    29
  0
VERTEX
  5
8BB
  8
0
 62
     9
 10
0.0
 20
0.0
 30
0.0
 70
   128
 71
    28
 72
    30
 73
    27
  0
VERTEX
  5
8BC
  8
0
 62
     9
 10
0.0
 20
0.0
 30
0.0
 70
   128
 71
    31
 72
    30
 73
    29
  0
VERTEX
  5
8BD
  8
0
 62
     9
 10
0.0
 20
0.0
 30
0.0
 70
   128
 71
    34
 72
    33
 73
    32
  0
VERTEX
  5
8BE
  8
0
 62
     9
 10
0.0
 20
0.0
 30
0.0
 70
   128
 71
    32
 72
    36
 73
    35
  0
VERTEX
  5
8BF
  8
0
 62
     9
 10
0.0
 20
0.0
 30
0.0
 70
   128
 71
    35
 72
    34
 73
    32
  0
VERTEX
  5
8C0
  8
0
 62
     9
 10
0.0
 20
0.0
 30
0.0
 70
   128
 71
    38
 72
    37
 73
    36
  0
VERTEX
  5
8C1
  8
0
 62
     9
 10
0.0
 20
0.0
 30
0.0
 70
   128
 71
    35
 72
    36
 73
    37
  0
VERTEX
  5
8C2
  8
0
 62
     9
 10
0.0
 20
0.0
 30
0.0
 70
   128
 71
    40
 72
    38
 73
    39
  0
VERTEX
  5
8C3
  8
0
 62
     9
 10
0.0
 20
0.0
 30
0.0
 70
   128
 71
    38
 72
    40
 73
    37
  0
VERTEX
  5
8C4
  8
0
 62
     9
 10
0.0
 20
0.0
 30
0.0
 70
   128
 71
    39
 72
    42
 73
    41
  0
VERTEX
  5
8C5
  8
0
 62
     9
 10
0.0
 20
0.0
 30
0.0
 70
   128
 71
    41
 72
    40
 73
    39
  0
VERTEX
  5
8C6
  8
0
 62
     9
 10
0.0
 20
0.0
 30
0.0
 70
   128
 71
    44
 72
    43
 73
    42
  0
VERTEX
  5
8C7
  8
0
 62
     9
 10
0.0
 20
0.0
 30
0.0
 70
   128
 71
    41
 72
    42
 73
    43
  0
VERTEX
  5
8C8
  8
0
 62
     9
 10
0.0
 20
0.0
 30
0.0
 70
   128
 71
    44
 72
    45
 73
    43
  0
VERTEX
  5
8C9
  8
0
 62
     9
 10
0.0
 20
0.0
 30
0.0
 70
   128
 71
    34
 72
    46
 73
    33
  0
VERTEX
  5
8CA
  8
0
 62
     9
 10
0.0
 20
0.0
 30
0.0
 70
   128
 71
    48
 72
    47
 73
    46
  0
VERTEX
  5
8CB
  8
0
 62
     9
 10
0.0
 20
0.0
 30
0.0
 70
   128
 71
    33
 72
    46
 73
    47
  0
VERTEX
  5
8CC
  8
0
 62
     9
 10
0.0
 20
0.0
 30
0.0
 70
   128
 71
    50
 72
    48
 73
    49
  0
VERTEX
  5
8CD
  8
0
 62
     9
 10
0.0
 20
0.0
 30
0.0
 70
   128
 71
    48
 72
    50
 73
    47
  0
VERTEX
  5
8CE
  8
0
 62
     9
 10
0.0
 20
0.0
 30
0.0
 70
   128
 71
    49
 72
    52
 73
    51
  0
VERTEX
  5
8CF
  8
0
 62
     9
 10
0.0
 20
0.0
 30
0.0
 70
   128
 71
    51
 72
    50
 73
    49
  0
VERTEX
  5
8D0
  8
0
 62
     9
 10
0.0
 20
0.0
 30
0.0
 70
   128
 71
    54
 72
    53
 73
    52
  0
VERTEX
  5
8D1
  8
0
 62
     9
 10
0.0
 20
0.0
 30
0.0
 70
   128
 71
    51
 72
    52
 73
    53
  0
VERTEX
  5
8D2
  8
0
 62
     9
 10
0.0
 20
0.0
 30
0.0
 70
   128
 71
    56
 72
    54
 73
    55
  0
VERTEX
  5
8D3
  8
0
 62
     9
 10
0.0
 20
0.0
 30
0.0
 70
   128
 71
    54
 72
    56
 73
    53
  0
VERTEX
  5
8D4
  8
0
 62
     9
 10
0.0
 20
0.0
 30
0.0
 70
   128
 71
    57
 72
    56
 73
    55
  0
VERTEX
  5
8D5
  8
0
 62
     9
 10
0.0
 20
0.0
 30
0.0
 70
   128
 71
    60
 72
    59
 73
    58
  0
VERTEX
  5
8D6
  8
0
 62
     9
 10
0.0
 20
0.0
 30
0.0
 70
   128
 71
    61
 72
    50
 73
    51
  0
VERTEX
  5
8D7
  8
0
 62
     9
 10
0.0
 20
0.0
 30
0.0
 70
   128
 71
    63
 72
    59
 73
    62
  0
VERTEX
  5
8D8
  8
0
 62
     9
 10
0.0
 20
0.0
 30
0.0
 70
   128
 71
    63
 72
    64
 73
    59
  0
VERTEX
  5
8D9
  8
0
 62
     9
 10
0.0
 20
0.0
 30
0.0
 70
   128
 71
    64
 72
    58
 73
    59
  0
VERTEX
  5
8DA
  8
0
 62
     9
 10
0.0
 20
0.0
 30
0.0
 70
   128
 71
    58
 72
    64
 73
    65
  0
VERTEX
  5
8DB
  8
0
 62
     9
 10
0.0
 20
0.0
 30
0.0
 70
   128
 71
    64
 72
    66
 73
    65
  0
VERTEX
  5
8DC
  8
0
 62
     9
 10
0.0
 20
0.0
 30
0.0
 70
   128
 71
    56
 72
    68
 73
    67
  0
VERTEX
  5
8DD
  8
0
 62
     9
 10
0.0
 20
0.0
 30
0.0
 70
   128
 71
    57
 72
    58
 73
    65
  0
VERTEX
  5
8DE
  8
0
 62
     9
 10
0.0
 20
0.0
 30
0.0
 70
   128
 71
    42
 72
    33
 73
    50
  0
VERTEX
  5
8DF
  8
0
 62
     9
 10
0.0
 20
0.0
 30
0.0
 70
   128
 71
    56
 72
    67
 73
    53
  0
VERTEX
  5
8E0
  8
0
 62
     9
 10
0.0
 20
0.0
 30
0.0
 70
   128
 71
    50
 72
    44
 73
    42
  0
VERTEX
  5
8E1
  8
0
 62
     9
 10
0.0
 20
0.0
 30
0.0
 70
   128
 71
    42
 72
    39
 73
    38
  0
VERTEX
  5
8E2
  8
0
 62
     9
 10
0.0
 20
0.0
 30
0.0
 70
   128
 71
    33
 72
    38
 73
    32
  0
VERTEX
  5
8E3
  8
0
 62
     9
 10
0.0
 20
0.0
 30
0.0
 70
   128
 71
    38
 72
    36
 73
    32
  0
VERTEX
  5
8E4
  8
0
 62
     9
 10
0.0
 20
0.0
 30
0.0
 70
   128
 71
    33
 72
    42
 73
    38
  0
VERTEX
  5
8E5
  8
0
 62
     9
 10
0.0
 20
0.0
 30
0.0
 70
   128
 71
    50
 72
    61
 73
    44
  0
VERTEX
  5
8E6
  8
0
 62
     9
 10
0.0
 20
0.0
 30
0.0
 70
   128
 71
    47
 72
    50
 73
    33
  0
VERTEX
  5
8E7
  8
0
 62
     9
 10
0.0
 20
0.0
 30
0.0
 70
   128
 71
    51
 72
    53
 73
    61
  0
VERTEX
  5
8E8
  8
0
 62
     9
 10
0.0
 20
0.0
 30
0.0
 70
   128
 71
    61
 72
    53
 73
    67
  0
VERTEX
  5
8E9
  8
0
 62
     9
 10
0.0
 20
0.0
 30
0.0
 70
   128
 71
    65
 72
    56
 73
    57
  0
VERTEX
  5
8EA
  8
0
 62
     9
 10
0.0
 20
0.0
 30
0.0
 70
   128
 71
    56
 72
    65
 73
    68
  0
VERTEX
  5
8EB
  8
0
 62
     9
 10
0.0
 20
0.0
 30
0.0
 70
   128
 71
    69
 72
    45
 73
    61
  0
VERTEX
  5
8EC
  8
0
 62
     9
 10
0.0
 20
0.0
 30
0.0
 70
   128
 71
    70
 72
    65
 73
    66
  0
VERTEX
  5
8ED
  8
0
 62
     9
 10
0.0
 20
0.0
 30
0.0
 70
   128
 71
    67
 72
    68
 73
    71
  0
VERTEX
  5
8EE
  8
0
 62
     9
 10
0.0
 20
0.0
 30
0.0
 70
   128
 71
    62
 72
    72
 73
    63
  0
VERTEX
  5
8EF
  8
0
 62
     9
 10
0.0
 20
0.0
 30
0.0
 70
   128
 71
    64
 72
    74
 73
    73
  0
VERTEX
  5
8F0
  8
0
 62
     9
 10
0.0
 20
0.0
 30
0.0
 70
   128
 71
    60
 72
    75
 73
    59
  0
VERTEX
  5
8F1
  8
0
 62
     9
 10
0.0
 20
0.0
 30
0.0
 70
   128
 71
    62
 72
    59
 73
    76
  0
VERTEX
  5
8F2
  8
0
 62
     9
 10
0.0
 20
0.0
 30
0.0
 70
   128
 71
    77
 72
    60
 73
    58
  0
VERTEX
  5
8F3
  8
0
 62
     9
 10
0.0
 20
0.0
 30
0.0
 70
   128
 71
    60
 72
    77
 73
    75
  0
VERTEX
  5
8F4
  8
0
 62
     9
 10
0.0
 20
0.0
 30
0.0
 70
   128
 71
    58
 72
    57
 73
    78
  0
VERTEX
  5
8F5
  8
0
 62
     9
 10
0.0
 20
0.0
 30
0.0
 70
   128
 71
    78
 72
    77
 73
    58
  0
VERTEX
  5
8F6
  8
0
 62
     9
 10
0.0
 20
0.0
 30
0.0
 70
   128
 71
    78
 72
    57
 73
    55
  0
VERTEX
  5
8F7
  8
0
 62
     9
 10
0.0
 20
0.0
 30
0.0
 70
   128
 71
    72
 72
    62
 73
    76
  0
VERTEX
  5
8F8
  8
0
 62
     9
 10
0.0
 20
0.0
 30
0.0
 70
   128
 71
    59
 72
    75
 73
    76
  0
VERTEX
  5
8F9
  8
0
 62
     9
 10
0.0
 20
0.0
 30
0.0
 70
   128
 71
    63
 72
    74
 73
    64
  0
VERTEX
  5
8FA
  8
0
 62
     9
 10
0.0
 20
0.0
 30
0.0
 70
   128
 71
    63
 72
    72
 73
    74
  0
VERTEX
  5
8FB
  8
0
 62
     9
 10
0.0
 20
0.0
 30
0.0
 70
   128
 71
    73
 72
    70
 73
    66
  0
VERTEX
  5
8FC
  8
0
 62
     9
 10
0.0
 20
0.0
 30
0.0
 70
   128
 71
    64
 72
    73
 73
    66
  0
VERTEX
  5
8FD
  8
0
 62
     9
 10
0.0
 20
0.0
 30
0.0
 70
   128
 71
    79
 72
    68
 73
    65
  0
VERTEX
  5
8FE
  8
0
 62
     9
 10
0.0
 20
0.0
 30
0.0
 70
   128
 71
    70
 72
    79
 73
    65
  0
VERTEX
  5
8FF
  8
0
 62
     9
 10
0.0
 20
0.0
 30
0.0
 70
   128
 71
    69
 72
    67
 73
    71
  0
VERTEX
  5
900
  8
0
 62
     9
 10
0.0
 20
0.0
 30
0.0
 70
   128
 71
    71
 72
    68
 73
    79
  0
VERTEX
  5
901
  8
0
 62
     9
 10
0.0
 20
0.0
 30
0.0
 70
   128
 71
    44
 72
    61
 73
    45
  0
VERTEX
  5
902
  8
0
 62
     9
 10
0.0
 20
0.0
 30
0.0
 70
   128
 71
    61
 72
    67
 73
    69
  0
VERTEX
  5
903
  8
0
 62
     9
 10
0.0
 20
0.0
 30
0.0
 70
   128
 71
    49
 72
    48
 73
    80
  0
VERTEX
  5
904
  8
0
 62
     9
 10
0.0
 20
0.0
 30
0.0
 70
   128
 71
    14
 72
    25
 73
    73
  0
VERTEX
  5
905
  8
0
 62
     9
 10
0.0
 20
0.0
 30
0.0
 70
   128
 71
    31
 72
    81
 73
    43
  0
VERTEX
  5
906
  8
0
 62
     9
 10
0.0
 20
0.0
 30
0.0
 70
   128
 71
    82
 72
    40
 73
    41
  0
VERTEX
  5
907
  8
0
 62
     9
 10
0.0
 20
0.0
 30
0.0
 70
   128
 71
    37
 72
    82
 73
    83
  0
VERTEX
  5
908
  8
0
 62
     9
 10
0.0
 20
0.0
 30
0.0
 70
   128
 71
    45
 72
    69
 73
    31
  0
VERTEX
  5
909
  8
0
 62
     9
 10
0.0
 20
0.0
 30
0.0
 70
   128
 71
    27
 72
    30
 73
    71
  0
VERTEX
  5
90A
  8
0
 62
     9
 10
0.0
 20
0.0
 30
0.0
 70
   128
 71
    35
 72
    37
 73
    83
  0
VERTEX
  5
90B
  8
0
 62
     9
 10
0.0
 20
0.0
 30
0.0
 70
   128
 71
    69
 72
    71
 73
    30
  0
VERTEX
  5
90C
  8
0
 62
     9
 10
0.0
 20
0.0
 30
0.0
 70
   128
 71
    84
 72
    34
 73
    35
  0
VERTEX
  5
90D
  8
0
 62
     9
 10
0.0
 20
0.0
 30
0.0
 70
   128
 71
    79
 72
    70
 73
    27
  0
VERTEX
  5
90E
  8
0
 62
     9
 10
0.0
 20
0.0
 30
0.0
 70
   128
 71
    73
 72
    25
 73
    70
  0
VERTEX
  5
90F
  8
0
 62
     9
 10
0.0
 20
0.0
 30
0.0
 70
   128
 71
    74
 72
    72
 73
    14
  0
VERTEX
  5
910
  8
0
 62
     9
 10
0.0
 20
0.0
 30
0.0
 70
   128
 71
    22
 72
    78
 73
    55
  0
VERTEX
  5
911
  8
0
 62
     9
 10
0.0
 20
0.0
 30
0.0
 70
   128
 71
    76
 72
    16
 73
    72
  0
VERTEX
  5
912
  8
0
 62
     9
 10
0.0
 20
0.0
 30
0.0
 70
   128
 71
    20
 72
    78
 73
    22
  0
VERTEX
  5
913
  8
0
 62
     9
 10
0.0
 20
0.0
 30
0.0
 70
   128
 71
    77
 72
    20
 73
    17
  0
VERTEX
  5
914
  8
0
 62
     9
 10
0.0
 20
0.0
 30
0.0
 70
   128
 71
    46
 72
    84
 73
    85
  0
VERTEX
  5
915
  8
0
 62
     9
 10
0.0
 20
0.0
 30
0.0
 70
   128
 71
    76
 72
    17
 73
    16
  0
VERTEX
  5
916
  8
0
 62
     9
 10
0.0
 20
0.0
 30
0.0
 70
   128
 71
    20
 72
    77
 73
    78
  0
VERTEX
  5
917
  8
0
 62
     9
 10
0.0
 20
0.0
 30
0.0
 70
   128
 71
    54
 72
    22
 73
    55
  0
VERTEX
  5
918
  8
0
 62
     9
 10
0.0
 20
0.0
 30
0.0
 70
   128
 71
    54
 72
    52
 73
    86
  0
VERTEX
  5
919
  8
0
 62
     9
 10
0.0
 20
0.0
 30
0.0
 70
   128
 71
    85
 72
    48
 73
    46
  0
VERTEX
  5
91A
  8
0
 62
     9
 10
0.0
 20
0.0
 30
0.0
 70
   128
 71
    17
 72
    76
 73
    75
  0
VERTEX
  5
91B
  8
0
 62
     9
 10
0.0
 20
0.0
 30
0.0
 70
   128
 71
    75
 72
    77
 73
    17
  0
VERTEX
  5
91C
  8
0
 62
     9
 10
0.0
 20
0.0
 30
0.0
 70
   128
 71
    14
 72
    72
 73
    16
  0
VERTEX
  5
91D
  8
0
 62
     9
 10
0.0
 20
0.0
 30
0.0
 70
   128
 71
    14
 72
    73
 73
    74
  0
VERTEX
  5
91E
  8
0
 62
     9
 10
0.0
 20
0.0
 30
0.0
 70
   128
 71
    27
 72
    70
 73
    25
  0
VERTEX
  5
91F
  8
0
 62
     9
 10
0.0
 20
0.0
 30
0.0
 70
   128
 71
    27
 72
    71
 73
    79
  0
VERTEX
  5
920
  8
0
 62
     9
 10
0.0
 20
0.0
 30
0.0
 70
   128
 71
    31
 72
    69
 73
    30
  0
VERTEX
  5
921
  8
0
 62
     9
 10
0.0
 20
0.0
 30
0.0
 70
   128
 71
    31
 72
    43
 73
    45
  0
VERTEX
  5
922
  8
0
 62
     9
 10
0.0
 20
0.0
 30
0.0
 70
   128
 71
    82
 72
    41
 73
    81
  0
VERTEX
  5
923
  8
0
 62
     9
 10
0.0
 20
0.0
 30
0.0
 70
   128
 71
    41
 72
    43
 73
    81
  0
VERTEX
  5
924
  8
0
 62
     9
 10
0.0
 20
0.0
 30
0.0
 70
   128
 71
    82
 72
    37
 73
    40
  0
VERTEX
  5
925
  8
0
 62
     9
 10
0.0
 20
0.0
 30
0.0
 70
   128
 71
    84
 72
    35
 73
    83
  0
VERTEX
  5
926
  8
0
 62
     9
 10
0.0
 20
0.0
 30
0.0
 70
   128
 71
    84
 72
    46
 73
    34
  0
VERTEX
  5
927
  8
0
 62
     9
 10
0.0
 20
0.0
 30
0.0
 70
   128
 71
    80
 72
    48
 73
    85
  0
VERTEX
  5
928
  8
0
 62
     9
 10
0.0
 20
0.0
 30
0.0
 70
   128
 71
    80
 72
    52
 73
    49
  0
VERTEX
  5
929
  8
0
 62
     9
 10
0.0
 20
0.0
 30
0.0
 70
   128
 71
    86
 72
    22
 73
    54
  0
VERTEX
  5
92A
  8
0
 62
     9
 10
0.0
 20
0.0
 30
0.0
 70
   128
 71
    80
 72
    86
 73
    52
  0
VERTEX
  5
92B
  8
0
 62
     9
 10
0.0
 20
0.0
 30
0.0
 70
   128
 71
    87
 72
    23
 73
    86
  0
VERTEX
  5
92C
  8
0
 62
     9
 10
0.0
 20
0.0
 30
0.0
 70
   128
 71
    89
 72
    84
 73
    88
  0
VERTEX
  5
92D
  8
0
 62
     9
 10
0.0
 20
0.0
 30
0.0
 70
   128
 71
    80
 72
    85
 73
    90
  0
VERTEX
  5
92E
  8
0
 62
     9
 10
0.0
 20
0.0
 30
0.0
 70
   128
 71
    91
 72
    82
 73
    81
  0
VERTEX
  5
92F
  8
0
 62
     9
 10
0.0
 20
0.0
 30
0.0
 70
   128
 71
    82
 72
    92
 73
    83
  0
VERTEX
  5
930
  8
0
 62
     9
 10
0.0
 20
0.0
 30
0.0
 70
   128
 71
    81
 72
    31
 73
    93
  0
VERTEX
  5
931
  8
0
 62
     9
 10
0.0
 20
0.0
 30
0.0
 70
   128
 71
    93
 72
    91
 73
    81
  0
VERTEX
  5
932
  8
0
 62
     9
 10
0.0
 20
0.0
 30
0.0
 70
   128
 71
    93
 72
    31
 73
    29
  0
VERTEX
  5
933
  8
0
 62
     9
 10
0.0
 20
0.0
 30
0.0
 70
   128
 71
    88
 72
    83
 73
    92
  0
VERTEX
  5
934
  8
0
 62
     9
 10
0.0
 20
0.0
 30
0.0
 70
   128
 71
    91
 72
    92
 73
    82
  0
VERTEX
  5
935
  8
0
 62
     9
 10
0.0
 20
0.0
 30
0.0
 70
   128
 71
    89
 72
    85
 73
    84
  0
VERTEX
  5
936
  8
0
 62
     9
 10
0.0
 20
0.0
 30
0.0
 70
   128
 71
    88
 72
    84
 73
    83
  0
VERTEX
  5
937
  8
0
 62
     9
 10
0.0
 20
0.0
 30
0.0
 70
   128
 71
    87
 72
    80
 73
    90
  0
VERTEX
  5
938
  8
0
 62
     9
 10
0.0
 20
0.0
 30
0.0
 70
   128
 71
    90
 72
    85
 73
    89
  0
VERTEX
  5
939
  8
0
 62
     9
 10
0.0
 20
0.0
 30
0.0
 70
   128
 71
    22
 72
    86
 73
    23
  0
VERTEX
  5
93A
  8
0
 62
     9
 10
0.0
 20
0.0
 30
0.0
 70
   128
 71
    86
 72
    80
 73
    87
  0
VERTEX
  5
93B
  8
0
 62
     9
 10
0.0
 20
0.0
 30
0.0
 70
   128
 71
    90
 72
    93
 73
    28
  0
VERTEX
  5
93C
  8
0
 62
     9
 10
0.0
 20
0.0
 30
0.0
 70
   128
 71
    93
 72
    88
 73
    92
  0
VERTEX
  5
93D
  8
0
 62
     9
 10
0.0
 20
0.0
 30
0.0
 70
   128
 71
    92
 72
    91
 73
    93
  0
VERTEX
  5
93E
  8
0
 62
     9
 10
0.0
 20
0.0
 30
0.0
 70
   128
 71
    90
 72
    89
 73
    88
  0
VERTEX
  5
93F
  8
0
 62
     9
 10
0.0
 20
0.0
 30
0.0
 70
   128
 71
    88
 72
    93
 73
    90
  0
VERTEX
  5
940
  8
0
 62
     9
 10
0.0
 20
0.0
 30
0.0
 70
   128
 71
    26
 72
    24
 73
    15
  0
VERTEX
  5
941
  8
0
 62
     9
 10
0.0
 20
0.0
 30
0.0
 70
   128
 71
    87
 72
    21
 73
    23
  0
VERTEX
  5
942
  8
0
 62
     9
 10
0.0
 20
0.0
 30
0.0
 70
   128
 71
    18
 72
    19
 73
    21
  0
VERTEX
  5
943
  8
0
 62
     9
 10
0.0
 20
0.0
 30
0.0
 70
   128
 71
    18
 72
    21
 73
    15
  0
VERTEX
  5
944
  8
0
 62
     9
 10
0.0
 20
0.0
 30
0.0
 70
   128
 71
    26
 72
    15
 73
    21
  0
VERTEX
  5
945
  8
0
 62
     9
 10
0.0
 20
0.0
 30
0.0
 70
   128
 71
    90
 72
    26
 73
    87
  0
VERTEX
  5
946
  8
0
 62
     9
 10
0.0
 20
0.0
 30
0.0
 70
   128
 71
    21
 72
    87
 73
    26
  0
VERTEX
  5
947
  8
0
 62
     9
 10
0.0
 20
0.0
 30
0.0
 70
   128
 71
    29
 72
    28
 73
    93
  0
VERTEX
  5
948
  8
0
 62
     9
 10
0.0
 20
0.0
 30
0.0
 70
   128
 71
    90
 72
    28
 73
    26
  0
VERTEX
  5
949
  8
0
 62
     9
 10
0.0
 20
0.0
 30
0.0
 70
   128
 71
    96
 72
    95
 73
    94
  0
VERTEX
  5
94A
  8
0
 62
     9
 10
0.0
 20
0.0
 30
0.0
 70
   128
 71
    99
 72
    98
 73
    97
  0
VERTEX
  5
94B
  8
0
 62
     9
 10
0.0
 20
0.0
 30
0.0
 70
   128
 71
    95
 72
   101
 73
   100
  0
VERTEX
  5
94C
  8
0
 62
     9
 10
0.0
 20
0.0
 30
0.0
 70
   128
 71
    94
 72
    95
 73
   100
  0
VERTEX
  5
94D
  8
0
 62
     9
 10
0.0
 20
0.0
 30
0.0
 70
   128
 71
    95
 72
   102
 73
   101
  0
VERTEX
  5
94E
  8
0
 62
     9
 10
0.0
 20
0.0
 30
0.0
 70
   128
 71
    94
 72
   103
 73
    96
  0
VERTEX
  5
94F
  8
0
 62
     9
 10
0.0
 20
0.0
 30
0.0
 70
   128
 71
   105
 72
   103
 73
   104
  0
VERTEX
  5
950
  8
0
 62
     9
 10
0.0
 20
0.0
 30
0.0
 70
   128
 71
   103
 72
   105
 73
    96
  0
VERTEX
  5
951
  8
0
 62
     9
 10
0.0
 20
0.0
 30
0.0
 70
   128
 71
    98
 72
   107
 73
   106
  0
VERTEX
  5
952
  8
0
 62
     9
 10
0.0
 20
0.0
 30
0.0
 70
   128
 71
    97
 72
   105
 73
   104
  0
VERTEX
  5
953
  8
0
 62
     9
 10
0.0
 20
0.0
 30
0.0
 70
   128
 71
   110
 72
   109
 73
   108
  0
VERTEX
  5
954
  8
0
 62
     9
 10
0.0
 20
0.0
 30
0.0
 70
   128
 71
   108
 72
   111
 73
   110
  0
VERTEX
  5
955
  8
0
 62
     9
 10
0.0
 20
0.0
 30
0.0
 70
   128
 71
   106
 72
   107
 73
   111
  0
VERTEX
  5
956
  8
0
 62
     9
 10
0.0
 20
0.0
 30
0.0
 70
   128
 71
   106
 72
   111
 73
   108
  0
VERTEX
  5
957
  8
0
 62
     9
 10
0.0
 20
0.0
 30
0.0
 70
   128
 71
    97
 72
   104
 73
    99
  0
VERTEX
  5
958
  8
0
 62
     9
 10
0.0
 20
0.0
 30
0.0
 70
   128
 71
    99
 72
   107
 73
    98
  0
VERTEX
  5
959
  8
0
 62
     9
 10
0.0
 20
0.0
 30
0.0
 70
   128
 71
   114
 72
   113
 73
   112
  0
VERTEX
  5
95A
  8
0
 62
     9
 10
0.0
 20
0.0
 30
0.0
 70
   128
 71
   101
 72
   112
 73
   115
  0
VERTEX
  5
95B
  8
0
 62
     9
 10
0.0
 20
0.0
 30
0.0
 70
   128
 71
   112
 72
   113
 73
   115
  0
VERTEX
  5
95C
  8
0
 62
     9
 10
0.0
 20
0.0
 30
0.0
 70
   128
 71
   113
 72
   114
 73
   116
  0
VERTEX
  5
95D
  8
0
 62
     9
 10
0.0
 20
0.0
 30
0.0
 70
   128
 71
   117
 72
   116
 73
   114
  0
VERTEX
  5
95E
  8
0
 62
     9
 10
0.0
 20
0.0
 30
0.0
 70
   128
 71
   117
 72
   118
 73
   116
  0
VERTEX
  5
95F
  8
0
 62
     9
 10
0.0
 20
0.0
 30
0.0
 70
   128
 71
   118
 72
   117
 73
   119
  0
VERTEX
  5
960
  8
0
 62
     9
 10
0.0
 20
0.0
 30
0.0
 70
   128
 71
   118
 72
   119
 73
   120
  0
VERTEX
  5
961
  8
0
 62
     9
 10
0.0
 20
0.0
 30
0.0
 70
   128
 71
   101
 72
   121
 73
   100
  0
VERTEX
  5
962
  8
0
 62
     9
 10
0.0
 20
0.0
 30
0.0
 70
   128
 71
   121
 72
   101
 73
   115
  0
VERTEX
  5
963
  8
0
 62
     9
 10
0.0
 20
0.0
 30
0.0
 70
   128
 71
   100
 72
   121
 73
   122
  0
VERTEX
  5
964
  8
0
 62
     9
 10
0.0
 20
0.0
 30
0.0
 70
   128
 71
   123
 72
    94
 73
   122
  0
VERTEX
  5
965
  8
0
 62
     9
 10
0.0
 20
0.0
 30
0.0
 70
   128
 71
   100
 72
   122
 73
    94
  0
VERTEX
  5
966
  8
0
 62
     9
 10
0.0
 20
0.0
 30
0.0
 70
   128
 71
   103
 72
   123
 73
   124
  0
VERTEX
  5
967
  8
0
 62
     9
 10
0.0
 20
0.0
 30
0.0
 70
   128
 71
   123
 72
   103
 73
    94
  0
VERTEX
  5
968
  8
0
 62
     9
 10
0.0
 20
0.0
 30
0.0
 70
   128
 71
   104
 72
   103
 73
   124
  0
VERTEX
  5
969
  8
0
 62
     9
 10
0.0
 20
0.0
 30
0.0
 70
   128
 71
   123
 72
   116
 73
   125
  0
VERTEX
  5
96A
  8
0
 62
     9
 10
0.0
 20
0.0
 30
0.0
 70
   128
 71
   115
 72
   123
 73
   121
  0
VERTEX
  5
96B
  8
0
 62
     9
 10
0.0
 20
0.0
 30
0.0
 70
   128
 71
   122
 72
   121
 73
   123
  0
VERTEX
  5
96C
  8
0
 62
     9
 10
0.0
 20
0.0
 30
0.0
 70
   128
 71
   113
 72
   116
 73
   115
  0
VERTEX
  5
96D
  8
0
 62
     9
 10
0.0
 20
0.0
 30
0.0
 70
   128
 71
   123
 72
   115
 73
   116
  0
VERTEX
  5
96E
  8
0
 62
     9
 10
0.0
 20
0.0
 30
0.0
 70
   128
 71
   128
 72
   127
 73
   126
  0
VERTEX
  5
96F
  8
0
 62
     9
 10
0.0
 20
0.0
 30
0.0
 70
   128
 71
   129
 72
   118
 73
   120
  0
VERTEX
  5
970
  8
0
 62
     9
 10
0.0
 20
0.0
 30
0.0
 70
   128
 71
   131
 72
   130
 73
   129
  0
VERTEX
  5
971
  8
0
 62
     9
 10
0.0
 20
0.0
 30
0.0
 70
   128
 71
   129
 72
   130
 73
   126
  0
VERTEX
  5
972
  8
0
 62
     9
 10
0.0
 20
0.0
 30
0.0
 70
   128
 71
   126
 72
   127
 73
   129
  0
VERTEX
  5
973
  8
0
 62
     9
 10
0.0
 20
0.0
 30
0.0
 70
   128
 71
   127
 72
   116
 73
   118
  0
VERTEX
  5
974
  8
0
 62
     9
 10
0.0
 20
0.0
 30
0.0
 70
   128
 71
   118
 72
   129
 73
   127
  0
VERTEX
  5
975
  8
0
 62
     9
 10
0.0
 20
0.0
 30
0.0
 70
   128
 71
   125
 72
   124
 73
   123
  0
VERTEX
  5
976
  8
0
 62
     9
 10
0.0
 20
0.0
 30
0.0
 70
   128
 71
   125
 72
   116
 73
   127
  0
VERTEX
  5
977
  8
0
 62
     9
 10
0.0
 20
0.0
 30
0.0
 70
   128
 71
   129
 72
   120
 73
   132
  0
VERTEX
  5
978
  8
0
 62
     9
 10
0.0
 20
0.0
 30
0.0
 70
   128
 71
   134
 72
   133
 73
   131
  0
VERTEX
  5
979
  8
0
 62
     9
 10
0.0
 20
0.0
 30
0.0
 70
   128
 71
   107
 72
   128
 73
   111
  0
VERTEX
  5
97A
  8
0
 62
     9
 10
0.0
 20
0.0
 30
0.0
 70
   128
 71
   126
 72
   110
 73
   111
  0
VERTEX
  5
97B
  8
0
 62
     9
 10
0.0
 20
0.0
 30
0.0
 70
   128
 71
   125
 72
   127
 73
    99
  0
VERTEX
  5
97C
  8
0
 62
     9
 10
0.0
 20
0.0
 30
0.0
 70
   128
 71
   107
 72
    99
 73
   127
  0
VERTEX
  5
97D
  8
0
 62
     9
 10
0.0
 20
0.0
 30
0.0
 70
   128
 71
   125
 72
   104
 73
   124
  0
VERTEX
  5
97E
  8
0
 62
     9
 10
0.0
 20
0.0
 30
0.0
 70
   128
 71
   104
 72
   125
 73
    99
  0
VERTEX
  5
97F
  8
0
 62
     9
 10
0.0
 20
0.0
 30
0.0
 70
   128
 71
   127
 72
   128
 73
   107
  0
VERTEX
  5
980
  8
0
 62
     9
 10
0.0
 20
0.0
 30
0.0
 70
   128
 71
   111
 72
   128
 73
   126
  0
VERTEX
  5
981
  8
0
 62
     9
 10
0.0
 20
0.0
 30
0.0
 70
   128
 71
   134
 72
   131
 73
   129
  0
VERTEX
  5
982
  8
0
 62
     9
 10
0.0
 20
0.0
 30
0.0
 70
   128
 71
   110
 72
   126
 73
   130
  0
VERTEX
  5
983
  8
0
 62
     9
 10
0.0
 20
0.0
 30
0.0
 70
   128
 71
   131
 72
   133
 73
   130
  0
VERTEX
  5
984
  8
0
 62
     9
 10
0.0
 20
0.0
 30
0.0
 70
   128
 71
   130
 72
   133
 73
   110
  0
VERTEX
  5
985
  8
0
 62
     9
 10
0.0
 20
0.0
 30
0.0
 70
   128
 71
   132
 72
   134
 73
   129
  0
VERTEX
  5
986
  8
0
 62
     9
 10
0.0
 20
0.0
 30
0.0
 70
   128
 71
   119
 72
   132
 73
   120
  0
VERTEX
  5
987
  8
0
 62
     9
 10
0.0
 20
0.0
 30
0.0
 70
   128
 71
   112
 72
   101
 73
   135
  0
VERTEX
  5
988
  8
0
 62
     9
 10
0.0
 20
0.0
 30
0.0
 70
   128
 71
   117
 72
   136
 73
   119
  0
VERTEX
  5
989
  8
0
 62
     9
 10
0.0
 20
0.0
 30
0.0
 70
   128
 71
   138
 72
   137
 73
   114
  0
VERTEX
  5
98A
  8
0
 62
     9
 10
0.0
 20
0.0
 30
0.0
 70
   128
 71
   140
 72
   132
 73
   139
  0
VERTEX
  5
98B
  8
0
 62
     9
 10
0.0
 20
0.0
 30
0.0
 70
   128
 71
   134
 72
   141
 73
   133
  0
VERTEX
  5
98C
  8
0
 62
     9
 10
0.0
 20
0.0
 30
0.0
 70
   128
 71
   141
 72
   134
 73
   140
  0
VERTEX
  5
98D
  8
0
 62
     9
 10
0.0
 20
0.0
 30
0.0
 70
   128
 71
   141
 72
   109
 73
   110
  0
VERTEX
  5
98E
  8
0
 62
     9
 10
0.0
 20
0.0
 30
0.0
 70
   128
 71
   110
 72
   133
 73
   141
  0
VERTEX
  5
98F
  8
0
 62
     9
 10
0.0
 20
0.0
 30
0.0
 70
   128
 71
   119
 72
   139
 73
   132
  0
VERTEX
  5
990
  8
0
 62
     9
 10
0.0
 20
0.0
 30
0.0
 70
   128
 71
   134
 72
   132
 73
   140
  0
VERTEX
  5
991
  8
0
 62
     9
 10
0.0
 20
0.0
 30
0.0
 70
   128
 71
   117
 72
   137
 73
   136
  0
VERTEX
  5
992
  8
0
 62
     9
 10
0.0
 20
0.0
 30
0.0
 70
   128
 71
   119
 72
   136
 73
   139
  0
VERTEX
  5
993
  8
0
 62
     9
 10
0.0
 20
0.0
 30
0.0
 70
   128
 71
   112
 72
   138
 73
   114
  0
VERTEX
  5
994
  8
0
 62
     9
 10
0.0
 20
0.0
 30
0.0
 70
   128
 71
   114
 72
   137
 73
   117
  0
VERTEX
  5
995
  8
0
 62
     9
 10
0.0
 20
0.0
 30
0.0
 70
   128
 71
   102
 72
   135
 73
   101
  0
VERTEX
  5
996
  8
0
 62
     9
 10
0.0
 20
0.0
 30
0.0
 70
   128
 71
   135
 72
   138
 73
   112
  0
VERTEX
  5
997
  8
0
 62
     9
 10
0.0
 20
0.0
 30
0.0
 70
   128
 71
   141
 72
   138
 73
   108
  0
VERTEX
  5
998
  8
0
 62
     9
 10
0.0
 20
0.0
 30
0.0
 70
   128
 71
   136
 72
   141
 73
   139
  0
VERTEX
  5
999
  8
0
 62
     9
 10
0.0
 20
0.0
 30
0.0
 70
   128
 71
   140
 72
   139
 73
   141
  0
VERTEX
  5
99A
  8
0
 62
     9
 10
0.0
 20
0.0
 30
0.0
 70
   128
 71
   137
 72
   138
 73
   136
  0
VERTEX
  5
99B
  8
0
 62
     9
 10
0.0
 20
0.0
 30
0.0
 70
   128
 71
   141
 72
   136
 73
   138
  0
VERTEX
  5
99C
  8
0
 62
     9
 10
0.0
 20
0.0
 30
0.0
 70
   128
 71
    98
 72
   106
 73
    97
  0
VERTEX
  5
99D
  8
0
 62
     9
 10
0.0
 20
0.0
 30
0.0
 70
   128
 71
    95
 72
   135
 73
   102
  0
VERTEX
  5
99E
  8
0
 62
     9
 10
0.0
 20
0.0
 30
0.0
 70
   128
 71
    96
 72
   105
 73
    95
  0
VERTEX
  5
99F
  8
0
 62
     9
 10
0.0
 20
0.0
 30
0.0
 70
   128
 71
    95
 72
   105
 73
    97
  0
VERTEX
  5
9A0
  8
0
 62
     9
 10
0.0
 20
0.0
 30
0.0
 70
   128
 71
    97
 72
   106
 73
    95
  0
VERTEX
  5
9A1
  8
0
 62
     9
 10
0.0
 20
0.0
 30
0.0
 70
   128
 71
   106
 72
   138
 73
   135
  0
VERTEX
  5
9A2
  8
0
 62
     9
 10
0.0
 20
0.0
 30
0.0
 70
   128
 71
   135
 72
    95
 73
   106
  0
VERTEX
  5
9A3
  8
0
 62
     9
 10
0.0
 20
0.0
 30
0.0
 70
   128
 71
   108
 72
   109
 73
   141
  0
VERTEX
  5
9A4
  8
0
 62
     9
 10
0.0
 20
0.0
 30
0.0
 70
   128
 71
   108
 72
   138
 73
   106
  0
SEQEND
  5
9A5
  8
0
 62
     9
  0
ENDBLK
  5
9A8
  8
0
  0
ENDSEC
  0
SECTION
  2
ENTITIES
  0
INSERT
  5
16E
  8
LAYER_1
  2
12550-11
 10
0.0
 20
0.0
 30
0.0
  0
INSERT
  5
2A5
  8
LAYER_1
  2
12550-11_1_
 10
0.0
 20
0.0
 30
0.0
  0
INSERT
  5
307
  8
LAYER_1
  2
12550-10
 10
0.0
 20
0.0
 30
0.0
  0
INSERT
  5
369
  8
LAYER_1
  2
12550-10_1_
 10
0.0
 20
0.0
 30
0.0
  0
INSERT
  5
44F
  8
LAYER_1
  2
12550-04
 10
0.0
 20
0.0
 30
0.0
  0
INSERT
  5
535
  8
LAYER_1
  2
12550-04_1_
 10
0.0
 20
0.0
 30
0.0
  0
INSERT
  5
57F
  8
LAYER_1
  2
12550-02
 10
0.0
 20
0.0
 30
0.0
  0
INSERT
  5
5F6
  8
LAYER_1
  2
12550-01
 10
0.0
 20
0.0
 30
0.0
  0
INSERT
  5
640
  8
LAYER_1
  2
12500-02
 10
0.0
 20
0.0
 30
0.0
  0
INSERT
  5
805
  8
LAYER_1
  2
12550-05
 10
0.0
 20
0.0
 30
0.0
  0
INSERT
  5
9A6
  8
LAYER_1
  2
12550-05_1_
 10
0.0
 20
0.0
 30
0.0
  0
ENDSEC
  0
EOF
